  0
SECTION
  2
HEADER
  9
$ACADVER
  1
AC1009
  9
$INSBASE
 10
0.0
 20
0.0
 30
0.0
  9
$EXTMIN
 10
-2.44231444094987
 20
-12.05020357296325
 30
0.0
  9
$EXTMAX
 10
81.500000000000028
 20
40.0
 30
0.0
  9
$LIMMIN
 10
0.0
 20
0.0
  9
$LIMMAX
 10
297.0
 20
210.0
  9
$ORTHOMODE
 70
     1
  9
$REGENMODE
 70
     1
  9
$FILLMODE
 70
     1
  9
$QTEXTMODE
 70
     0
  9
$MIRRTEXT
 70
     1
  9
$DRAGMODE
 70
     2
  9
$LTSCALE
 40
10.0
  9
$OSMODE
 70
  3071
  9
$ATTMODE
 70
     1
  9
$TEXTSIZE
 40
3.0
  9
$TRACEWID
 40
1.0
  9
$TEXTSTYLE
  7
YOKO
  9
$CLAYER
  8
240
  9
$CELTYPE
  6
BYLAYER
  9
$CECOLOR
 62
   256
  9
$DIMSCALE
 40
1.0
  9
$DIMASZ
 40
2.0
  9
$DIMEXO
 40
0.5
  9
$DIMDLI
 40
2.5
  9
$DIMRND
 40
0.0
  9
$DIMDLE
 40
0.0
  9
$DIMEXE
 40
1.0
  9
$DIMTP
 40
0.0
  9
$DIMTM
 40
0.0
  9
$DIMTXT
 40
2.799999999999998
  9
$DIMCEN
 40
0.0
  9
$DIMTSZ
 40
0.0
  9
$DIMTOL
 70
     0
  9
$DIMLIM
 70
     0
  9
$DIMTIH
 70
     0
  9
$DIMTOH
 70
     0
  9
$DIMSE1
 70
     0
  9
$DIMSE2
 70
     0
  9
$DIMTAD
 70
     3
  9
$DIMZIN
 70
     8
  9
$DIMBLK
  1

  9
$DIMASO
 70
     1
  9
$DIMSHO
 70
     1
  9
$DIMPOST
  1

  9
$DIMAPOST
  1

  9
$DIMALT
 70
     0
  9
$DIMALTD
 70
     2
  9
$DIMALTF
 40
25.399999999999999
  9
$DIMLFAC
 40
1.0
  9
$DIMTOFL
 70
     1
  9
$DIMTVP
 40
0.0
  9
$DIMTIX
 70
     1
  9
$DIMSOXD
 70
     0
  9
$DIMSAH
 70
     1
  9
$DIMBLK1
  1
OPEN
  9
$DIMBLK2
  1
OPEN
  9
$DIMSTYLE
  2
BIGT
  9
$DIMCLRD
 70
   256
  9
$DIMCLRE
 70
   256
  9
$DIMCLRT
 70
    40
  9
$DIMTFAC
 40
1.0
  9
$DIMGAP
 40
1.0
  9
$LUNITS
 70
     2
  9
$LUPREC
 70
     3
  9
$SKETCHINC
 40
1.0
  9
$FILLETRAD
 40
0.0
  9
$AUNITS
 70
     0
  9
$AUPREC
 70
     3
  9
$MENU
  1
.
  9
$ELEVATION
 40
0.0
  9
$PELEVATION
 40
0.0
  9
$THICKNESS
 40
0.0
  9
$LIMCHECK
 70
     0
  9
$BLIPMODE
 70
     0
  9
$CHAMFERA
 40
10.0
  9
$CHAMFERB
 40
10.0
  9
$SKPOLY
 70
     0
  9
$TDCREATE
 40
2457094.6160638998
  9
$TDUPDATE
 40
2457378.6361626619
  9
$TDINDWG
 40
0.00610875
  9
$TDUSRTIMER
 40
0.0061085417
  9
$USRTIMER
 70
     1
  9
$ANGBASE
 50
0.0
  9
$ANGDIR
 70
     0
  9
$PDMODE
 70
     1
  9
$PDSIZE
 40
-5.0
  9
$PLINEWID
 40
0.0
  9
$COORDS
 70
     1
  9
$SPLFRAME
 70
     0
  9
$SPLINETYPE
 70
     6
  9
$SPLINESEGS
 70
     8
  9
$ATTDIA
 70
     1
  9
$ATTREQ
 70
     1
  9
$HANDLING
 70
     1
  9
$HANDSEED
  5
114A
  9
$SURFTAB1
 70
     6
  9
$SURFTAB2
 70
     6
  9
$SURFTYPE
 70
     6
  9
$SURFU
 70
     6
  9
$SURFV
 70
     6
  9
$UCSNAME
  2

  9
$UCSORG
 10
0.0
 20
0.0
 30
0.0
  9
$UCSXDIR
 10
1.0
 20
0.0
 30
0.0
  9
$UCSYDIR
 10
0.0
 20
1.0
 30
0.0
  9
$PUCSNAME
  2

  9
$PUCSORG
 10
0.0
 20
0.0
 30
0.0
  9
$PUCSXDIR
 10
1.0
 20
0.0
 30
0.0
  9
$PUCSYDIR
 10
0.0
 20
1.0
 30
0.0
  9
$USERI1
 70
     1
  9
$USERI2
 70
     0
  9
$USERI3
 70
     0
  9
$USERI4
 70
     0
  9
$USERI5
 70
     0
  9
$USERR1
 40
0.0
  9
$USERR2
 40
0.0
  9
$USERR3
 40
0.0
  9
$USERR4
 40
0.0
  9
$USERR5
 40
0.0
  9
$WORLDVIEW
 70
     1
  9
$SHADEDGE
 70
     3
  9
$SHADEDIF
 70
    70
  9
$TILEMODE
 70
     1
  9
$MAXACTVP
 70
    16
  9
$PLIMCHECK
 70
     0
  9
$PEXTMIN
 10
1.0000000000000000E+020
 20
1.0000000000000000E+020
 30
1.0000000000000000E+020
  9
$PEXTMAX
 10
-1.0000000000000000E+020
 20
-1.0000000000000000E+020
 30
-1.0000000000000000E+020
  9
$PLIMMIN
 10
0.0
 20
0.0
  9
$PLIMMAX
 10
420.0
 20
297.0
  9
$UNITMODE
 70
     0
  9
$VISRETAIN
 70
     0
  9
$PLINEGEN
 70
     0
  9
$PSLTSCALE
 70
     1
  0
ENDSEC
  0
SECTION
  2
TABLES
  0
TABLE
  2
VPORT
 70
     1
  0
VPORT
  2
*ACTIVE
 70
     0
 10
0.0
 20
0.0
 11
1.0
 21
1.0
 12
38.406964176255933
 22
20.670919870599288
 13
0.0
 23
0.0
 14
7.0
 24
7.0
 15
7.0
 25
7.0
 16
0.0
 26
0.0
 36
1.0
 17
0.0
 27
0.0
 37
0.0
 40
103.81604039560359
 41
1.486725663716814
 42
50.0
 43
0.0
 44
0.0
 50
0.0
 51
0.0
 71
     0
 72
 20000
 73
     1
 74
     0
 75
     0
 76
     0
 77
     0
 78
     0
  0
ENDTAB
  0
TABLE
  2
LTYPE
 70
    22
  0
LTYPE
  2
CONTINUOUS
 70
     0
  3
Solid line
 72
    65
 73
     0
 40
0.0
  0
LTYPE
  2
CENTER2
 70
     0
  3
___ _ ___ _ ___ _ ___ _ ___ _ ___ _ ___ _ ___ _
 72
    65
 73
     4
 40
1.125
 49
0.75
 49
-0.125
 49
0.125
 49
-0.125
  0
LTYPE
  2
PHANTOM2
 70
     0
  3
___ _ _ ___ _ _ ___ _ _ ___ _ _ ___ _ _ ___ _ _
 72
    65
 73
     6
 40
1.25
 49
0.625
 49
-0.125
 49
0.125
 49
-0.125
 49
0.125
 49
-0.125
  0
LTYPE
  2
HIDDEN2
 70
     0
  3
_ _ _ _ _ _ _ _ _ _ _ _ _ _ _ _ _ _ _ _ _ _ _ _
 72
    65
 73
     2
 40
0.1875
 49
0.125
 49
-0.0625
  0
LTYPE
  2
AMCONSTR
 70
     0
  3
_______________________
 72
    65
 73
     2
 40
9999.0
 49
9999.0
 49
0.0
  0
LTYPE
  2
HIDDEN
 70
     0
  3
Hidden __ __ __ __ __ __ __ __ __ __ __ __ __ _
 72
    65
 73
     2
 40
0.375
 49
0.25
 49
-0.125
  0
LTYPE
  2
CENTER
 70
     0
  3
Center ____ _ ____ _ ____ _ ____ _ ____ _ ____
 72
    65
 73
     4
 40
2.0
 49
1.25
 49
-0.25
 49
0.25
 49
-0.25
  0
LTYPE
  2
AMZIGZAG2
 70
     0
  3
/\/-/\/-/\/-/\/-/\/-/\/
 72
    65
 73
     2
 40
0.4401
 49
0.0001
 49
-0.4400000000000001
  0
LTYPE
  2
ACANSTGB
 70
     0
  3
__ . . __ . .
 72
    65
 73
     6
 40
0.35433070866
 49
0.15748031496
 49
-0.03937007874
 49
0.03937007874
 49
-0.03937007874
 49
0.03937007874
 49
-0.03937007874
  0
LTYPE
  2
ACANSTGL
 70
     0
  3
_ _ _ _ _
 72
    65
 73
     2
 40
0.11811023622
 49
0.07874015748
 49
-0.03937007874
  0
ENDTAB
  0
TABLE
  2
LAYER
 70
     7
  0
LAYER
  2
0
 70
     0
 62
     7
  6
CONTINUOUS
  0
LAYER
  2
240
 70
     0
 62
     4
  6
CONTINUOUS
  0
LAYER
  2
241
 70
     0
 62
   211
  6
CONTINUOUS
  0
LAYER
  2
245
 70
     0
 62
     2
  6
CENTER2
  0
LAYER
  2
250
 70
     0
 62
     3
  6
CONTINUOUS
  0
LAYER
  2
DEFPOINTS
 70
     0
 62
     7
  6
CONTINUOUS
  0
LAYER
  2
247
 70
     0
 62
    60
  6
CONTINUOUS
  0
ENDTAB
  0
TABLE
  2
STYLE
 70
    10
  0
STYLE
  2
STANDARD
 70
     0
 40
0.0
 41
1.0
 50
0.0
 71
     0
 42
3.0
  3
romans.shx
  4
BIGFONT.SHX
  0
STYLE
  2
YOKO
 70
     0
 40
0.0
 41
1.0
 50
0.0
 71
     0
 42
3.0
  3
romans.shx
  4
extfont.shx
  0
STYLE
  2
ACJISTS
 70
     0
 40
1.0
 41
1.0
 50
0.0
 71
     0
 42
3.0
  3
amgdt.shx
  4
extfont.shx
  0
STYLE
  2

 70
     1
 40
0.0
 41
1.0
 50
0.0
 71
     0
 42
3.0
  3
genltshp.shx
  4

  0
STYLE
  2
ACANSGDT
 70
     0
 40
0.0
 41
1.0
 50
0.0
 71
     0
 42
3.0
  3
amgdt.shx
  4

  0
ENDTAB
  0
TABLE
  2
VIEW
 70
     0
  0
ENDTAB
  0
TABLE
  2
UCS
 70
     0
  0
ENDTAB
  0
TABLE
  2
APPID
 70
    46
  0
APPID
  2
ACAD
 70
     0
  0
APPID
  2
ACADANNOTATIVE
 70
     0
  0
APPID
  2
GLOBAL
 70
     0
  0
APPID
  2
DETAIL
 70
     0
  0
APPID
  2
GRPNAME
 70
     0
  0
APPID
  2
GPARA
 70
     0
  0
APPID
  2
DCO15
 70
     0
  0
APPID
  2
ITEMNAME
 70
     0
  0
APPID
  2
GRADE_0
 70
     0
  0
APPID
  2
LAYER_SCALE
 70
     0
  0
APPID
  2
ACAD_PSEXT
 70
     0
  0
APPID
  2
ACAD_NAV_VCDISPLAY
 70
     0
  0
APPID
  2
HATCH_TYPE
 70
     0
  0
APPID
  2
HATCH_DISPLAY
 70
     0
  0
APPID
  2
HATCH_DISTANCE
 70
     0
  0
APPID
  2
ASKLEADER
 70
     0
  0
APPID
  2
ASKLEADERCHILD
 70
     0
  0
APPID
  2
MCAD_NO_VIS
 70
     0
  0
APPID
  2
ACAD_TEMP_GRAPHIC
 70
     0
  0
APPID
  2
ACATTRIBSERVICES
 70
     0
  0
APPID
  2
GENIUS_GENSCREG_15
 70
     0
  0
APPID
  2
GENIUS_GENODEF_13
 70
     0
  0
APPID
  2
GENIUS_GENOBJ-N-SDF_13
 70
     0
  0
APPID
  2
GENIUS_GENREC_14
 70
     0
  0
APPID
  2
GENIUS_GENOBJ-N-REC_13
 70
     0
  0
APPID
  2
GENIUS_GENDIMSH_14
 70
     0
  0
APPID
  2
GENIUS_GENOBJ-N-DIM_13
 70
     0
  0
APPID
  2
GENIUS_GENDIM_13
 70
     0
  0
APPID
  2
GENIUS_GENDTOL_13
 70
     0
  0
APPID
  2
GENIUS_GENOLIS_13
 70
     0
  0
APPID
  2
GENIUS_GENOENT_13
 70
     0
  0
APPID
  2
GENIUS_GENOBJ-F-FEM_13
 70
     0
  0
APPID
  2
GENIUS_GENOREF_13
 70
     0
  0
APPID
  2
GENIUS_GEFFEM_13
 70
     0
  0
APPID
  2
GENIUS_GEFFEMP_13
 70
     0
  0
APPID
  2
AD_DRAW
 70
     0
  0
APPID
  2
DESIGNERASSEMBLIES
 70
     0
  0
APPID
  2
ACADM_DIM_EDIT
 70
     0
  0
APPID
  2
AMDT_DM_ADJ
 70
     0
  0
APPID
  2
GENIUS_GENOBJ-N-FIL_13
 70
     0
  0
APPID
  2
GENIUS_GENFIL_13
 70
     0
  0
APPID
  2
GENIUS_GENOBJ-N-CHA_13
 70
     0
  0
APPID
  2
ACAD_MLEADERVER
 70
     0
  0
APPID
  2
ACAD_DSTYLE_DIMJAG
 70
     0
  0
APPID
  2
ACAD_DSTYLE_DIMBREAK
 70
     0
  0
APPID
  2
ACAD_EXEMPT_FROM_CAD_STANDARDS
 70
     0
  0
ENDTAB
  0
TABLE
  2
DIMSTYLE
 70
    31
  0
DIMSTYLE
  2
STANDARD
 70
     0
  3

  4

  5

  6

  7

 40
1.0
 41
0.18
 42
0.0625
 43
0.38
 44
0.18
 45
0.0
 46
0.0
 47
0.0
 48
0.0
140
0.18
141
0.09
142
0.0
143
25.399999999999999
144
1.0
145
0.0
146
1.0
147
0.09
 71
     0
 72
     0
 73
     1
 74
     1
 75
     0
 76
     0
 77
     0
 78
     0
170
     0
171
     2
172
     0
173
     0
174
     0
175
     0
176
     0
177
     0
178
     0
  0
DIMSTYLE
  2
BIGT
 70
     0
  3

  4

  5

  6

  7

 40
1.0
 41
2.2299999999999991
 42
0.5
 43
7.0
 44
1.0
 45
0.0
 46
0.0
 47
0.0
 48
0.01
140
2.799999999999998
141
0.0
142
0.0
143
25.399999999999999
144
1.0
145
0.0
146
1.0
147
1.0
 71
     0
 72
     0
 73
     0
 74
     0
 75
     0
 76
     0
 77
     3
 78
     9
170
     0
171
     2
172
     1
173
     0
174
     1
175
     0
176
   256
177
   256
178
    40
  0
DIMSTYLE
  2
AM_ANSI
 70
     0
  3

  4
mm
  5

  6

  7

 40
1.0
 41
0.12
 42
0.05
 43
0.5
 44
0.1
 45
0.0
 46
0.0
 47
0.1
 48
0.1
140
0.12
141
0.0
142
0.0
143
25.399999999999999
144
1.0
145
0.0
146
0.71
147
0.06
 71
     0
 72
     0
 73
     1
 74
     1
 75
     0
 76
     0
 77
     0
 78
     7
170
     0
171
     2
172
     0
173
     0
174
     0
175
     0
176
   256
177
   256
178
     2
  0
DIMSTYLE
  2
AM_ANSI$3
 70
     0
  3

  4
mm
  5

  6

  7

 40
1.0
 41
0.12
 42
0.05
 43
0.5
 44
0.1
 45
0.0
 46
0.0
 47
0.1
 48
0.1
140
0.12
141
0.0
142
0.0
143
25.399999999999999
144
1.0
145
0.0
146
0.71
147
0.06
 71
     0
 72
     0
 73
     1
 74
     1
 75
     0
 76
     0
 77
     0
 78
     7
170
     0
171
     2
172
     0
173
     0
174
     0
175
     0
176
   256
177
   256
178
     2
  0
DIMSTYLE
  2
AM_ANSI$4
 70
     0
  3

  4
mm
  5

  6

  7

 40
1.0
 41
0.12
 42
0.05
 43
0.5
 44
0.1
 45
0.0
 46
0.0
 47
0.1
 48
0.1
140
0.12
141
0.0
142
0.0
143
25.399999999999999
144
1.0
145
0.0
146
0.71
147
0.06
 71
     0
 72
     0
 73
     1
 74
     1
 75
     0
 76
     0
 77
     0
 78
     7
170
     0
171
     2
172
     0
173
     0
174
     0
175
     0
176
   256
177
   256
178
     2
  0
DIMSTYLE
  2
AM_ANSI$7
 70
     0
  3

  4
mm
  5

  6

  7

 40
1.0
 41
0.12
 42
0.05
 43
0.5
 44
0.1
 45
0.0
 46
0.0
 47
0.1
 48
0.1
140
0.12
141
0.0
142
0.0
143
25.399999999999999
144
1.0
145
0.0
146
0.71
147
0.06
 71
     0
 72
     0
 73
     1
 74
     1
 75
     0
 76
     0
 77
     0
 78
     7
170
     0
171
     2
172
     0
173
     0
174
     0
175
     0
176
   256
177
   256
178
     2
  0
DIMSTYLE
  2
AM_ANSI$SF
 70
     0
  3

  4
mm
  5

  6

  7

 40
1.0
 41
0.12
 42
0.05
 43
0.5
 44
0.1
 45
0.0
 46
0.0
 47
0.1
 48
0.1
140
0.12
141
0.0
142
0.0
143
25.399999999999999
144
1.0
145
0.0
146
0.71
147
0.06
 71
     0
 72
     0
 73
     1
 74
     1
 75
     1
 76
     1
 77
     0
 78
     7
170
     0
171
     2
172
     0
173
     0
174
     0
175
     0
176
   256
177
   256
178
     2
  0
DIMSTYLE
  2
AM_ANSI$SH
 70
     0
  3

  4
mm
  5

  6
GENAXEH
  7

 40
1.0
 41
0.12
 42
0.05
 43
0.5
 44
0.1
 45
0.0
 46
0.0
 47
0.1
 48
0.1
140
0.12
141
0.0
142
0.0
143
25.399999999999999
144
1.0
145
0.0
146
0.71
147
0.06
 71
     0
 72
     0
 73
     1
 74
     1
 75
     1
 76
     1
 77
     0
 78
     7
170
     0
171
     2
172
     0
173
     1
174
     0
175
     0
176
   256
177
   256
178
     2
  0
ENDTAB
  0
ENDSEC
  0
SECTION
  2
BLOCKS
  0
BLOCK
  8
0
  2
$MODEL_SPACE
 70
     0
 10
0.0
 20
0.0
 30
0.0
  3
$MODEL_SPACE
  1

  0
ENDBLK
  5
100B
  8
0
  0
BLOCK
 67
     1
  8
0
  2
$PAPER_SPACE
 70
     0
 10
0.0
 20
0.0
 30
0.0
  3
$PAPER_SPACE
  1

  0
ENDBLK
  5
1007
 67
     1
  8
0
  0
BLOCK
  8
0
  2
_OPEN
 70
     0
 10
0.0
 20
0.0
 30
0.0
  3
_OPEN
  1

  0
LINE
  5
DF8
  8
0
  6
BYBLOCK
 62
     0
 10
-1.0
 20
0.1666666666666666
 30
0.0
 11
0.0
 21
0.0
 31
0.0
  0
LINE
  5
DF9
  8
0
  6
BYBLOCK
 62
     0
 10
-1.0
 20
-0.1666666666666666
 30
0.0
 11
0.0
 21
0.0
 31
0.0
  0
LINE
  5
DFA
  8
0
  6
BYBLOCK
 62
     0
 10
0.0
 20
0.0
 30
0.0
 11
-1.0
 21
0.0
 31
0.0
  0
ENDBLK
  5
DFB
  8
0
  0
BLOCK
  8
0
  2
矢印なし
 70
     0
 10
0.0
 20
0.0
 30
0.0
  3
矢印なし
  1

  0
ENDBLK
  5
6E5
  8
0
  0
BLOCK
  8
0
  2
GENAXEH
 70
     0
 10
0.0
 20
0.0
 30
0.0
  3
GENAXEH
  1

  0
LINE
  5
E33
  8
0
 10
-1.0
 20
0.0
 30
0.0
 11
1.0
 21
0.0
 31
0.0
  0
ENDBLK
  5
E34
  8
0
  0
BLOCK
  8
0
  2
_ACMFILLEDHALF
 70
     0
 10
0.0
 20
0.0
 30
0.0
  3
_ACMFILLEDHALF
  1

  0
TRACE
  5
10D4
  8
240
 62
     0
 10
-0.8
 20
0.0
 30
0.0
 11
-1.0
 21
0.166666666
 31
0.0
 12
0.0
 22
0.0
 32
0.0
 13
0.0
 23
0.0
 33
0.0
  0
LINE
  5
10D5
  8
240
 62
     0
 10
-1.0
 20
0.0
 30
0.0
 11
-0.8
 21
0.0
 31
0.0
  0
ENDBLK
  5
10D3
  8
0
  0
ENDSEC
  0
SECTION
  2
ENTITIES
  0
INSERT
  5
6E6
  8
245
  2
矢印なし
 10
175.62382696643769
 20
90.55123571690595
 30
0.0
  0
TEXT
  5
9C6
  8
241
  6
CONTINUOUS
 10
0.0
 20
35.0
 30
0.0
 40
5.0
  1
ST8W-CS8-45B-32
  7
YOKO
 11
0.0
 21
35.0
 31
0.0
 73
     1
  0
LINE
  5
CE3
  8
250
  6
CONTINUOUS
 10
68.79999999999535
 20
3.9500000000048061
 30
0.0
 11
81.500000000000028
 21
3.9500000000048061
 31
0.0
  0
LINE
  5
CE4
  8
250
  6
CONTINUOUS
 10
80.500000000000014
 20
1.950000000004805
 30
0.0
 11
80.500000000000213
 21
-6.074322112058482
 31
0.0
  0
LINE
  5
EA0
  8
245
  6
CENTER2
 10
71.000000000000512
 20
-0.0000000000000142
 30
0.0
 11
-1.000000000000085
 21
0.0
 31
0.0
  0
LINE
  5
EA1
  8
240
  6
CONTINUOUS
 10
34.968911086755092
 20
4.00000000000004
 30
0.0
 11
0.0000000000009663
 21
4.00000000000004
 31
0.0
  0
LINE
  5
EA2
  8
240
  6
CONTINUOUS
 10
34.968911086754133
 20
-4.0000000000000124
 30
0.0
 11
-0.0000000000009663
 21
-3.9999999999998961
 31
0.0
  0
LINE
  5
EA3
  8
241
  6
CONTINUOUS
 10
68.100000000008606
 20
-3.949999999997615
 30
0.0
 11
68.100000000008535
 21
3.9499999999975852
 31
0.0
  0
LINE
  5
EA4
  8
241
  6
CONTINUOUS
 10
68.300000000001361
 20
-3.9499999999997741
 30
0.0
 11
68.300000000001958
 21
3.949999999999747
 31
0.0
  0
LINE
  5
EA5
  8
240
  6
CONTINUOUS
 10
38.000000000000632
 20
2.2500000000000422
 30
0.0
 11
66.400000000009015
 21
2.250000000000099
 31
0.0
  0
LINE
  5
EA6
  8
240
  6
CONTINUOUS
 10
37.999999999999531
 20
-2.250000000000127
 30
0.0
 11
66.40000000000822
 21
-2.250000000000127
 31
0.0
  0
LINE
  5
EA8
  8
240
  6
CONTINUOUS
 10
68.100000000004115
 20
3.949999999995482
 30
0.0
 11
68.29999999999535
 21
3.9500000000048061
 31
0.0
  0
LINE
  5
EA9
  8
240
  6
CONTINUOUS
 10
68.099999999998488
 20
-3.949999999987666
 30
0.0
 11
68.299999999989154
 21
-3.9500000000123361
 31
0.0
  0
LINE
  5
EAA
  8
240
  6
CONTINUOUS
 10
68.100000000004115
 20
3.949999999995482
 30
0.0
 11
66.400000000009015
 21
2.250000000000099
 31
0.0
  0
LINE
  5
EAB
  8
240
  6
CONTINUOUS
 10
70.000000000000341
 20
-2.2500000000006941
 30
0.0
 11
68.299999999989154
 21
-3.9500000000123361
 31
0.0
  0
LINE
  5
EAC
  8
240
  6
CONTINUOUS
 10
68.099999999998488
 20
-3.949999999987666
 30
0.0
 11
66.400000000008447
 21
-2.2499999999972831
 31
0.0
  0
LINE
  5
EAD
  8
240
  6
CONTINUOUS
 10
70.000000000000455
 20
2.249999999999813
 30
0.0
 11
68.29999999999535
 21
3.9500000000048061
 31
0.0
  0
LINE
  5
EAE
  8
240
  6
CONTINUOUS
 10
70.000000000000341
 20
-2.2500000000006941
 30
0.0
 11
70.000000000000682
 21
2.2500000000006661
 31
0.0
  0
LINE
  5
EAF
  8
241
  6
CONTINUOUS
 10
66.400000000008447
 20
-2.2499999999972831
 30
0.0
 11
66.400000000009641
 21
2.2499999999972551
 31
0.0
  0
LINE
  5
EB0
  8
241
  6
CONTINUOUS
 10
38.000000000000568
 20
2.250000000000099
 30
0.0
 11
37.999999999999602
 21
-2.2500000000000142
 31
0.0
  0
LINE
  5
EB1
  8
240
  6
CONTINUOUS
 10
37.999999999999531
 20
-2.250000000000127
 30
0.0
 11
34.968911086754133
 21
-4.0000000000000124
 31
0.0
  0
LINE
  5
EB2
  8
240
  6
CONTINUOUS
 10
38.000000000000632
 20
2.2500000000000422
 30
0.0
 11
34.968911086755092
 21
4.00000000000004
 31
0.0
  0
LINE
  5
EB3
  8
241
  6
CONTINUOUS
 10
34.968911086755092
 20
-4.0000000000000124
 30
0.0
 11
34.968911086755092
 21
4.00000000000004
 31
0.0
  0
LINE
  5
EB4
  8
240
  6
CONTINUOUS
 10
0.0000000000009663
 20
4.00000000000004
 30
0.0
 11
-0.0000000000009663
 21
-3.9999999999998961
 31
0.0
  0
TEXT
  5
EBC
  8
250
  6
CONTINUOUS
 10
79.5
 20
-7.3081054701164412
 30
0.0
 40
3.0
  1
\U+22057.9
 50
90.0
1001
ACAD
1000
MTEXTBEGIN
1070
    73
1070
     1
1070
    44
1040
1.0
1070
    74
1070
     0
1000
MTEXTEND
  0
LINE
  5
EBD
  8
250
  6
CONTINUOUS
 10
80.166666666666686
 20
1.950000000004805
 30
0.0
 11
80.500000000000014
 21
3.9500000000048061
 31
0.0
  0
LINE
  5
EBE
  8
250
  6
CONTINUOUS
 10
80.833333333333329
 20
1.950000000004805
 30
0.0
 11
80.500000000000014
 21
3.9500000000048061
 31
0.0
  0
LINE
  5
EBF
  8
250
  6
CONTINUOUS
 10
80.500000000000014
 20
3.9500000000048061
 30
0.0
 11
80.500000000000014
 21
1.950000000004805
 31
0.0
  0
LINE
  5
EC0
  8
250
  6
CONTINUOUS
 10
0.0000000000007249
 20
4.50000000000004
 30
0.0
 11
0.0000000000007259
 21
21.999999999999989
 31
0.0
  0
LINE
  5
EC1
  8
250
  6
CONTINUOUS
 10
70.000000000000455
 20
2.7499999999998139
 30
0.0
 11
70.000000000000455
 21
21.999999999999989
 31
0.0
  0
LINE
  5
EC2
  8
250
  6
CONTINUOUS
 10
2.0000000000007239
 20
20.999999999999989
 30
0.0
 11
68.000000000000455
 21
20.999999999999989
 31
0.0
  0
LINE
  5
EC6
  8
250
  6
CONTINUOUS
 10
38.000000000000568
 20
2.750000000000099
 30
0.0
 11
38.000000000000568
 21
14.99999999999998
 31
0.0
  0
LINE
  5
EC7
  8
250
  6
CONTINUOUS
 10
70.000000000000341
 20
2.750000000000667
 30
0.0
 11
70.000000000000341
 21
14.99999999999998
 31
0.0
  0
LINE
  5
EC8
  8
250
  6
CONTINUOUS
 10
40.000000000000547
 20
13.99999999999998
 30
0.0
 11
68.000000000000341
 21
13.99999999999998
 31
0.0
  0
TEXT
  5
ED2
  8
250
  6
CONTINUOUS
 10
32.142857142857743
 20
21.999999999999989
 30
0.0
 40
3.0
  1
70
1001
ACAD
1000
MTEXTBEGIN
1070
    73
1070
     1
1070
    44
1040
1.0
1070
    74
1070
     0
1000
MTEXTEND
  0
LINE
  5
ED3
  8
250
  6
CONTINUOUS
 10
68.000000000000455
 20
21.333333333333321
 30
0.0
 11
70.000000000000455
 21
20.999999999999989
 31
0.0
  0
LINE
  5
ED4
  8
250
  6
CONTINUOUS
 10
68.000000000000455
 20
20.666666666666661
 30
0.0
 11
70.000000000000455
 21
20.999999999999989
 31
0.0
  0
LINE
  5
ED5
  8
250
  6
CONTINUOUS
 10
70.000000000000455
 20
20.999999999999989
 30
0.0
 11
68.000000000000455
 21
20.999999999999989
 31
0.0
  0
LINE
  5
ED6
  8
250
  6
CONTINUOUS
 10
2.0000000000007261
 20
20.666666666666661
 30
0.0
 11
0.0000000000007259
 21
20.999999999999989
 31
0.0
  0
LINE
  5
ED7
  8
250
  6
CONTINUOUS
 10
2.0000000000007261
 20
21.333333333333321
 30
0.0
 11
0.0000000000007259
 21
20.999999999999989
 31
0.0
  0
LINE
  5
ED8
  8
250
  6
CONTINUOUS
 10
0.0000000000007259
 20
20.999999999999989
 30
0.0
 11
2.0000000000007261
 21
20.999999999999989
 31
0.0
  0
TEXT
  5
ED9
  8
250
  6
CONTINUOUS
 10
51.142857142857601
 20
14.99999999999998
 30
0.0
 40
3.0
  1
32
1001
ACAD
1000
MTEXTBEGIN
1070
    73
1070
     1
1070
    44
1040
1.0
1070
    74
1070
     0
1000
MTEXTEND
  0
LINE
  5
EDA
  8
250
  6
CONTINUOUS
 10
68.000000000000341
 20
14.333333333333311
 30
0.0
 11
70.000000000000341
 21
13.99999999999998
 31
0.0
  0
LINE
  5
EDB
  8
250
  6
CONTINUOUS
 10
68.000000000000341
 20
13.666666666666639
 30
0.0
 11
70.000000000000341
 21
13.99999999999998
 31
0.0
  0
LINE
  5
EDC
  8
250
  6
CONTINUOUS
 10
70.000000000000341
 20
13.99999999999998
 30
0.0
 11
68.000000000000341
 21
13.99999999999998
 31
0.0
  0
LINE
  5
EDD
  8
250
  6
CONTINUOUS
 10
40.000000000000568
 20
13.666666666666639
 30
0.0
 11
38.000000000000568
 21
13.99999999999998
 31
0.0
  0
LINE
  5
EDE
  8
250
  6
CONTINUOUS
 10
40.000000000000568
 20
14.333333333333311
 30
0.0
 11
38.000000000000568
 21
13.99999999999998
 31
0.0
  0
LINE
  5
EDF
  8
250
  6
CONTINUOUS
 10
38.000000000000568
 20
13.99999999999998
 30
0.0
 11
40.000000000000568
 21
13.99999999999998
 31
0.0
  0
LINE
  5
F18
  8
250
  6
CONTINUOUS
 10
-2.44231444094987
 20
-12.05020357296325
 30
0.0
 11
9.6910188923834522
 21
-12.05020357296325
 31
0.0
  0
LINE
  5
F19
  8
250
  6
CONTINUOUS
 10
9.6910188923834522
 20
-12.05020357296325
 30
0.0
 11
12.70161836175282
 21
-5.9966992176515532
 31
0.0
  0
LINE
  5
F1A
  8
250
  6
CONTINUOUS
 10
12.70161836175282
 20
-5.9966992176515532
 30
0.0
 11
13.6946401310156
 21
-4.0
 31
0.0
  0
LINE
  5
F1B
  8
250
  6
CONTINUOUS
 10
12.96448879951458
 20
-6.1274330131502648
 30
0.0
 11
13.6946401310156
 21
-4.0
 31
0.0
  0
LINE
  5
F1C
  8
250
  6
CONTINUOUS
 10
13.6946401310156
 20
-4.0
 30
0.0
 11
12.438747923991
 21
-5.8659654221527262
 31
0.0
  0
TEXT
  5
F1D
  8
250
  6
CONTINUOUS
 10
-2.8423144409498482
 20
-10.65020357296328
 30
0.0
 40
2.799999999999998
  1
ST8W
  7
ACJISTS
  0
LINE
  5
F1E
  8
247
  6
CONTINUOUS
 10
4.25
 20
-3.0
 30
0.0
 11
8.8846153843300026
 21
-3.0
 31
0.0
  0
LINE
  5
F1F
  8
247
  6
CONTINUOUS
 10
5.0451065000120252
 20
-0.5
 30
0.0
 11
4.4429411899426441
 21
-2.5999999999160082
 31
0.0
  0
LINE
  5
F20
  8
247
  6
CONTINUOUS
 10
5.6748485964809561
 20
-1.496153846113883
 30
0.0
 11
4.7594639811329671
 21
-1.496153846113883
 31
0.0
  0
ARC
  5
F21
  8
247
  6
CONTINUOUS
 10
5.9127365980531854
 20
-0.8847190672940994
 30
0.0
 40
0.3876715809326743
 50
342.9978896752952
 51
82.924166218513619
  0
ARC
  5
F22
  8
247
  6
CONTINUOUS
 10
5.617522443195865
 20
-0.8052231310280149
 30
0.0
 40
0.6933047965358767
 50
274.74293685219902
 51
343.84922627326682
1001
GENIUS_GENOBJ-N-FIL_13
1002
{
1000
OWNER
1000
GEN
1002
}
1001
GENIUS_GENODEF_13
1002
{
1000
HIER
1070
     0
1002
}
1002
{
1000
MANEDIT
1070
     0
1002
}
1002
{
1000
NOSEL
1070
     0
1002
}
1002
{
1000
BEHIND
1070
     0
1002
}
1002
{
1000
OTHER
1070
     0
1002
}
1002
{
1000
REACTOR
1002
}
  0
LINE
  5
F23
  8
247
  6
CONTINUOUS
 10
5.3583258052906331
 20
-2.5999999999160082
 30
0.0
 11
4.4429411899426441
 21
-2.5999999999160082
 31
0.0
  0
LINE
  5
F24
  8
247
  6
CONTINUOUS
 10
5.0451065000120252
 20
-0.5
 30
0.0
 11
5.960491115360071
 21
-0.5
 31
0.0
  0
ARC
  5
F25
  8
247
  6
CONTINUOUS
 10
5.6216935237331409
 20
-1.887416962767928
 30
0.0
 40
0.394857301075386
 50
335.99094165252171
 51
82.263443459069123
  0
ARC
  5
F26
  8
247
  6
CONTINUOUS
 10
5.2875533895730751
 20
-1.8912003273326261
 30
0.0
 40
0.7123241612361686
 50
275.70198516425643
 51
347.27733843682199
1001
GENIUS_GENOBJ-N-FIL_13
1002
{
1000
OWNER
1000
GEN
1002
}
1001
GENIUS_GENODEF_13
1002
{
1000
HIER
1070
     0
1002
}
1002
{
1000
MANEDIT
1070
     0
1002
}
1002
{
1000
NOSEL
1070
     0
1002
}
1002
{
1000
BEHIND
1070
     0
1002
}
1002
{
1000
OTHER
1070
     0
1002
}
1002
{
1000
REACTOR
1002
}
  0
LINE
  5
F27
  8
247
  6
CONTINUOUS
 10
6.3160181129366011
 20
-2.5999999999160082
 30
0.0
 11
6.9181834230060399
 21
-0.5
 31
0.0
  0
LINE
  5
F28
  8
247
  6
CONTINUOUS
 10
8.4143372690920142
 20
-0.5
 30
0.0
 11
8.0183216356964504
 21
-0.5
 31
0.0
  0
LINE
  5
F29
  8
247
  6
CONTINUOUS
 10
7.3912603460560131
 20
-2.5999999999160082
 30
0.0
 11
7.8220295768080623
 21
-2.5999999999160082
 31
0.0
  0
ARC
  5
F2A
  8
247
  6
CONTINUOUS
 10
8.6181834229300307
 20
-1.958299595083417
 30
0.0
 40
1.576855057639547
 50
112.3594881415292
 51
164.9932485428464
  0
ARC
  5
F2B
  8
247
  6
CONTINUOUS
 10
8.152488633866767
 20
-1.0658188585380231
 30
0.0
 40
0.6234706797009447
 50
4.9945893190753123
 51
65.166328957308281
1001
GENIUS_GENOBJ-N-FIL_13
1002
{
1000
OWNER
1000
GEN
1002
}
1001
GENIUS_GENODEF_13
1002
{
1000
HIER
1070
     0
1002
}
1002
{
1000
MANEDIT
1070
     0
1002
}
1002
{
1000
NOSEL
1070
     0
1002
}
1002
{
1000
BEHIND
1070
     0
1002
}
1002
{
1000
OTHER
1070
     0
1002
}
1002
{
1000
REACTOR
1002
}
  0
ARC
  5
F2C
  8
247
  6
CONTINUOUS
 10
7.5558160489672419
 20
-1.662102121969383
 30
0.0
 40
0.9749472149106983
 50
285.8460965557839
 51
352.3251370041624
  0
ARC
  5
F2D
  8
247
  6
CONTINUOUS
 10
7.964788361227761
 20
-1.871470401971008
 30
0.0
 40
0.9271945638692009
 50
159.71360167048971
 51
231.7887456564151
1001
GENIUS_GENOBJ-N-FIL_13
1002
{
1000
OWNER
1000
GEN
1002
}
1001
GENIUS_GENODEF_13
1002
{
1000
HIER
1070
     0
1002
}
1002
{
1000
MANEDIT
1070
     0
1002
}
1002
{
1000
NOSEL
1070
     0
1002
}
1002
{
1000
BEHIND
1070
     0
1002
}
1002
{
1000
OTHER
1070
     0
1002
}
1002
{
1000
REACTOR
1002
}
  0
LINE
  5
F2E
  8
247
  6
CONTINUOUS
 10
8.0374141921840305
 20
-1.792307692255916
 30
0.0
 11
8.522029576780028
 21
-1.792307692255916
 31
0.0
  0
ARC
  5
F2F
  8
247
  6
CONTINUOUS
 10
4.25
 20
-1.75
 30
0.0
 40
1.25
 50
90.0
 51
270.0
  0
LINE
  5
F30
  8
247
  6
CONTINUOUS
 10
4.25
 20
-0.5
 30
0.0
 11
4.6961538460860179
 21
-0.5
 31
0.0
  0
ARC
  5
F31
  8
247
  6
CONTINUOUS
 10
8.8846153843300026
 20
-1.75
 30
0.0
 40
1.25
 50
270.0
 51
90.0
  0
VIEWPORT
  5
22
 67
     1
  8
0
 10
261.51769911504419
 20
148.5
 30
0.0
 40
523.0353982300885
 41
297.0
 68
     1
 69
     1
1001
ACAD
1000
MVIEW
1002
{
1070
    16
1010
0.0
1020
0.0
1030
0.0
1010
0.0
1020
0.0
1030
1.0
1040
0.0
1040
297.0
1040
261.51769911504419
1040
148.5
1040
50.0
1040
0.0
1040
0.0
1070
     0
1070
   100
1070
     1
1070
     1
1070
     0
1070
     0
1070
     0
1070
     0
1040
0.0
1040
0.0
1040
0.0
1040
1.0
1040
1.0
1040
10.0
1040
10.0
1070
     0
1002
{
1002
}
1002
}
1001
GENIUS_GENOBJ-N-SDF_13
1002
{
1000
OWNER
1000
GEN
1002
}
1001
GENIUS_GENODEF_13
1002
{
1000
HIER
1070
     0
1002
}
1002
{
1000
MANEDIT
1070
     0
1002
}
1002
{
1000
NOSEL
1070
     0
1002
}
1002
{
1000
BEHIND
1070
     0
1002
}
1002
{
1000
OTHER
1070
     0
1002
}
1002
{
1000
REACTOR
1002
}
1001
GENIUS_GENSCREG_15
1000
PF
1040
1.0
1000
DF
1040
1.0
1000
MIN
1011
0.0
1021
0.0
1031
0.0
1021
0.0
1031
0.0
1000
MAX
1011
523.0353982300885
1021
0.0
1031
0.0
1021
297.0
1031
0.0
1000
FLAGS
1070
     4
  0
ENDSEC
  0
EOF
