  0
SECTION
  2
HEADER
  9
$ACADVER
  1
AC1009
  9
$INSBASE
 10
0.0
 20
0.0
 30
0.0
  9
$EXTMIN
 10
-1.524285678765295
 20
-11.39038823475533
 30
-0.0000000000112498
  9
$EXTMAX
 10
75.717545456254129
 20
40.003276417234297
 30
0.0000000000002956
  9
$LIMMIN
 10
0.0
 20
0.0
  9
$LIMMAX
 10
297.0
 20
210.0
  9
$ORTHOMODE
 70
     1
  9
$REGENMODE
 70
     1
  9
$FILLMODE
 70
     1
  9
$QTEXTMODE
 70
     0
  9
$MIRRTEXT
 70
     1
  9
$DRAGMODE
 70
     2
  9
$LTSCALE
 40
10.0
  9
$OSMODE
 70
  3071
  9
$ATTMODE
 70
     1
  9
$TEXTSIZE
 40
3.0
  9
$TRACEWID
 40
1.0
  9
$TEXTSTYLE
  7
YOKO
  9
$CLAYER
  8
240
  9
$CELTYPE
  6
BYLAYER
  9
$CECOLOR
 62
   256
  9
$DIMSCALE
 40
1.0
  9
$DIMASZ
 40
2.0
  9
$DIMEXO
 40
0.5
  9
$DIMDLI
 40
2.5
  9
$DIMRND
 40
0.0
  9
$DIMDLE
 40
0.0
  9
$DIMEXE
 40
1.0
  9
$DIMTP
 40
0.0
  9
$DIMTM
 40
0.0
  9
$DIMTXT
 40
2.799999999999998
  9
$DIMCEN
 40
0.0
  9
$DIMTSZ
 40
0.0
  9
$DIMTOL
 70
     0
  9
$DIMLIM
 70
     0
  9
$DIMTIH
 70
     0
  9
$DIMTOH
 70
     0
  9
$DIMSE1
 70
     0
  9
$DIMSE2
 70
     0
  9
$DIMTAD
 70
     3
  9
$DIMZIN
 70
     8
  9
$DIMBLK
  1

  9
$DIMASO
 70
     1
  9
$DIMSHO
 70
     1
  9
$DIMPOST
  1

  9
$DIMAPOST
  1

  9
$DIMALT
 70
     0
  9
$DIMALTD
 70
     2
  9
$DIMALTF
 40
25.399999999999999
  9
$DIMLFAC
 40
1.0
  9
$DIMTOFL
 70
     1
  9
$DIMTVP
 40
0.0
  9
$DIMTIX
 70
     1
  9
$DIMSOXD
 70
     0
  9
$DIMSAH
 70
     1
  9
$DIMBLK1
  1
OPEN
  9
$DIMBLK2
  1
OPEN
  9
$DIMSTYLE
  2
BIGT
  9
$DIMCLRD
 70
   256
  9
$DIMCLRE
 70
   256
  9
$DIMCLRT
 70
    40
  9
$DIMTFAC
 40
1.0
  9
$DIMGAP
 40
1.0
  9
$LUNITS
 70
     2
  9
$LUPREC
 70
     3
  9
$SKETCHINC
 40
1.0
  9
$FILLETRAD
 40
0.0
  9
$AUNITS
 70
     0
  9
$AUPREC
 70
     3
  9
$MENU
  1
.
  9
$ELEVATION
 40
0.0
  9
$PELEVATION
 40
0.0
  9
$THICKNESS
 40
0.0
  9
$LIMCHECK
 70
     0
  9
$BLIPMODE
 70
     0
  9
$CHAMFERA
 40
10.0
  9
$CHAMFERB
 40
10.0
  9
$SKPOLY
 70
     0
  9
$TDCREATE
 40
2457094.6111074891
  9
$TDUPDATE
 40
2457378.6290622922
  9
$TDINDWG
 40
0.0050400347
  9
$TDUSRTIMER
 40
0.0050400347
  9
$USRTIMER
 70
     1
  9
$ANGBASE
 50
0.0
  9
$ANGDIR
 70
     0
  9
$PDMODE
 70
     1
  9
$PDSIZE
 40
-5.0
  9
$PLINEWID
 40
0.0
  9
$COORDS
 70
     1
  9
$SPLFRAME
 70
     0
  9
$SPLINETYPE
 70
     6
  9
$SPLINESEGS
 70
     8
  9
$ATTDIA
 70
     1
  9
$ATTREQ
 70
     1
  9
$HANDLING
 70
     1
  9
$HANDSEED
  5
FB1
  9
$SURFTAB1
 70
     6
  9
$SURFTAB2
 70
     6
  9
$SURFTYPE
 70
     6
  9
$SURFU
 70
     6
  9
$SURFV
 70
     6
  9
$UCSNAME
  2

  9
$UCSORG
 10
0.0
 20
0.0
 30
0.0
  9
$UCSXDIR
 10
1.0
 20
0.0
 30
0.0
  9
$UCSYDIR
 10
0.0
 20
1.0
 30
0.0
  9
$PUCSNAME
  2

  9
$PUCSORG
 10
0.0
 20
0.0
 30
0.0
  9
$PUCSXDIR
 10
1.0
 20
0.0
 30
0.0
  9
$PUCSYDIR
 10
0.0
 20
1.0
 30
0.0
  9
$USERI1
 70
     1
  9
$USERI2
 70
     0
  9
$USERI3
 70
     0
  9
$USERI4
 70
     0
  9
$USERI5
 70
     0
  9
$USERR1
 40
0.0
  9
$USERR2
 40
0.0
  9
$USERR3
 40
0.0
  9
$USERR4
 40
0.0
  9
$USERR5
 40
0.0
  9
$WORLDVIEW
 70
     1
  9
$SHADEDGE
 70
     3
  9
$SHADEDIF
 70
    70
  9
$TILEMODE
 70
     1
  9
$MAXACTVP
 70
    16
  9
$PLIMCHECK
 70
     0
  9
$PEXTMIN
 10
1.0000000000000000E+020
 20
1.0000000000000000E+020
 30
1.0000000000000000E+020
  9
$PEXTMAX
 10
-1.0000000000000000E+020
 20
-1.0000000000000000E+020
 30
-1.0000000000000000E+020
  9
$PLIMMIN
 10
0.0
 20
0.0
  9
$PLIMMAX
 10
420.0
 20
297.0
  9
$UNITMODE
 70
     0
  9
$VISRETAIN
 70
     0
  9
$PLINEGEN
 70
     0
  9
$PSLTSCALE
 70
     1
  0
ENDSEC
  0
SECTION
  2
TABLES
  0
TABLE
  2
VPORT
 70
     1
  0
VPORT
  2
*ACTIVE
 70
     0
 10
0.0
 20
0.0
 11
1.0
 21
1.0
 12
36.821133859935131
 22
14.86576898440609
 13
0.0
 23
0.0
 14
7.0
 24
7.0
 15
7.0
 25
7.0
 16
0.0
 26
0.0
 36
1.0
 17
0.0
 27
0.0
 37
0.0
 40
83.571447304440525
 41
1.486725663716814
 42
50.0
 43
0.0
 44
0.0
 50
0.0
 51
0.0
 71
     0
 72
 20000
 73
     1
 74
     0
 75
     0
 76
     0
 77
     0
 78
     0
  0
ENDTAB
  0
TABLE
  2
LTYPE
 70
    15
  0
LTYPE
  2
CONTINUOUS
 70
     0
  3
Solid line
 72
    65
 73
     0
 40
0.0
  0
LTYPE
  2
CENTER2
 70
     0
  3
___ _ ___ _ ___ _ ___ _ ___ _ ___ _ ___ _ ___ _
 72
    65
 73
     4
 40
1.125
 49
0.75
 49
-0.125
 49
0.125
 49
-0.125
  0
LTYPE
  2
PHANTOM2
 70
     0
  3
___ _ _ ___ _ _ ___ _ _ ___ _ _ ___ _ _ ___ _ _
 72
    65
 73
     6
 40
1.25
 49
0.625
 49
-0.125
 49
0.125
 49
-0.125
 49
0.125
 49
-0.125
  0
LTYPE
  2
HIDDEN2
 70
     0
  3
_ _ _ _ _ _ _ _ _ _ _ _ _ _ _ _ _ _ _ _ _ _ _ _
 72
    65
 73
     2
 40
0.1875
 49
0.125
 49
-0.0625
  0
LTYPE
  2
AMCONSTR
 70
     0
  3
_______________________
 72
    65
 73
     2
 40
9999.0
 49
9999.0
 49
0.0
  0
LTYPE
  2
AM_ISO02W050
 70
     0
  3
__ __ __ __ __ __ __ __ __ __ __ __ __ __ __
 72
    65
 73
     2
 40
7.5
 49
6.0
 49
-1.5
  0
LTYPE
  2
ACJISTGB
 70
     0
  3
__ . . __ . .
 72
    65
 73
     6
 40
9.0
 49
4.0
 49
-1.0
 49
1.0
 49
-1.0
 49
1.0
 49
-1.0
  0
LTYPE
  2
ACJISTGL
 70
     0
  3
_ _ _ _ _
 72
    65
 73
     2
 40
3.0
 49
2.0
 49
-1.0
  0
LTYPE
  2
ACISOWELD
 70
     0
  3
_ _ _ _ _
 72
    65
 73
     2
 40
2.0
 49
2.0
 49
-1.0
  0
LTYPE
  2
ACISOTGB
 70
     0
  3
__ . . __ . .
 72
    65
 73
     6
 40
9.0
 49
4.0
 49
-1.0
 49
1.0
 49
-1.0
 49
1.0
 49
-1.0
  0
LTYPE
  2
ACISOTGL
 70
     0
  3
_ _ _ _ _
 72
    65
 73
     2
 40
3.0
 49
2.0
 49
-1.0
  0
ENDTAB
  0
TABLE
  2
LAYER
 70
     8
  0
LAYER
  2
0
 70
     0
 62
     7
  6
CONTINUOUS
  0
LAYER
  2
240
 70
     0
 62
     4
  6
CONTINUOUS
  0
LAYER
  2
241
 70
     0
 62
   211
  6
CONTINUOUS
  0
LAYER
  2
245
 70
     0
 62
     2
  6
CENTER2
  0
LAYER
  2
250
 70
     0
 62
     3
  6
CONTINUOUS
  0
LAYER
  2
DEFPOINTS
 70
     0
 62
     7
  6
CONTINUOUS
  0
LAYER
  2
247
 70
     0
 62
    60
  6
CONTINUOUS
  0
ENDTAB
  0
TABLE
  2
STYLE
 70
     6
  0
STYLE
  2
STANDARD
 70
     0
 40
0.0
 41
1.0
 50
0.0
 71
     0
 42
3.0
  3
romans.shx
  4
BIGFONT.SHX
  0
STYLE
  2
YOKO
 70
     0
 40
0.0
 41
1.0
 50
0.0
 71
     0
 42
3.0
  3
romans.shx
  4
extfont.shx
  0
STYLE
  2
ACJISTS
 70
     0
 40
1.0
 41
1.0
 50
0.0
 71
     0
 42
3.0
  3
amgdt.shx
  4
extfont.shx
  0
STYLE
  2
ACJISGDT
 70
     0
 40
0.0
 41
1.0
 50
0.0
 71
     0
 42
3.0
  3
amgdt.shx
  4
extfont.shx
  0
STYLE
  2
ACISOTS
 70
     0
 40
1.0
 41
1.0
 50
0.0
 71
     0
 42
3.0
  3
amgdt.shx
  4
extfont.shx
  0
STYLE
  2
ACISOGDT
 70
     0
 40
0.0
 41
1.0
 50
0.0
 71
     0
 42
3.0
  3
amgdt.shx
  4
extfont.shx
  0
ENDTAB
  0
TABLE
  2
VIEW
 70
     0
  0
ENDTAB
  0
TABLE
  2
UCS
 70
     0
  0
ENDTAB
  0
TABLE
  2
APPID
 70
    44
  0
APPID
  2
ACAD
 70
     0
  0
APPID
  2
GLOBAL
 70
     0
  0
APPID
  2
DETAIL
 70
     0
  0
APPID
  2
GRPNAME
 70
     0
  0
APPID
  2
GPARA
 70
     0
  0
APPID
  2
DCO15
 70
     0
  0
APPID
  2
ITEMNAME
 70
     0
  0
APPID
  2
GRADE_0
 70
     0
  0
APPID
  2
LAYER_SCALE
 70
     0
  0
APPID
  2
ACAD_PSEXT
 70
     0
  0
APPID
  2
ACAD_NAV_VCDISPLAY
 70
     0
  0
APPID
  2
HATCH_TYPE
 70
     0
  0
APPID
  2
HATCH_DISPLAY
 70
     0
  0
APPID
  2
HATCH_DISTANCE
 70
     0
  0
APPID
  2
ASKLEADER
 70
     0
  0
APPID
  2
ASKLEADERCHILD
 70
     0
  0
APPID
  2
MCAD_NO_VIS
 70
     0
  0
APPID
  2
ACAD_TEMP_GRAPHIC
 70
     0
  0
APPID
  2
ACATTRIBSERVICES
 70
     0
  0
APPID
  2
GENIUS_GENSCREG_15
 70
     0
  0
APPID
  2
GENIUS_GENODEF_13
 70
     0
  0
APPID
  2
GENIUS_GENOBJ-N-SDF_13
 70
     0
  0
APPID
  2
GENIUS_GENREC_14
 70
     0
  0
APPID
  2
GENIUS_GENOBJ-N-REC_13
 70
     0
  0
APPID
  2
GENIUS_GENDIMSH_14
 70
     0
  0
APPID
  2
GENIUS_GENOBJ-N-DIM_13
 70
     0
  0
APPID
  2
GENIUS_GENDIM_13
 70
     0
  0
APPID
  2
GENIUS_GENDTOL_13
 70
     0
  0
APPID
  2
GENIUS_GENOLIS_13
 70
     0
  0
APPID
  2
GENIUS_GENOENT_13
 70
     0
  0
APPID
  2
GENIUS_GENOBJ-F-FEM_13
 70
     0
  0
APPID
  2
GENIUS_GENOREF_13
 70
     0
  0
APPID
  2
GENIUS_GEFFEM_13
 70
     0
  0
APPID
  2
GENIUS_GEFFEMP_13
 70
     0
  0
APPID
  2
AD_DRAW
 70
     0
  0
APPID
  2
DESIGNERASSEMBLIES
 70
     0
  0
APPID
  2
ACADM_DIM_EDIT
 70
     0
  0
APPID
  2
AMDT_DM_ADJ
 70
     0
  0
APPID
  2
GENIUS_GENOBJ-N-FIL_13
 70
     0
  0
APPID
  2
GENIUS_GENFIL_13
 70
     0
  0
APPID
  2
GENIUS_GENOBJ-N-CHA_13
 70
     0
  0
APPID
  2
ACAD_DSTYLE_DIMINSPECT
 70
     0
  0
APPID
  2
ACAD_EXEMPT_FROM_CAD_STANDARDS
 70
     0
  0
APPID
  2
ACAD_MLEADERVER
 70
     0
  0
ENDTAB
  0
TABLE
  2
DIMSTYLE
 70
    24
  0
DIMSTYLE
  2
BIGT
 70
     0
  3

  4

  5
OPEN
  6

  7

 40
1.0
 41
2.2299999999999991
 42
0.5
 43
7.0
 44
1.0
 45
0.0
 46
0.0
 47
0.0
 48
0.01
140
2.7999999999999989
141
0.0
142
0.0
143
25.399999999999999
144
1.0
145
0.0
146
1.0
147
1.0
 71
     0
 72
     0
 73
     0
 74
     0
 75
     0
 76
     0
 77
     3
 78
     9
170
     0
171
     2
172
     1
173
     0
174
     1
175
     0
176
   256
177
   256
178
    40
  0
DIMSTYLE
  2
BIGT$0
 70
     0
  3

  4

  5
OPEN
  6

  7

 40
1.0
 41
2.2299999999999991
 42
0.5
 43
7.0
 44
1.0
 45
0.0
 46
0.0
 47
0.0
 48
0.01
140
2.7999999999999989
141
0.0
142
0.0
143
25.399999999999999
144
1.0
145
0.0
146
1.0
147
1.0
 71
     0
 72
     0
 73
     0
 74
     0
 75
     0
 76
     0
 77
     3
 78
     9
170
     0
171
     2
172
     1
173
     0
174
     1
175
     0
176
   256
177
   256
178
    40
  0
DIMSTYLE
  2
BIGT$2
 70
     0
  3

  4

  5
OPEN
  6

  7

 40
1.0
 41
2.2299999999999991
 42
0.5
 43
7.0
 44
1.0
 45
0.0
 46
0.0
 47
0.0
 48
0.01
140
2.7999999999999989
141
0.0
142
0.0
143
25.399999999999999
144
1.0
145
0.0
146
1.0
147
1.0
 71
     0
 72
     0
 73
     0
 74
     0
 75
     0
 76
     0
 77
     3
 78
     9
170
     0
171
     2
172
     1
173
     0
174
     0
175
     0
176
   256
177
   256
178
    40
  0
DIMSTYLE
  2
BIGT$3
 70
     0
  3

  4

  5
OPEN
  6

  7

 40
1.0
 41
2.2299999999999991
 42
0.5
 43
2.5
 44
1.0
 45
0.0
 46
0.0
 47
0.0
 48
0.01
140
2.7999999999999989
141
0.0
142
0.0
143
25.399999999999999
144
1.0
145
0.0
146
1.0
147
1.0
 71
     0
 72
     0
 73
     0
 74
     0
 75
     0
 76
     0
 77
     3
 78
     9
170
     0
171
     2
172
     1
173
     0
174
     0
175
     0
176
   256
177
   256
178
    40
  0
DIMSTYLE
  2
BIGT$4
 70
     0
  3

  4

  5
OPEN
  6

  7

 40
1.0
 41
2.2299999999999991
 42
0.5
 43
2.5
 44
1.0
 45
0.0
 46
0.0
 47
0.0
 48
0.01
140
2.7999999999999989
141
0.0
142
0.0
143
25.399999999999999
144
1.0
145
0.0
146
1.0
147
1.0
 71
     0
 72
     0
 73
     0
 74
     0
 75
     0
 76
     0
 77
     3
 78
     9
170
     0
171
     2
172
     1
173
     0
174
     0
175
     0
176
   256
177
   256
178
    40
  0
DIMSTYLE
  2
BIGT$6
 70
     0
  3

  4

  5
OPEN
  6

  7

 40
1.0
 41
2.2299999999999991
 42
0.5
 43
2.5
 44
1.0
 45
0.0
 46
0.0
 47
0.0
 48
0.01
140
2.7999999999999989
141
0.0
142
0.0
143
25.399999999999999
144
1.0
145
0.0
146
1.0
147
1.0
 71
     0
 72
     0
 73
     0
 74
     0
 75
     0
 76
     0
 77
     3
 78
     9
170
     0
171
     2
172
     1
173
     0
174
     0
175
     0
176
   256
177
   256
178
    40
  0
DIMSTYLE
  2
BIGT$7
 70
     0
  3

  4

  5
OPEN
  6

  7

 40
0.0
 41
2.2299999999999991
 42
0.5
 43
7.0
 44
1.0
 45
0.0
 46
0.0
 47
0.0
 48
0.01
140
2.7999999999999989
141
0.0
142
0.0
143
25.399999999999999
144
1.0
145
0.0
146
1.0
147
1.0
 71
     0
 72
     0
 73
     0
 74
     0
 75
     0
 76
     0
 77
     3
 78
     9
170
     0
171
     2
172
     0
173
     0
174
     0
175
     0
176
   256
177
   256
178
    40
  0
DIMSTYLE
  2
BIGT$SF
 70
     0
  3

  4

  5
OPEN
  6

  7

 40
1.0
 41
2.2299999999999991
 42
0.5
 43
7.0
 44
1.0
 45
0.0
 46
0.0
 47
0.0
 48
0.0
140
2.7999999999999989
141
0.0
142
0.0
143
25.399999999999999
144
1.0
145
0.0
146
1.0
147
1.0
 71
     0
 72
     0
 73
     0
 74
     0
 75
     0
 76
     0
 77
     3
 78
     9
170
     0
171
     2
172
     1
173
     0
174
     0
175
     0
176
   256
177
   256
178
    40
  0
DIMSTYLE
  2
BIGT$SH
 70
     0
  3

  4

  5
OPEN
  6

  7

 40
1.0
 41
2.2299999999999991
 42
0.5
 43
7.0
 44
1.0
 45
0.0
 46
0.0
 47
0.0
 48
0.0
140
2.7999999999999989
141
0.0
142
0.0
143
25.399999999999999
144
1.0
145
0.0
146
1.0
147
1.0
 71
     0
 72
     0
 73
     0
 74
     0
 75
     0
 76
     0
 77
     3
 78
     9
170
     0
171
     2
172
     1
173
     0
174
     0
175
     0
176
   256
177
   256
178
    40
  0
DIMSTYLE
  2
AM_ISO
 70
     0
  3

  4
"
  5

  6

  7

 40
1.0
 41
2.5
 42
1.0
 43
10.0
 44
1.0
 45
0.0
 46
0.0
 47
0.1
 48
0.1
140
3.5
141
0.0
142
0.0
143
0.0393701
144
1.0
145
0.0
146
0.71
147
1.5
 71
     0
 72
     0
 73
     0
 74
     0
 75
     0
 76
     0
 77
     1
 78
     8
170
     0
171
     2
172
     1
173
     0
174
     0
175
     0
176
   256
177
   256
178
     2
  0
DIMSTYLE
  2
AM_ISO$3
 70
     0
  3

  4
"
  5

  6

  7

 40
1.0
 41
2.5
 42
1.0
 43
10.0
 44
1.0
 45
0.0
 46
0.0
 47
0.1
 48
0.1
140
3.5
141
0.0
142
0.0
143
0.0393701
144
1.0
145
0.0
146
0.71
147
1.5
 71
     0
 72
     0
 73
     0
 74
     1
 75
     0
 76
     0
 77
     1
 78
     8
170
     0
171
     2
172
     0
173
     0
174
     0
175
     0
176
   256
177
   256
178
     2
  0
DIMSTYLE
  2
AM_ISO$4
 70
     0
  3

  4
"
  5

  6

  7

 40
1.0
 41
2.5
 42
1.0
 43
10.0
 44
1.0
 45
0.0
 46
0.0
 47
0.1
 48
0.1
140
3.5
141
0.0
142
0.0
143
0.0393701
144
1.0
145
0.0
146
0.71
147
1.5
 71
     0
 72
     0
 73
     0
 74
     1
 75
     0
 76
     0
 77
     1
 78
     8
170
     0
171
     2
172
     0
173
     0
174
     0
175
     0
176
   256
177
   256
178
     2
  0
DIMSTYLE
  2
AM_ISO$6
 70
     0
  3

  4
"
  5

  6

  7

 40
1.0
 41
2.5
 42
1.0
 43
10.0
 44
1.0
 45
0.0
 46
0.0
 47
0.1
 48
0.1
140
3.5
141
0.0
142
0.0
143
0.0393701
144
1.0
145
0.0
146
0.71
147
1.5
 71
     0
 72
     0
 73
     0
 74
     0
 75
     0
 76
     0
 77
     0
 78
     8
170
     0
171
     2
172
     1
173
     0
174
     0
175
     0
176
   256
177
   256
178
     2
  0
DIMSTYLE
  2
AM_ISO$7
 70
     0
  3

  4
"
  5

  6

  7

 40
1.0
 41
2.5
 42
1.0
 43
10.0
 44
1.0
 45
0.0
 46
0.0
 47
0.1
 48
0.1
140
5.0
141
0.0
142
0.0
143
0.0393701
144
1.0
145
0.0
146
0.71
147
1.5
 71
     0
 72
     0
 73
     0
 74
     0
 75
     0
 76
     0
 77
     1
 78
     8
170
     0
171
     2
172
     1
173
     0
174
     0
175
     0
176
   256
177
   256
178
     2
  0
DIMSTYLE
  2
AM_ISO$SF
 70
     0
  3

  4
"
  5

  6

  7

 40
1.0
 41
2.5
 42
1.0
 43
10.0
 44
1.0
 45
0.0
 46
0.0
 47
0.1
 48
0.1
140
3.5
141
0.0
142
0.0
143
0.0393701
144
1.0
145
0.0
146
0.71
147
1.5
 71
     0
 72
     0
 73
     0
 74
     0
 75
     1
 76
     1
 77
     1
 78
     8
170
     0
171
     2
172
     1
173
     0
174
     0
175
     0
176
   256
177
   256
178
     2
  0
DIMSTYLE
  2
AM_ISO$SH
 70
     0
  3

  4
"
  5

  6
GENAXEH
  7

 40
1.0
 41
2.5
 42
1.0
 43
10.0
 44
1.0
 45
0.0
 46
0.0
 47
0.1
 48
0.1
140
3.5
141
0.0
142
0.0
143
0.0393701
144
2.0
145
0.0
146
0.71
147
1.5
 71
     0
 72
     0
 73
     0
 74
     0
 75
     1
 76
     1
 77
     1
 78
     8
170
     0
171
     2
172
     1
173
     1
174
     0
175
     0
176
   256
177
   256
178
     2
  0
DIMSTYLE
  2
TECHNICAL_OSAKA
 70
     0
  3

  4
"
  5
OPEN30
  6

  7

 40
1.0
 41
2.5
 42
1.0
 43
10.0
 44
1.0
 45
0.0
 46
0.0
 47
0.1
 48
0.1
140
2.7999999999999989
141
0.0
142
0.0
143
0.0393701
144
1.0
145
0.0
146
0.71
147
1.5
 71
     0
 72
     0
 73
     0
 74
     0
 75
     0
 76
     0
 77
     3
 78
     8
170
     0
171
     2
172
     1
173
     0
174
     0
175
     0
176
   256
177
   256
178
    40
  0
DIMSTYLE
  2
TECHNICAL_OSAKA$3
 70
     0
  3

  4
"
  5
OPEN30
  6

  7

 40
1.0
 41
2.5
 42
1.0
 43
10.0
 44
1.0
 45
0.0
 46
0.0
 47
0.1
 48
0.1
140
2.7999999999999989
141
0.0
142
0.0
143
0.0393701
144
1.0
145
0.0
146
0.71
147
1.5
 71
     0
 72
     0
 73
     0
 74
     1
 75
     0
 76
     0
 77
     3
 78
     8
170
     0
171
     2
172
     0
173
     0
174
     0
175
     0
176
   256
177
   256
178
    40
  0
DIMSTYLE
  2
TECHNICAL_OSAKA$4
 70
     0
  3

  4
"
  5
OPEN30
  6

  7

 40
1.0
 41
2.5
 42
1.0
 43
10.0
 44
1.0
 45
0.0
 46
0.0
 47
0.1
 48
0.1
140
2.7999999999999989
141
0.0
142
0.0
143
0.0393701
144
1.0
145
0.0
146
0.71
147
1.5
 71
     0
 72
     0
 73
     0
 74
     1
 75
     0
 76
     0
 77
     3
 78
     8
170
     0
171
     2
172
     0
173
     0
174
     0
175
     0
176
   256
177
   256
178
    40
  0
DIMSTYLE
  2
TECHNICAL_OSAKA$6
 70
     0
  3

  4
"
  5
OPEN30
  6

  7

 40
1.0
 41
2.5
 42
1.0
 43
10.0
 44
1.0
 45
0.0
 46
0.0
 47
0.1
 48
0.1
140
2.7999999999999989
141
0.0
142
0.0
143
0.0393701
144
1.0
145
0.0
146
0.71
147
1.5
 71
     0
 72
     0
 73
     0
 74
     0
 75
     0
 76
     0
 77
     0
 78
     8
170
     0
171
     2
172
     1
173
     0
174
     0
175
     0
176
   256
177
   256
178
    40
  0
DIMSTYLE
  2
TECHNICAL_OSAKA$7
 70
     0
  3

  4
"
  5
OPEN30
  6

  7

 40
1.0
 41
2.5
 42
1.0
 43
10.0
 44
1.0
 45
0.0
 46
0.0
 47
0.1
 48
0.1
140
2.7999999999999989
141
0.0
142
0.0
143
0.0393701
144
1.0
145
0.0
146
0.71
147
1.5
 71
     0
 72
     0
 73
     0
 74
     0
 75
     0
 76
     0
 77
     3
 78
     8
170
     0
171
     2
172
     1
173
     0
174
     0
175
     0
176
   256
177
   256
178
    40
  0
DIMSTYLE
  2
TECHNICAL_OSAKA$SF
 70
     0
  3

  4
"
  5
OPEN30
  6
OPEN30
  7
OPEN30
 40
1.0
 41
2.5
 42
1.0
 43
10.0
 44
1.0
 45
0.0
 46
0.0
 47
0.1
 48
0.1
140
3.5
141
0.0
142
0.0
143
0.0393701
144
1.0
145
0.0
146
0.71
147
1.5
 71
     0
 72
     0
 73
     0
 74
     0
 75
     1
 76
     1
 77
     3
 78
     8
170
     0
171
     2
172
     1
173
     0
174
     0
175
     0
176
   256
177
   256
178
    40
  0
DIMSTYLE
  2
TECHNICAL_OSAKA$SH
 70
     0
  3

  4
"
  5
OPEN30
  6
GENAXEH
  7
OPEN30
 40
1.0
 41
2.5
 42
1.0
 43
10.0
 44
1.0
 45
0.0
 46
0.0
 47
0.1
 48
0.1
140
3.5
141
0.0
142
0.0
143
0.0393701
144
2.0
145
0.0
146
0.71
147
1.5
 71
     0
 72
     0
 73
     0
 74
     0
 75
     1
 76
     1
 77
     3
 78
     8
170
     0
171
     2
172
     1
173
     1
174
     0
175
     0
176
   256
177
   256
178
    40
  0
ENDTAB
  0
ENDSEC
  0
SECTION
  2
BLOCKS
  0
BLOCK
  8
0
  2
$MODEL_SPACE
 70
     0
 10
0.0
 20
0.0
 30
0.0
  3
$MODEL_SPACE
  1

  0
ENDBLK
  5
1C
  8
0
  0
BLOCK
 67
     1
  8
0
  2
$PAPER_SPACE
 70
     0
 10
0.0
 20
0.0
 30
0.0
  3
$PAPER_SPACE
  1

  0
ENDBLK
  5
19
 67
     1
  8
0
  0
BLOCK
  8
0
  2
_OPEN
 70
     0
 10
0.0
 20
0.0
 30
0.0
  3
_OPEN
  1

  0
LINE
  5
DD2
  8
0
  6
BYBLOCK
 62
     0
 10
-1.0
 20
0.1666666666666666
 30
0.0
 11
0.0
 21
0.0
 31
0.0
  0
LINE
  5
DD3
  8
0
  6
BYBLOCK
 62
     0
 10
-1.0
 20
-0.1666666666666666
 30
0.0
 11
0.0
 21
0.0
 31
0.0
  0
LINE
  5
DD4
  8
0
  6
BYBLOCK
 62
     0
 10
0.0
 20
0.0
 30
0.0
 11
-1.0
 21
0.0
 31
0.0
  0
ENDBLK
  5
DD5
  8
0
  0
BLOCK
  8
0
  2
矢印なし
 70
     0
 10
0.0
 20
0.0
 30
0.0
  3
矢印なし
  1

  0
ENDBLK
  5
6E5
  8
0
  0
BLOCK
  8
0
  2
GENAXEH
 70
     0
 10
0.0
 20
0.0
 30
0.0
  3
GENAXEH
  1

  0
LINE
  5
E0D
  8
0
 10
-1.0
 20
0.0
 30
0.0
 11
1.0
 21
0.0
 31
0.0
  0
ENDBLK
  5
E0E
  8
0
  0
BLOCK
  8
0
  2
_OPEN30
 70
     0
 10
0.0
 20
0.0
 30
0.0
  3
_OPEN30
  1

  0
LINE
  5
E49
  8
0
  6
BYBLOCK
 62
     0
 10
-1.0
 20
0.26794919
 30
0.0
 11
0.0
 21
0.0
 31
0.0
  0
LINE
  5
E4A
  8
0
  6
BYBLOCK
 62
     0
 10
0.0
 20
0.0
 30
0.0
 11
-1.0
 21
-0.26794919
 31
0.0
  0
LINE
  5
E4B
  8
0
  6
BYBLOCK
 62
     0
 10
0.0
 20
0.0
 30
0.0
 11
-1.0
 21
0.0
 31
0.0
  0
ENDBLK
  5
E4C
  8
0
  0
ENDSEC
  0
SECTION
  2
ENTITIES
  0
INSERT
  5
6E6
  8
245
  2
矢印なし
 10
175.62382696643769
 20
90.551235716905978
 30
0.0
  0
TEXT
  5
9C9
  8
241
  6
CONTINUOUS
 10
0.0000000000001847
 20
35.0
 30
0.0
 40
5.0
  1
ST6W-CS6-45B-24
  7
YOKO
 11
0.0000000000001847
 21
35.0
 31
0.0
 73
     1
  0
LINE
  5
CB4
  8
250
  6
CONTINUOUS
 10
59.249999999998863
 20
2.950000000001594
 30
0.0
 11
71.000000000000199
 21
2.950000000001594
 31
0.0
  0
LINE
  5
CB7
  8
250
  6
CONTINUOUS
 10
70.000000000000213
 20
2.950000000001594
 30
0.0
 11
70.000000000000327
 21
-6.3927126948857591
 31
0.0
  0
LINE
  5
E7A
  8
245
  6
CENTER2
 10
61.000000000000377
 20
-0.0000000000000142
 30
0.0
 11
-1.0000000000000131
 21
0.0
 31
0.0
  0
LINE
  5
E7B
  8
241
  6
CONTINUOUS
 10
58.550000000008353
 20
-2.9500000000001729
 30
0.0
 11
58.5500000000075
 21
2.9500000000001432
 31
0.0
  0
LINE
  5
E7D
  8
240
  6
CONTINUOUS
 10
33.748333950160642
 20
2.999999999999984
 30
0.0
 11
0.0000000000002345
 21
2.999999999999984
 31
0.0
  0
LINE
  5
E7E
  8
240
  6
CONTINUOUS
 10
33.748333950160642
 20
-3.0000000000000711
 30
0.0
 11
-0.0000000000002345
 21
-2.9999999999999818
 31
0.0
  0
LINE
  5
E7F
  8
240
  6
CONTINUOUS
 10
36.000000000000391
 20
1.6999999999998889
 30
0.0
 11
57.300000000006889
 21
1.700000000000031
 31
0.0
  0
LINE
  5
E80
  8
240
  6
CONTINUOUS
 10
36.000000000000213
 20
-1.700000000000115
 30
0.0
 11
57.300000000008311
 21
-1.700000000000143
 31
0.0
  0
LINE
  5
E81
  8
240
  6
CONTINUOUS
 10
58.550000000004083
 20
2.949999999997245
 30
0.0
 11
58.749999999998863
 21
2.950000000001594
 31
0.0
  0
LINE
  5
E82
  8
240
  6
CONTINUOUS
 10
58.550000000009383
 20
-2.950000000001253
 30
0.0
 11
58.749999999997449
 21
-2.9500000000007409
 31
0.0
  0
LINE
  5
E83
  8
240
  6
CONTINUOUS
 10
58.550000000004083
 20
2.949999999997245
 30
0.0
 11
57.300000000006889
 21
1.700000000000031
 31
0.0
  0
LINE
  5
E84
  8
240
  6
CONTINUOUS
 10
60.000000000000391
 20
-1.699999999997899
 30
0.0
 11
58.749999999997449
 21
-2.9500000000007409
 31
0.0
  0
LINE
  5
E85
  8
240
  6
CONTINUOUS
 10
60.000000000000391
 20
1.6999999999999731
 30
0.0
 11
58.749999999998863
 21
2.950000000001594
 31
0.0
  0
LINE
  5
E86
  8
240
  6
CONTINUOUS
 10
58.550000000009383
 20
-2.950000000001253
 30
0.0
 11
57.300000000008311
 21
-1.700000000000143
 31
0.0
  0
LINE
  5
E88
  8
241
  6
CONTINUOUS
 10
57.30000000000696
 20
-1.7000000000001729
 30
0.0
 11
57.300000000008168
 21
1.700000000000143
 31
0.0
  0
LINE
  5
E8A
  8
240
  6
CONTINUOUS
 10
36.00000000000027
 20
-1.700000000000115
 30
0.0
 11
33.748333950160642
 21
-3.0000000000000711
 31
0.0
  0
LINE
  5
E8B
  8
240
  6
CONTINUOUS
 10
36.000000000000327
 20
1.699999999999831
 30
0.0
 11
33.748333950160642
 21
2.999999999999984
 31
0.0
  0
LINE
  5
E92
  8
241
  6
CONTINUOUS
 10
58.749999999999822
 20
2.9499999999984379
 30
0.0
 11
58.75000000000118
 21
-2.9499999999984681
 31
0.0
  0
LINE
  5
E93
  8
240
  6
CONTINUOUS
 10
60.000000000000391
 20
1.699999999997871
 30
0.0
 11
60.000000000000433
 21
-1.6999999999978981
 31
0.0
  0
LINE
  5
E95
  8
241
  6
CONTINUOUS
 10
36.00000000000027
 20
1.700000000000101
 30
0.0
 11
36.000000000000213
 21
-1.7000000000001161
 31
0.0
  0
LINE
  5
E96
  8
241
  6
CONTINUOUS
 10
33.748333950160642
 20
3.0000000000000551
 30
0.0
 11
33.748333950160877
 21
-3.0000000000000711
 31
0.0
  0
LINE
  5
E97
  8
240
  6
CONTINUOUS
 10
0.0000000000002345
 20
2.999999999999984
 30
0.0
 11
-0.0000000000002345
 21
-2.9999999999999818
 31
0.0
  0
TEXT
  5
E99
  8
250
  6
CONTINUOUS
 10
69.000000000000185
 20
-7.5723954960930469
 30
0.0
 40
3.0
  1
\U+22055.9
 50
90.0
1001
ACAD
1000
MTEXTBEGIN
1070
    73
1070
     1
1070
    44
1040
1.0
1070
    74
1070
     0
1000
MTEXTEND
  0
LINE
  5
E9A
  8
250
  6
CONTINUOUS
 10
69.666666666666885
 20
0.9500000000015941
 30
0.0
 11
70.000000000000213
 21
2.950000000001594
 31
0.0
  0
LINE
  5
E9B
  8
250
  6
CONTINUOUS
 10
70.333333333333542
 20
0.9500000000015941
 30
0.0
 11
70.000000000000213
 21
2.950000000001594
 31
0.0
  0
LINE
  5
E9C
  8
250
  6
CONTINUOUS
 10
70.000000000000213
 20
2.950000000001594
 30
0.0
 11
70.000000000000213
 21
0.9500000000015941
 31
0.0
  0
LINE
  5
E9D
  8
250
  6
CONTINUOUS
 10
0.0000000000001565
 20
3.499999999999984
 30
0.0
 11
0.0000000000001575
 21
21.999999999999989
 31
0.0
  0
LINE
  5
E9E
  8
250
  6
CONTINUOUS
 10
60.000000000000391
 20
2.1999999999978712
 30
0.0
 11
60.000000000000391
 21
21.999999999999989
 31
0.0
  0
LINE
  5
E9F
  8
250
  6
CONTINUOUS
 10
2.0000000000001572
 20
20.999999999999989
 30
0.0
 11
58.000000000000377
 21
20.999999999999989
 31
0.0
  0
LINE
  5
EA3
  8
250
  6
CONTINUOUS
 10
36.000000000000327
 20
2.199999999999831
 30
0.0
 11
36.000000000000327
 21
14.99999999999998
 31
0.0
  0
LINE
  5
EA4
  8
250
  6
CONTINUOUS
 10
60.000000000000391
 20
2.1999999999999731
 30
0.0
 11
60.000000000000391
 21
14.99999999999998
 31
0.0
  0
LINE
  5
EA5
  8
250
  6
CONTINUOUS
 10
38.000000000000327
 20
13.99999999999998
 30
0.0
 11
58.000000000000377
 21
13.99999999999998
 31
0.0
  0
TEXT
  5
EB1
  8
250
  6
CONTINUOUS
 10
27.07142857142885
 20
21.999999999999989
 30
0.0
 40
3.0
  1
60
1001
ACAD
1000
MTEXTBEGIN
1070
    73
1070
     1
1070
    44
1040
1.0
1070
    74
1070
     0
1000
MTEXTEND
  0
LINE
  5
EB2
  8
250
  6
CONTINUOUS
 10
58.000000000000391
 20
21.333333333333321
 30
0.0
 11
60.000000000000391
 21
20.999999999999989
 31
0.0
  0
LINE
  5
EB3
  8
250
  6
CONTINUOUS
 10
58.000000000000391
 20
20.666666666666661
 30
0.0
 11
60.000000000000391
 21
20.999999999999989
 31
0.0
  0
LINE
  5
EB4
  8
250
  6
CONTINUOUS
 10
60.000000000000391
 20
20.999999999999989
 30
0.0
 11
58.000000000000391
 21
20.999999999999989
 31
0.0
  0
LINE
  5
EB5
  8
250
  6
CONTINUOUS
 10
2.0000000000001572
 20
20.666666666666661
 30
0.0
 11
0.0000000000001575
 21
20.999999999999989
 31
0.0
  0
LINE
  5
EB6
  8
250
  6
CONTINUOUS
 10
2.0000000000001572
 20
21.333333333333321
 30
0.0
 11
0.0000000000001575
 21
20.999999999999989
 31
0.0
  0
LINE
  5
EB7
  8
250
  6
CONTINUOUS
 10
0.0000000000001575
 20
20.999999999999989
 30
0.0
 11
2.0000000000001572
 21
20.999999999999989
 31
0.0
  0
TEXT
  5
EB8
  8
250
  6
CONTINUOUS
 10
45.071428571428932
 20
14.99999999999998
 30
0.0
 40
3.0
  1
24
1001
ACAD
1000
MTEXTBEGIN
1070
    73
1070
     1
1070
    44
1040
1.0
1070
    74
1070
     0
1000
MTEXTEND
  0
LINE
  5
EB9
  8
250
  6
CONTINUOUS
 10
58.000000000000391
 20
14.333333333333311
 30
0.0
 11
60.000000000000391
 21
13.99999999999998
 31
0.0
  0
LINE
  5
EBA
  8
250
  6
CONTINUOUS
 10
58.000000000000391
 20
13.666666666666639
 30
0.0
 11
60.000000000000391
 21
13.99999999999998
 31
0.0
  0
LINE
  5
EBB
  8
250
  6
CONTINUOUS
 10
60.000000000000391
 20
13.99999999999998
 30
0.0
 11
58.000000000000391
 21
13.99999999999998
 31
0.0
  0
LINE
  5
EBC
  8
250
  6
CONTINUOUS
 10
38.000000000000327
 20
13.666666666666639
 30
0.0
 11
36.000000000000327
 21
13.99999999999998
 31
0.0
  0
LINE
  5
EBD
  8
250
  6
CONTINUOUS
 10
38.000000000000327
 20
14.333333333333311
 30
0.0
 11
36.000000000000327
 21
13.99999999999998
 31
0.0
  0
LINE
  5
EBE
  8
250
  6
CONTINUOUS
 10
36.000000000000327
 20
13.99999999999998
 30
0.0
 11
38.000000000000327
 21
13.99999999999998
 31
0.0
  0
LINE
  5
F09
  8
250
  6
CONTINUOUS
 10
-1.509199267320525
 20
-11.38093829685363
 30
0.0
 11
12.799875567877731
 21
-11.38093829685363
 31
0.0
  0
LINE
  5
F0A
  8
250
  6
CONTINUOUS
 10
12.799875567877731
 20
-11.38093829685363
 30
0.0
 11
17.477252831544028
 21
-4.8161616953501598
 31
0.0
  0
LINE
  5
F0B
  8
250
  6
CONTINUOUS
 10
17.477252831544028
 20
-4.8161616953501598
 30
0.0
 11
18.771260828560571
 21
-3.0
 31
0.0
  0
LINE
  5
F0C
  8
250
  6
CONTINUOUS
 10
17.71635505369261
 20
-4.9865210792953567
 30
0.0
 11
18.771260828560571
 21
-3.0
 31
0.0
  0
LINE
  5
F0D
  8
250
  6
CONTINUOUS
 10
18.771260828560571
 20
-3.0
 30
0.0
 11
17.238150609395401
 21
-4.6458023114049629
 31
0.0
  0
TEXT
  5
F0E
  8
250
  6
CONTINUOUS
 10
0.2267793464587555
 20
-9.9809382968536511
 30
0.0
 40
2.7999999999999989
  1
ST6W
  7
ACJISTS
  0
LINE
  5
F0F
  8
247
  6
CONTINUOUS
 10
4.25
 20
-1.5
 30
0.0
 11
8.8846153843300044
 21
-1.5
 31
0.0
  0
LINE
  5
F10
  8
247
  6
CONTINUOUS
 10
5.0451065000120252
 20
0.9999999999999996
 30
0.0
 11
4.4429411899426441
 21
-1.0999999999160079
 31
0.0
  0
LINE
  5
F11
  8
247
  6
CONTINUOUS
 10
5.6748485964809561
 20
0.0038461538861152
 30
0.0
 11
4.7594639811329671
 21
0.0038461538861152
 31
0.0
  0
ARC
  5
F12
  8
247
  6
CONTINUOUS
 10
5.9127365980531863
 20
0.6152809327058999
 30
0.0
 40
0.3876715809326743
 50
342.99788967529531
 51
82.924166218513619
  0
ARC
  5
F13
  8
247
  6
CONTINUOUS
 10
5.6175224431958659
 20
0.6947768689719847
 30
0.0
 40
0.6933047965358766
 50
274.74293685219902
 51
343.84922627326682
1001
GENIUS_GENOBJ-N-FIL_13
1002
{
1000
OWNER
1000
GEN
1002
}
1001
GENIUS_GENODEF_13
1002
{
1000
HIER
1070
     0
1002
}
1002
{
1000
MANEDIT
1070
     0
1002
}
1002
{
1000
NOSEL
1070
     0
1002
}
1002
{
1000
BEHIND
1070
     0
1002
}
1002
{
1000
OTHER
1070
     0
1002
}
1002
{
1000
REACTOR
1002
}
  0
LINE
  5
F14
  8
247
  6
CONTINUOUS
 10
5.3583258052906331
 20
-1.0999999999160079
 30
0.0
 11
4.4429411899426441
 21
-1.0999999999160079
 31
0.0
  0
LINE
  5
F15
  8
247
  6
CONTINUOUS
 10
5.0451065000120252
 20
0.9999999999999996
 30
0.0
 11
5.960491115360071
 21
0.9999999999999996
 31
0.0
  0
ARC
  5
F16
  8
247
  6
CONTINUOUS
 10
5.6216935237331418
 20
-0.3874169627679298
 30
0.0
 40
0.394857301075386
 50
335.9909416525216
 51
82.263443459069109
  0
ARC
  5
F17
  8
247
  6
CONTINUOUS
 10
5.287553389573076
 20
-0.3912003273326268
 30
0.0
 40
0.7123241612361686
 50
275.70198516425643
 51
347.27733843682199
1001
GENIUS_GENOBJ-N-FIL_13
1002
{
1000
OWNER
1000
GEN
1002
}
1001
GENIUS_GENODEF_13
1002
{
1000
HIER
1070
     0
1002
}
1002
{
1000
MANEDIT
1070
     0
1002
}
1002
{
1000
NOSEL
1070
     0
1002
}
1002
{
1000
BEHIND
1070
     0
1002
}
1002
{
1000
OTHER
1070
     0
1002
}
1002
{
1000
REACTOR
1002
}
  0
LINE
  5
F18
  8
247
  6
CONTINUOUS
 10
6.3160181129366029
 20
-1.0999999999160079
 30
0.0
 11
6.9181834230060408
 21
0.9999999999999996
 31
0.0
  0
LINE
  5
F19
  8
247
  6
CONTINUOUS
 10
8.4143372690920142
 20
0.9999999999999996
 30
0.0
 11
8.0183216356964522
 21
0.9999999999999996
 31
0.0
  0
LINE
  5
F1A
  8
247
  6
CONTINUOUS
 10
7.391260346056014
 20
-1.0999999999160079
 30
0.0
 11
7.8220295768080632
 21
-1.0999999999160079
 31
0.0
  0
ARC
  5
F1B
  8
247
  6
CONTINUOUS
 10
8.6181834229300307
 20
-0.4582995950834179
 30
0.0
 40
1.5768550576395479
 50
112.3594881415292
 51
164.99324854284649
  0
ARC
  5
F1C
  8
247
  6
CONTINUOUS
 10
8.152488633866767
 20
0.4341811414619765
 30
0.0
 40
0.6234706797009447
 50
4.9945893190753123
 51
65.166328957308281
1001
GENIUS_GENOBJ-N-FIL_13
1002
{
1000
OWNER
1000
GEN
1002
}
1001
GENIUS_GENODEF_13
1002
{
1000
HIER
1070
     0
1002
}
1002
{
1000
MANEDIT
1070
     0
1002
}
1002
{
1000
NOSEL
1070
     0
1002
}
1002
{
1000
BEHIND
1070
     0
1002
}
1002
{
1000
OTHER
1070
     0
1002
}
1002
{
1000
REACTOR
1002
}
  0
ARC
  5
F1D
  8
247
  6
CONTINUOUS
 10
7.5558160489672437
 20
-0.1621021219693834
 30
0.0
 40
0.9749472149106983
 50
285.8460965557839
 51
352.3251370041624
  0
ARC
  5
F1E
  8
247
  6
CONTINUOUS
 10
7.964788361227761
 20
-0.3714704019710102
 30
0.0
 40
0.9271945638692009
 50
159.71360167048971
 51
231.7887456564151
1001
GENIUS_GENOBJ-N-FIL_13
1002
{
1000
OWNER
1000
GEN
1002
}
1001
GENIUS_GENODEF_13
1002
{
1000
HIER
1070
     0
1002
}
1002
{
1000
MANEDIT
1070
     0
1002
}
1002
{
1000
NOSEL
1070
     0
1002
}
1002
{
1000
BEHIND
1070
     0
1002
}
1002
{
1000
OTHER
1070
     0
1002
}
1002
{
1000
REACTOR
1002
}
  0
LINE
  5
F1F
  8
247
  6
CONTINUOUS
 10
8.0374141921840305
 20
-0.292307692255918
 30
0.0
 11
8.522029576780028
 21
-0.292307692255918
 31
0.0
  0
ARC
  5
F20
  8
247
  6
CONTINUOUS
 10
4.25
 20
-0.2500000000000004
 30
0.0
 40
1.25
 50
90.0
 51
270.0
  0
LINE
  5
F21
  8
247
  6
CONTINUOUS
 10
4.25
 20
0.9999999999999996
 30
0.0
 11
4.6961538460860188
 21
0.9999999999999996
 31
0.0
  0
ARC
  5
F22
  8
247
  6
CONTINUOUS
 10
8.8846153843300044
 20
-0.2500000000000004
 30
0.0
 40
1.25
 50
270.0
 51
90.0
  0
VIEWPORT
  5
22
 67
     1
  8
0
 10
261.51769911504419
 20
148.5
 30
0.0
 40
523.0353982300885
 41
297.0
 68
     1
 69
     1
1001
ACAD
1000
MVIEW
1002
{
1070
    16
1010
0.0
1020
0.0
1030
0.0
1010
0.0
1020
0.0
1030
1.0
1040
0.0
1040
297.0
1040
261.51769911504419
1040
148.5
1040
50.0
1040
0.0
1040
0.0
1070
     0
1070
   100
1070
     1
1070
     1
1070
     0
1070
     0
1070
     0
1070
     0
1040
0.0
1040
0.0
1040
0.0
1040
1.0
1040
1.0
1040
10.0
1040
10.0
1070
     0
1002
{
1002
}
1002
}
1001
GENIUS_GENOBJ-N-SDF_13
1002
{
1000
OWNER
1000
GEN
1002
}
1001
GENIUS_GENODEF_13
1002
{
1000
HIER
1070
     0
1002
}
1002
{
1000
MANEDIT
1070
     0
1002
}
1002
{
1000
NOSEL
1070
     0
1002
}
1002
{
1000
BEHIND
1070
     0
1002
}
1002
{
1000
OTHER
1070
     0
1002
}
1002
{
1000
REACTOR
1002
}
1001
GENIUS_GENSCREG_15
1000
PF
1040
1.0
1000
DF
1040
1.0
1000
MIN
1011
0.0
1021
0.0
1031
0.0
1021
0.0
1031
0.0
1000
MAX
1011
523.0353982300885
1021
0.0
1031
0.0
1021
297.0
1031
0.0
1000
FLAGS
1070
     4
  0
ENDSEC
  0
EOF
