  0
SECTION
  2
HEADER
  9
$ACADVER
  1
AC1009
  9
$INSBASE
 10
0.0
 20
0.0
 30
0.0
  9
$EXTMIN
 10
-5.9999999999997149
 20
-6.3809382968536674
 30
0.0
  9
$EXTMAX
 10
80.476190476190766
 20
44.99999999999995
 30
0.0
  9
$LIMMIN
 10
0.0
 20
0.0
  9
$LIMMAX
 10
297.0
 20
210.0
  9
$ORTHOMODE
 70
     1
  9
$REGENMODE
 70
     1
  9
$FILLMODE
 70
     1
  9
$QTEXTMODE
 70
     0
  9
$MIRRTEXT
 70
     1
  9
$DRAGMODE
 70
     2
  9
$LTSCALE
 40
10.0
  9
$OSMODE
 70
  3071
  9
$ATTMODE
 70
     1
  9
$TEXTSIZE
 40
3.0
  9
$TRACEWID
 40
1.0
  9
$TEXTSTYLE
  7
STANDARD
  9
$CLAYER
  8
240
  9
$CELTYPE
  6
BYLAYER
  9
$CECOLOR
 62
   256
  9
$DIMSCALE
 40
1.0
  9
$DIMASZ
 40
2.0
  9
$DIMEXO
 40
0.5
  9
$DIMDLI
 40
2.5
  9
$DIMRND
 40
0.0
  9
$DIMDLE
 40
0.0
  9
$DIMEXE
 40
1.0
  9
$DIMTP
 40
0.0
  9
$DIMTM
 40
0.0
  9
$DIMTXT
 40
2.799999999999998
  9
$DIMCEN
 40
0.0
  9
$DIMTSZ
 40
0.0
  9
$DIMTOL
 70
     0
  9
$DIMLIM
 70
     0
  9
$DIMTIH
 70
     0
  9
$DIMTOH
 70
     0
  9
$DIMSE1
 70
     0
  9
$DIMSE2
 70
     0
  9
$DIMTAD
 70
     3
  9
$DIMZIN
 70
     8
  9
$DIMBLK
  1

  9
$DIMASO
 70
     1
  9
$DIMSHO
 70
     1
  9
$DIMPOST
  1

  9
$DIMAPOST
  1

  9
$DIMALT
 70
     0
  9
$DIMALTD
 70
     2
  9
$DIMALTF
 40
25.399999999999999
  9
$DIMLFAC
 40
1.0
  9
$DIMTOFL
 70
     1
  9
$DIMTVP
 40
0.0
  9
$DIMTIX
 70
     1
  9
$DIMSOXD
 70
     0
  9
$DIMSAH
 70
     1
  9
$DIMBLK1
  1
OPEN
  9
$DIMBLK2
  1
OPEN
  9
$DIMSTYLE
  2
BIGT
  9
$DIMCLRD
 70
   256
  9
$DIMCLRE
 70
   256
  9
$DIMCLRT
 70
    40
  9
$DIMTFAC
 40
1.0
  9
$DIMGAP
 40
1.0
  9
$LUNITS
 70
     2
  9
$LUPREC
 70
     3
  9
$SKETCHINC
 40
1.0
  9
$FILLETRAD
 40
0.0
  9
$AUNITS
 70
     0
  9
$AUPREC
 70
     3
  9
$MENU
  1
.
  9
$ELEVATION
 40
0.0
  9
$PELEVATION
 40
0.0
  9
$THICKNESS
 40
0.0
  9
$LIMCHECK
 70
     0
  9
$BLIPMODE
 70
     0
  9
$CHAMFERA
 40
10.0
  9
$CHAMFERB
 40
10.0
  9
$SKPOLY
 70
     0
  9
$TDCREATE
 40
2457094.6074441089
  9
$TDUPDATE
 40
2457378.6312365741
  9
$TDINDWG
 40
0.0079700463
  9
$TDUSRTIMER
 40
0.0079700347
  9
$USRTIMER
 70
     1
  9
$ANGBASE
 50
0.0
  9
$ANGDIR
 70
     0
  9
$PDMODE
 70
     0
  9
$PDSIZE
 40
-5.0
  9
$PLINEWID
 40
0.0
  9
$COORDS
 70
     1
  9
$SPLFRAME
 70
     0
  9
$SPLINETYPE
 70
     6
  9
$SPLINESEGS
 70
     8
  9
$ATTDIA
 70
     1
  9
$ATTREQ
 70
     1
  9
$HANDLING
 70
     1
  9
$HANDSEED
  5
F98
  9
$SURFTAB1
 70
     6
  9
$SURFTAB2
 70
     6
  9
$SURFTYPE
 70
     6
  9
$SURFU
 70
     6
  9
$SURFV
 70
     6
  9
$UCSNAME
  2

  9
$UCSORG
 10
0.0
 20
0.0
 30
0.0
  9
$UCSXDIR
 10
1.0
 20
0.0
 30
0.0
  9
$UCSYDIR
 10
0.0
 20
1.0
 30
0.0
  9
$PUCSNAME
  2

  9
$PUCSORG
 10
0.0
 20
0.0
 30
0.0
  9
$PUCSXDIR
 10
1.0
 20
0.0
 30
0.0
  9
$PUCSYDIR
 10
0.0
 20
1.0
 30
0.0
  9
$USERI1
 70
     1
  9
$USERI2
 70
     0
  9
$USERI3
 70
     0
  9
$USERI4
 70
     0
  9
$USERI5
 70
     0
  9
$USERR1
 40
0.0
  9
$USERR2
 40
0.0
  9
$USERR3
 40
0.0
  9
$USERR4
 40
0.0
  9
$USERR5
 40
0.0
  9
$WORLDVIEW
 70
     1
  9
$SHADEDGE
 70
     3
  9
$SHADEDIF
 70
    70
  9
$TILEMODE
 70
     1
  9
$MAXACTVP
 70
    16
  9
$PLIMCHECK
 70
     0
  9
$PEXTMIN
 10
1.0000000000000000E+020
 20
1.0000000000000000E+020
 30
1.0000000000000000E+020
  9
$PEXTMAX
 10
-1.0000000000000000E+020
 20
-1.0000000000000000E+020
 30
-1.0000000000000000E+020
  9
$PLIMMIN
 10
0.0
 20
0.0
  9
$PLIMMAX
 10
420.0
 20
297.0
  9
$UNITMODE
 70
     0
  9
$VISRETAIN
 70
     0
  9
$PLINEGEN
 70
     0
  9
$PSLTSCALE
 70
     1
  0
ENDSEC
  0
SECTION
  2
TABLES
  0
TABLE
  2
VPORT
 70
     1
  0
VPORT
  2
*ACTIVE
 70
     0
 10
0.0
 20
0.0
 11
1.0
 21
1.0
 12
44.4404417407398
 22
17.117444108964701
 13
0.0
 23
0.0
 14
7.0
 24
7.0
 15
7.0
 25
7.0
 16
0.0
 26
0.0
 36
1.0
 17
0.0
 27
0.0
 37
0.0
 40
95.975798581680436
 41
1.486725663716814
 42
50.0
 43
0.0
 44
0.0
 50
0.0
 51
0.0
 71
     0
 72
  2000
 73
     1
 74
     0
 75
     0
 76
     0
 77
     0
 78
     0
  0
ENDTAB
  0
TABLE
  2
LTYPE
 70
    13
  0
LTYPE
  2
CONTINUOUS
 70
     0
  3
Solid line
 72
    65
 73
     0
 40
0.0
  0
LTYPE
  2
CENTER2
 70
     0
  3
___ _ ___ _ ___ _ ___ _ ___ _ ___ _ ___ _ ___ _
 72
    65
 73
     4
 40
1.125
 49
0.75
 49
-0.125
 49
0.125
 49
-0.125
  0
LTYPE
  2
PHANTOM2
 70
     0
  3
___ _ _ ___ _ _ ___ _ _ ___ _ _ ___ _ _ ___ _ _
 72
    65
 73
     6
 40
1.25
 49
0.625
 49
-0.125
 49
0.125
 49
-0.125
 49
0.125
 49
-0.125
  0
LTYPE
  2
HIDDEN2
 70
     0
  3
_ _ _ _ _ _ _ _ _ _ _ _ _ _ _ _ _ _ _ _ _ _ _ _
 72
    65
 73
     2
 40
0.1875
 49
0.125
 49
-0.0625
  0
LTYPE
  2
AMCONSTR
 70
     0
  3
_______________________
 72
    65
 73
     2
 40
9999.0
 49
9999.0
 49
0.0
  0
LTYPE
  2
AM_ISO02W050
 70
     0
  3
__ __ __ __ __ __ __ __ __ __ __ __ __ __ __
 72
    65
 73
     2
 40
7.5
 49
6.0
 49
-1.5
  0
LTYPE
  2
ACJISTGB
 70
     0
  3
__ . . __ . .
 72
    65
 73
     6
 40
9.0
 49
4.0
 49
-1.0
 49
1.0
 49
-1.0
 49
1.0
 49
-1.0
  0
LTYPE
  2
ACJISTGL
 70
     0
  3
_ _ _ _ _
 72
    65
 73
     2
 40
3.0
 49
2.0
 49
-1.0
  0
LTYPE
  2
ACISOWELD
 70
     0
  3
_ _ _ _ _
 72
    65
 73
     2
 40
2.0
 49
2.0
 49
-1.0
  0
LTYPE
  2
ACISOTGB
 70
     0
  3
__ . . __ . .
 72
    65
 73
     6
 40
9.0
 49
4.0
 49
-1.0
 49
1.0
 49
-1.0
 49
1.0
 49
-1.0
  0
LTYPE
  2
ACISOTGL
 70
     0
  3
_ _ _ _ _
 72
    65
 73
     2
 40
3.0
 49
2.0
 49
-1.0
  0
ENDTAB
  0
TABLE
  2
LAYER
 70
     9
  0
LAYER
  2
0
 70
     0
 62
     7
  6
CONTINUOUS
  0
LAYER
  2
240
 70
     0
 62
     4
  6
CONTINUOUS
  0
LAYER
  2
241
 70
     0
 62
   211
  6
CONTINUOUS
  0
LAYER
  2
245
 70
     0
 62
     2
  6
CENTER2
  0
LAYER
  2
250
 70
     0
 62
     3
  6
CONTINUOUS
  0
LAYER
  2
DEFPOINTS
 70
     0
 62
     7
  6
CONTINUOUS
  0
LAYER
  2
247
 70
     0
 62
    60
  6
CONTINUOUS
  0
ENDTAB
  0
TABLE
  2
STYLE
 70
     6
  0
STYLE
  2
STANDARD
 70
     0
 40
0.0
 41
1.0
 50
0.0
 71
     0
 42
3.0
  3
romans.shx
  4
BIGFONT.SHX
  0
STYLE
  2
YOKO
 70
     0
 40
0.0
 41
1.0
 50
0.0
 71
     0
 42
3.0
  3
romans.shx
  4
extfont.shx
  0
STYLE
  2
ACJISTS
 70
     0
 40
1.0
 41
1.0
 50
0.0
 71
     0
 42
3.0
  3
amgdt.shx
  4
extfont.shx
  0
STYLE
  2
ACJISGDT
 70
     0
 40
0.0
 41
1.0
 50
0.0
 71
     0
 42
3.0
  3
amgdt.shx
  4
extfont.shx
  0
STYLE
  2
ACISOTS
 70
     0
 40
1.0
 41
1.0
 50
0.0
 71
     0
 42
3.0
  3
amgdt.shx
  4
extfont.shx
  0
STYLE
  2
ACISOGDT
 70
     0
 40
0.0
 41
1.0
 50
0.0
 71
     0
 42
3.0
  3
amgdt.shx
  4
extfont.shx
  0
ENDTAB
  0
TABLE
  2
VIEW
 70
     0
  0
ENDTAB
  0
TABLE
  2
UCS
 70
     0
  0
ENDTAB
  0
TABLE
  2
APPID
 70
    43
  0
APPID
  2
ACAD
 70
     0
  0
APPID
  2
GLOBAL
 70
     0
  0
APPID
  2
DETAIL
 70
     0
  0
APPID
  2
GRPNAME
 70
     0
  0
APPID
  2
GPARA
 70
     0
  0
APPID
  2
DCO15
 70
     0
  0
APPID
  2
ITEMNAME
 70
     0
  0
APPID
  2
GRADE_0
 70
     0
  0
APPID
  2
LAYER_SCALE
 70
     0
  0
APPID
  2
ACAD_PSEXT
 70
     0
  0
APPID
  2
ACAD_NAV_VCDISPLAY
 70
     0
  0
APPID
  2
HATCH_TYPE
 70
     0
  0
APPID
  2
HATCH_DISPLAY
 70
     0
  0
APPID
  2
HATCH_DISTANCE
 70
     0
  0
APPID
  2
ASKLEADER
 70
     0
  0
APPID
  2
ASKLEADERCHILD
 70
     0
  0
APPID
  2
MCAD_NO_VIS
 70
     0
  0
APPID
  2
ACAD_TEMP_GRAPHIC
 70
     0
  0
APPID
  2
ACATTRIBSERVICES
 70
     0
  0
APPID
  2
GENIUS_GENSCREG_15
 70
     0
  0
APPID
  2
GENIUS_GENODEF_13
 70
     0
  0
APPID
  2
GENIUS_GENOBJ-N-SDF_13
 70
     0
  0
APPID
  2
GENIUS_GENREC_14
 70
     0
  0
APPID
  2
GENIUS_GENOBJ-N-REC_13
 70
     0
  0
APPID
  2
GENIUS_GENDIMSH_14
 70
     0
  0
APPID
  2
GENIUS_GENOBJ-N-DIM_13
 70
     0
  0
APPID
  2
GENIUS_GENDIM_13
 70
     0
  0
APPID
  2
GENIUS_GENDTOL_13
 70
     0
  0
APPID
  2
GENIUS_GENOLIS_13
 70
     0
  0
APPID
  2
GENIUS_GENOENT_13
 70
     0
  0
APPID
  2
GENIUS_GENOBJ-F-FEM_13
 70
     0
  0
APPID
  2
GENIUS_GENOREF_13
 70
     0
  0
APPID
  2
GENIUS_GEFFEM_13
 70
     0
  0
APPID
  2
GENIUS_GEFFEMP_13
 70
     0
  0
APPID
  2
AD_DRAW
 70
     0
  0
APPID
  2
DESIGNERASSEMBLIES
 70
     0
  0
APPID
  2
ACADM_DIM_EDIT
 70
     0
  0
APPID
  2
AMDT_DM_ADJ
 70
     0
  0
APPID
  2
GENIUS_GENOBJ-N-FIL_13
 70
     0
  0
APPID
  2
GENIUS_GENFIL_13
 70
     0
  0
APPID
  2
GENIUS_GENOBJ-N-CHA_13
 70
     0
  0
APPID
  2
ACAD_DSTYLE_DIMINSPECT
 70
     0
  0
APPID
  2
ACAD_MLEADERVER
 70
     0
  0
ENDTAB
  0
TABLE
  2
DIMSTYLE
 70
    23
  0
DIMSTYLE
  2
BIGT
 70
     0
  3

  4

  5
OPEN
  6

  7

 40
1.0
 41
2.2299999999999991
 42
0.5
 43
7.0
 44
1.0
 45
0.0
 46
0.0
 47
0.0
 48
0.01
140
2.7999999999999989
141
0.0
142
0.0
143
25.399999999999999
144
1.0
145
0.0
146
1.0
147
1.0
 71
     0
 72
     0
 73
     0
 74
     0
 75
     0
 76
     0
 77
     3
 78
     9
170
     0
171
     2
172
     1
173
     0
174
     1
175
     0
176
   256
177
   256
178
    40
  0
DIMSTYLE
  2
BIGT$0
 70
     0
  3

  4

  5
OPEN
  6

  7

 40
1.0
 41
2.2299999999999991
 42
0.5
 43
7.0
 44
1.0
 45
0.0
 46
0.0
 47
0.0
 48
0.01
140
2.7999999999999989
141
0.0
142
0.0
143
25.399999999999999
144
1.0
145
0.0
146
1.0
147
1.0
 71
     0
 72
     0
 73
     0
 74
     0
 75
     0
 76
     0
 77
     3
 78
     9
170
     0
171
     2
172
     1
173
     0
174
     1
175
     0
176
   256
177
   256
178
    40
  0
DIMSTYLE
  2
BIGT$2
 70
     0
  3

  4

  5
OPEN
  6

  7

 40
1.0
 41
2.2299999999999991
 42
0.5
 43
7.0
 44
1.0
 45
0.0
 46
0.0
 47
0.0
 48
0.01
140
2.7999999999999989
141
0.0
142
0.0
143
25.399999999999999
144
1.0
145
0.0
146
1.0
147
1.0
 71
     0
 72
     0
 73
     0
 74
     0
 75
     0
 76
     0
 77
     3
 78
     9
170
     0
171
     2
172
     1
173
     0
174
     0
175
     0
176
   256
177
   256
178
    40
  0
DIMSTYLE
  2
BIGT$3
 70
     0
  3

  4

  5
OPEN
  6

  7

 40
1.0
 41
2.2299999999999991
 42
0.5
 43
2.5
 44
1.0
 45
0.0
 46
0.0
 47
0.0
 48
0.01
140
2.7999999999999989
141
0.0
142
0.0
143
25.399999999999999
144
1.0
145
0.0
146
1.0
147
1.0
 71
     0
 72
     0
 73
     0
 74
     0
 75
     0
 76
     0
 77
     3
 78
     9
170
     0
171
     2
172
     1
173
     0
174
     0
175
     0
176
   256
177
   256
178
    40
  0
DIMSTYLE
  2
BIGT$4
 70
     0
  3

  4

  5
OPEN
  6

  7

 40
1.0
 41
2.2299999999999991
 42
0.5
 43
2.5
 44
1.0
 45
0.0
 46
0.0
 47
0.0
 48
0.01
140
2.7999999999999989
141
0.0
142
0.0
143
25.399999999999999
144
1.0
145
0.0
146
1.0
147
1.0
 71
     0
 72
     0
 73
     0
 74
     0
 75
     0
 76
     0
 77
     3
 78
     9
170
     0
171
     2
172
     1
173
     0
174
     0
175
     0
176
   256
177
   256
178
    40
  0
DIMSTYLE
  2
BIGT$6
 70
     0
  3

  4

  5
OPEN
  6

  7

 40
1.0
 41
2.2299999999999991
 42
0.5
 43
2.5
 44
1.0
 45
0.0
 46
0.0
 47
0.0
 48
0.01
140
2.7999999999999989
141
0.0
142
0.0
143
25.399999999999999
144
1.0
145
0.0
146
1.0
147
1.0
 71
     0
 72
     0
 73
     0
 74
     0
 75
     0
 76
     0
 77
     3
 78
     9
170
     0
171
     2
172
     1
173
     0
174
     0
175
     0
176
   256
177
   256
178
    40
  0
DIMSTYLE
  2
BIGT$7
 70
     0
  3

  4

  5
OPEN
  6

  7

 40
0.0
 41
2.2299999999999991
 42
0.5
 43
7.0
 44
1.0
 45
0.0
 46
0.0
 47
0.0
 48
0.01
140
2.7999999999999989
141
0.0
142
0.0
143
25.399999999999999
144
1.0
145
0.0
146
1.0
147
1.0
 71
     0
 72
     0
 73
     0
 74
     0
 75
     0
 76
     0
 77
     3
 78
     9
170
     0
171
     2
172
     0
173
     0
174
     0
175
     0
176
   256
177
   256
178
    40
  0
DIMSTYLE
  2
BIGT$SF
 70
     0
  3

  4

  5
OPEN
  6

  7

 40
1.0
 41
2.2299999999999991
 42
0.5
 43
7.0
 44
1.0
 45
0.0
 46
0.0
 47
0.0
 48
0.0
140
2.7999999999999989
141
0.0
142
0.0
143
25.399999999999999
144
1.0
145
0.0
146
1.0
147
1.0
 71
     0
 72
     0
 73
     0
 74
     0
 75
     0
 76
     0
 77
     3
 78
     9
170
     0
171
     2
172
     1
173
     0
174
     0
175
     0
176
   256
177
   256
178
    40
  0
DIMSTYLE
  2
BIGT$SH
 70
     0
  3

  4

  5
OPEN
  6

  7

 40
1.0
 41
2.2299999999999991
 42
0.5
 43
7.0
 44
1.0
 45
0.0
 46
0.0
 47
0.0
 48
0.0
140
2.7999999999999989
141
0.0
142
0.0
143
25.399999999999999
144
1.0
145
0.0
146
1.0
147
1.0
 71
     0
 72
     0
 73
     0
 74
     0
 75
     0
 76
     0
 77
     3
 78
     9
170
     0
171
     2
172
     1
173
     0
174
     0
175
     0
176
   256
177
   256
178
    40
  0
DIMSTYLE
  2
AM_ISO
 70
     0
  3

  4
"
  5

  6

  7

 40
1.0
 41
2.5
 42
1.0
 43
10.0
 44
1.0
 45
0.0
 46
0.0
 47
0.1
 48
0.1
140
3.5
141
0.0
142
0.0
143
0.0393701
144
1.0
145
0.0
146
0.71
147
1.5
 71
     0
 72
     0
 73
     0
 74
     0
 75
     0
 76
     0
 77
     1
 78
     8
170
     0
171
     2
172
     1
173
     0
174
     0
175
     0
176
   256
177
   256
178
     2
  0
DIMSTYLE
  2
AM_ISO$3
 70
     0
  3

  4
"
  5

  6

  7

 40
1.0
 41
2.5
 42
1.0
 43
10.0
 44
1.0
 45
0.0
 46
0.0
 47
0.1
 48
0.1
140
3.5
141
0.0
142
0.0
143
0.0393701
144
1.0
145
0.0
146
0.71
147
1.5
 71
     0
 72
     0
 73
     0
 74
     1
 75
     0
 76
     0
 77
     1
 78
     8
170
     0
171
     2
172
     0
173
     0
174
     0
175
     0
176
   256
177
   256
178
     2
  0
DIMSTYLE
  2
AM_ISO$4
 70
     0
  3

  4
"
  5

  6

  7

 40
1.0
 41
2.5
 42
1.0
 43
10.0
 44
1.0
 45
0.0
 46
0.0
 47
0.1
 48
0.1
140
3.5
141
0.0
142
0.0
143
0.0393701
144
1.0
145
0.0
146
0.71
147
1.5
 71
     0
 72
     0
 73
     0
 74
     1
 75
     0
 76
     0
 77
     1
 78
     8
170
     0
171
     2
172
     0
173
     0
174
     0
175
     0
176
   256
177
   256
178
     2
  0
DIMSTYLE
  2
AM_ISO$6
 70
     0
  3

  4
"
  5

  6

  7

 40
1.0
 41
2.5
 42
1.0
 43
10.0
 44
1.0
 45
0.0
 46
0.0
 47
0.1
 48
0.1
140
3.5
141
0.0
142
0.0
143
0.0393701
144
1.0
145
0.0
146
0.71
147
1.5
 71
     0
 72
     0
 73
     0
 74
     0
 75
     0
 76
     0
 77
     0
 78
     8
170
     0
171
     2
172
     1
173
     0
174
     0
175
     0
176
   256
177
   256
178
     2
  0
DIMSTYLE
  2
AM_ISO$7
 70
     0
  3

  4
"
  5

  6

  7

 40
1.0
 41
2.5
 42
1.0
 43
10.0
 44
1.0
 45
0.0
 46
0.0
 47
0.1
 48
0.1
140
5.0
141
0.0
142
0.0
143
0.0393701
144
1.0
145
0.0
146
0.71
147
1.5
 71
     0
 72
     0
 73
     0
 74
     0
 75
     0
 76
     0
 77
     1
 78
     8
170
     0
171
     2
172
     1
173
     0
174
     0
175
     0
176
   256
177
   256
178
     2
  0
DIMSTYLE
  2
AM_ISO$SF
 70
     0
  3

  4
"
  5

  6

  7

 40
1.0
 41
2.5
 42
1.0
 43
10.0
 44
1.0
 45
0.0
 46
0.0
 47
0.1
 48
0.1
140
3.5
141
0.0
142
0.0
143
0.0393701
144
1.0
145
0.0
146
0.71
147
1.5
 71
     0
 72
     0
 73
     0
 74
     0
 75
     1
 76
     1
 77
     1
 78
     8
170
     0
171
     2
172
     1
173
     0
174
     0
175
     0
176
   256
177
   256
178
     2
  0
DIMSTYLE
  2
AM_ISO$SH
 70
     0
  3

  4
"
  5

  6
GENAXEH
  7

 40
1.0
 41
2.5
 42
1.0
 43
10.0
 44
1.0
 45
0.0
 46
0.0
 47
0.1
 48
0.1
140
3.5
141
0.0
142
0.0
143
0.0393701
144
2.0
145
0.0
146
0.71
147
1.5
 71
     0
 72
     0
 73
     0
 74
     0
 75
     1
 76
     1
 77
     1
 78
     8
170
     0
171
     2
172
     1
173
     1
174
     0
175
     0
176
   256
177
   256
178
     2
  0
DIMSTYLE
  2
TECHNICAL_OSAKA
 70
     0
  3

  4
"
  5
OPEN30
  6

  7

 40
1.0
 41
2.5
 42
1.0
 43
10.0
 44
1.0
 45
0.0
 46
0.0
 47
0.1
 48
0.1
140
2.7999999999999989
141
0.0
142
0.0
143
0.0393701
144
1.0
145
0.0
146
0.71
147
1.5
 71
     0
 72
     0
 73
     0
 74
     0
 75
     0
 76
     0
 77
     3
 78
     8
170
     0
171
     2
172
     1
173
     0
174
     0
175
     0
176
   256
177
   256
178
    40
  0
DIMSTYLE
  2
TECHNICAL_OSAKA$3
 70
     0
  3

  4
"
  5
OPEN30
  6

  7

 40
1.0
 41
2.5
 42
1.0
 43
10.0
 44
1.0
 45
0.0
 46
0.0
 47
0.1
 48
0.1
140
2.7999999999999989
141
0.0
142
0.0
143
0.0393701
144
1.0
145
0.0
146
0.71
147
1.5
 71
     0
 72
     0
 73
     0
 74
     1
 75
     0
 76
     0
 77
     3
 78
     8
170
     0
171
     2
172
     0
173
     0
174
     0
175
     0
176
   256
177
   256
178
    40
  0
DIMSTYLE
  2
TECHNICAL_OSAKA$4
 70
     0
  3

  4
"
  5
OPEN30
  6

  7

 40
1.0
 41
2.5
 42
1.0
 43
10.0
 44
1.0
 45
0.0
 46
0.0
 47
0.1
 48
0.1
140
2.7999999999999989
141
0.0
142
0.0
143
0.0393701
144
1.0
145
0.0
146
0.71
147
1.5
 71
     0
 72
     0
 73
     0
 74
     1
 75
     0
 76
     0
 77
     3
 78
     8
170
     0
171
     2
172
     0
173
     0
174
     0
175
     0
176
   256
177
   256
178
    40
  0
DIMSTYLE
  2
TECHNICAL_OSAKA$6
 70
     0
  3

  4
"
  5
OPEN30
  6

  7

 40
1.0
 41
2.5
 42
1.0
 43
10.0
 44
1.0
 45
0.0
 46
0.0
 47
0.1
 48
0.1
140
2.7999999999999989
141
0.0
142
0.0
143
0.0393701
144
1.0
145
0.0
146
0.71
147
1.5
 71
     0
 72
     0
 73
     0
 74
     0
 75
     0
 76
     0
 77
     0
 78
     8
170
     0
171
     2
172
     1
173
     0
174
     0
175
     0
176
   256
177
   256
178
    40
  0
DIMSTYLE
  2
TECHNICAL_OSAKA$7
 70
     0
  3

  4
"
  5
OPEN30
  6

  7

 40
1.0
 41
2.5
 42
1.0
 43
10.0
 44
1.0
 45
0.0
 46
0.0
 47
0.1
 48
0.1
140
2.7999999999999989
141
0.0
142
0.0
143
0.0393701
144
1.0
145
0.0
146
0.71
147
1.5
 71
     0
 72
     0
 73
     0
 74
     0
 75
     0
 76
     0
 77
     3
 78
     8
170
     0
171
     2
172
     1
173
     0
174
     0
175
     0
176
   256
177
   256
178
    40
  0
DIMSTYLE
  2
TECHNICAL_OSAKA$SF
 70
     0
  3

  4
"
  5
OPEN30
  6
OPEN30
  7
OPEN30
 40
1.0
 41
2.5
 42
1.0
 43
10.0
 44
1.0
 45
0.0
 46
0.0
 47
0.1
 48
0.1
140
3.5
141
0.0
142
0.0
143
0.0393701
144
1.0
145
0.0
146
0.71
147
1.5
 71
     0
 72
     0
 73
     0
 74
     0
 75
     1
 76
     1
 77
     3
 78
     8
170
     0
171
     2
172
     1
173
     0
174
     0
175
     0
176
   256
177
   256
178
    40
  0
DIMSTYLE
  2
TECHNICAL_OSAKA$SH
 70
     0
  3

  4
"
  5
OPEN30
  6
GENAXEH
  7
OPEN30
 40
1.0
 41
2.5
 42
1.0
 43
10.0
 44
1.0
 45
0.0
 46
0.0
 47
0.1
 48
0.1
140
3.5
141
0.0
142
0.0
143
0.0393701
144
2.0
145
0.0
146
0.71
147
1.5
 71
     0
 72
     0
 73
     0
 74
     0
 75
     1
 76
     1
 77
     3
 78
     8
170
     0
171
     2
172
     1
173
     1
174
     0
175
     0
176
   256
177
   256
178
    40
  0
ENDTAB
  0
ENDSEC
  0
SECTION
  2
BLOCKS
  0
BLOCK
  8
0
  2
$MODEL_SPACE
 70
     0
 10
0.0
 20
0.0
 30
0.0
  3
$MODEL_SPACE
  1

  0
ENDBLK
  5
1C
  8
0
  0
BLOCK
 67
     1
  8
0
  2
$PAPER_SPACE
 70
     0
 10
0.0
 20
0.0
 30
0.0
  3
$PAPER_SPACE
  1

  0
ENDBLK
  5
19
 67
     1
  8
0
  0
BLOCK
  8
0
  2
_OPEN
 70
     0
 10
0.0
 20
0.0
 30
0.0
  3
_OPEN
  1

  0
LINE
  5
DC4
  8
0
  6
BYBLOCK
 62
     0
 10
-1.0
 20
0.1666666666666666
 30
0.0
 11
0.0
 21
0.0
 31
0.0
  0
LINE
  5
DC5
  8
0
  6
BYBLOCK
 62
     0
 10
-1.0
 20
-0.1666666666666666
 30
0.0
 11
0.0
 21
0.0
 31
0.0
  0
LINE
  5
DC6
  8
0
  6
BYBLOCK
 62
     0
 10
0.0
 20
0.0
 30
0.0
 11
-1.0
 21
0.0
 31
0.0
  0
ENDBLK
  5
DC7
  8
0
  0
BLOCK
  8
0
  2
矢印なし
 70
     0
 10
0.0
 20
0.0
 30
0.0
  3
矢印なし
  1

  0
ENDBLK
  5
6E5
  8
0
  0
BLOCK
  8
0
  2
GENAXEH
 70
     0
 10
0.0
 20
0.0
 30
0.0
  3
GENAXEH
  1

  0
LINE
  5
DFF
  8
0
 10
-1.0
 20
0.0
 30
0.0
 11
1.0
 21
0.0
 31
0.0
  0
ENDBLK
  5
E00
  8
0
  0
BLOCK
  8
0
  2
_OPEN30
 70
     0
 10
0.0
 20
0.0
 30
0.0
  3
_OPEN30
  1

  0
LINE
  5
E3B
  8
0
  6
BYBLOCK
 62
     0
 10
-1.0
 20
0.26794919
 30
0.0
 11
0.0
 21
0.0
 31
0.0
  0
LINE
  5
E3C
  8
0
  6
BYBLOCK
 62
     0
 10
0.0
 20
0.0
 30
0.0
 11
-1.0
 21
-0.26794919
 31
0.0
  0
LINE
  5
E3D
  8
0
  6
BYBLOCK
 62
     0
 10
0.0
 20
0.0
 30
0.0
 11
-1.0
 21
0.0
 31
0.0
  0
ENDBLK
  5
E3E
  8
0
  0
ENDSEC
  0
SECTION
  2
ENTITIES
  0
INSERT
  5
6E6
  8
245
  2
矢印なし
 10
175.62382696643769
 20
90.551235716905978
 30
0.0
  0
TEXT
  5
9C2
  8
241
  6
CONTINUOUS
 10
5.0000000000002842
 20
39.99999999999995
 30
0.0
 40
5.0
  1
ST6W-CS6-45B-12
  7
YOKO
 11
5.0000000000002842
 21
39.99999999999995
 31
0.0
 73
     1
  0
LINE
  5
C7E
  8
250
  6
CONTINUOUS
 10
54.050000000005248
 20
7.9499999999991067
 30
0.0
 11
65.500000000000341
 21
7.9499999999991067
 31
0.0
  0
LINE
  5
C81
  8
250
  6
CONTINUOUS
 10
64.500000000000341
 20
7.9499999999991067
 30
0.0
 11
64.500000000000071
 21
-2.2304916492937248
 31
0.0
  0
LINE
  5
E6C
  8
245
  6
CENTER2
 10
4.0
 20
4.9999999999999432
 30
0.0
 11
56.000000000000831
 21
4.9999999999999432
 31
0.0
  0
LINE
  5
E6E
  8
241
  6
CONTINUOUS
 10
53.550000000005248
 20
2.0500000000007779
 30
0.0
 11
53.550000000005042
 21
7.9499999999991067
 31
0.0
  0
LINE
  5
E6F
  8
240
  6
CONTINUOUS
 10
40.401923788649569
 20
7.9999999999998863
 30
0.0
 11
4.9999999999998286
 21
7.999999999999944
 31
0.0
  0
LINE
  5
E70
  8
240
  6
CONTINUOUS
 10
40.401923788646762
 20
1.9999999999997711
 30
0.0
 11
5.0000000000001696
 21
1.999999999999976
 31
0.0
  0
LINE
  5
E71
  8
240
  6
CONTINUOUS
 10
43.00000000000081
 20
6.500000000000993
 30
0.0
 11
51.900000000014181
 21
6.5000000000003118
 31
0.0
  0
LINE
  5
E72
  8
240
  6
CONTINUOUS
 10
43.000000000000341
 20
3.4999999999999432
 30
0.0
 11
51.900000000013677
 21
3.5000000000001981
 31
0.0
  0
LINE
  5
E73
  8
240
  6
CONTINUOUS
 10
53.350000000007221
 20
7.9499999999937057
 30
0.0
 11
53.550000000004793
 21
7.9499999999968054
 31
0.0
  0
LINE
  5
E74
  8
240
  6
CONTINUOUS
 10
53.350000000012443
 20
2.0500000000016021
 30
0.0
 11
53.550000000012588
 21
2.0500000000075991
 31
0.0
  0
LINE
  5
E75
  8
240
  6
CONTINUOUS
 10
53.350000000007221
 20
7.9499999999937057
 30
0.0
 11
51.900000000014181
 21
6.5000000000003118
 31
0.0
  0
LINE
  5
E76
  8
240
  6
CONTINUOUS
 10
55.00000000000081
 20
3.4999999999962181
 30
0.0
 11
53.550000000012588
 21
2.0500000000075991
 31
0.0
  0
LINE
  5
E77
  8
240
  6
CONTINUOUS
 10
53.350000000012443
 20
2.0500000000016021
 30
0.0
 11
51.900000000013677
 21
3.5000000000001981
 31
0.0
  0
LINE
  5
E78
  8
240
  6
CONTINUOUS
 10
55.00000000000081
 20
6.5000000000001421
 30
0.0
 11
53.550000000004793
 21
7.9499999999968054
 31
0.0
  0
LINE
  5
E79
  8
240
  6
CONTINUOUS
 10
55.00000000000081
 20
3.4999999999962181
 30
0.0
 11
54.999999999997918
 21
6.5000000000036646
 31
0.0
  0
LINE
  5
E7A
  8
241
  6
CONTINUOUS
 10
51.900000000013989
 20
3.500000000000226
 30
0.0
 11
51.900000000015602
 21
6.4999999999996563
 31
0.0
  0
LINE
  5
E7C
  8
240
  6
CONTINUOUS
 10
43.000000000000341
 20
3.4999999999999432
 30
0.0
 11
40.401923788646762
 21
1.9999999999997711
 31
0.0
  0
LINE
  5
E7D
  8
240
  6
CONTINUOUS
 10
43.00000000000081
 20
6.500000000000993
 30
0.0
 11
40.401923788649569
 21
7.9999999999998863
 31
0.0
  0
LINE
  5
E83
  8
240
  6
CONTINUOUS
 10
4.9999999999998286
 20
7.999999999999944
 30
0.0
 11
5.0000000000001696
 21
1.999999999999976
 31
0.0
  0
LINE
  5
E85
  8
241
  6
CONTINUOUS
 10
43.000000000000341
 20
6.499999999999913
 30
0.0
 11
43.000000000001009
 21
3.4999999999999711
 31
0.0
  0
LINE
  5
E86
  8
241
  6
CONTINUOUS
 10
40.401923788649569
 20
8.0000000000001101
 30
0.0
 11
40.401923788648567
 21
1.9999999999997711
 31
0.0
  0
LINE
  5
E87
  8
241
  6
CONTINUOUS
 10
53.35000000001196
 20
7.9499999999979982
 30
0.0
 11
53.350000000010638
 21
2.0500000000018872
 31
0.0
  0
TEXT
  5
E8B
  8
250
  6
CONTINUOUS
 10
63.500000000000277
 20
-2.9430648441088141
 30
0.0
 40
3.0
  1
\U+22055.9
 50
90.0
1001
ACAD
1000
MTEXTBEGIN
1070
    73
1070
     1
1070
    44
1040
1.0
1070
    74
1070
     0
1000
MTEXTEND
  0
LINE
  5
E8C
  8
250
  6
CONTINUOUS
 10
64.166666666667012
 20
5.9499999999991067
 30
0.0
 11
64.500000000000341
 21
7.9499999999991067
 31
0.0
  0
LINE
  5
E8D
  8
250
  6
CONTINUOUS
 10
64.83333333333367
 20
5.9499999999991067
 30
0.0
 11
64.500000000000341
 21
7.9499999999991067
 31
0.0
  0
LINE
  5
E8E
  8
250
  6
CONTINUOUS
 10
64.500000000000341
 20
7.9499999999991067
 30
0.0
 11
64.500000000000341
 21
5.9499999999991067
 31
0.0
  0
LINE
  5
E8F
  8
250
  6
CONTINUOUS
 10
5.0000000000006821
 20
8.4999999999999467
 30
0.0
 11
5.000000000000683
 21
26.99999999999994
 31
0.0
  0
LINE
  5
E90
  8
250
  6
CONTINUOUS
 10
55.00000000000081
 20
7.0000000000036646
 30
0.0
 11
55.00000000000081
 21
26.99999999999994
 31
0.0
  0
LINE
  5
E91
  8
250
  6
CONTINUOUS
 10
7.000000000000683
 20
25.99999999999994
 30
0.0
 11
53.000000000000817
 21
25.99999999999994
 31
0.0
  0
LINE
  5
E95
  8
250
  6
CONTINUOUS
 10
43.00000000000081
 20
7.000000000000993
 30
0.0
 11
43.00000000000081
 21
19.99999999999994
 31
0.0
  0
LINE
  5
E96
  8
250
  6
CONTINUOUS
 10
55.00000000000081
 20
7.0000000000001421
 30
0.0
 11
55.00000000000081
 21
19.99999999999994
 31
0.0
  0
LINE
  5
E97
  8
250
  6
CONTINUOUS
 10
45.00000000000081
 20
18.99999999999994
 30
0.0
 11
53.000000000000817
 21
18.99999999999994
 31
0.0
  0
TEXT
  5
EA3
  8
250
  6
CONTINUOUS
 10
27.142857142857899
 20
26.99999999999994
 30
0.0
 40
3.0
  1
50
1001
ACAD
1000
MTEXTBEGIN
1070
    73
1070
     1
1070
    44
1040
1.0
1070
    74
1070
     0
1000
MTEXTEND
  0
LINE
  5
EA4
  8
250
  6
CONTINUOUS
 10
53.000000000000817
 20
26.333333333333272
 30
0.0
 11
55.00000000000081
 21
25.99999999999994
 31
0.0
  0
LINE
  5
EA5
  8
250
  6
CONTINUOUS
 10
53.000000000000817
 20
25.666666666666611
 30
0.0
 11
55.00000000000081
 21
25.99999999999994
 31
0.0
  0
LINE
  5
EA6
  8
250
  6
CONTINUOUS
 10
55.00000000000081
 20
25.99999999999994
 30
0.0
 11
53.000000000000817
 21
25.99999999999994
 31
0.0
  0
LINE
  5
EA7
  8
250
  6
CONTINUOUS
 10
7.000000000000683
 20
25.666666666666611
 30
0.0
 11
5.000000000000683
 21
25.99999999999994
 31
0.0
  0
LINE
  5
EA8
  8
250
  6
CONTINUOUS
 10
7.000000000000683
 20
26.333333333333272
 30
0.0
 11
5.000000000000683
 21
25.99999999999994
 31
0.0
  0
LINE
  5
EA9
  8
250
  6
CONTINUOUS
 10
5.000000000000683
 20
25.99999999999994
 30
0.0
 11
7.000000000000683
 21
25.99999999999994
 31
0.0
  0
TEXT
  5
EAA
  8
250
  6
CONTINUOUS
 10
45.928571428572248
 20
19.99999999999994
 30
0.0
 40
3.0
  1
12
1001
ACAD
1000
MTEXTBEGIN
1070
    73
1070
     1
1070
    44
1040
1.0
1070
    74
1070
     0
1000
MTEXTEND
  0
LINE
  5
EAB
  8
250
  6
CONTINUOUS
 10
53.000000000000817
 20
19.333333333333272
 30
0.0
 11
55.00000000000081
 21
18.99999999999994
 31
0.0
  0
LINE
  5
EAC
  8
250
  6
CONTINUOUS
 10
53.000000000000817
 20
18.666666666666611
 30
0.0
 11
55.00000000000081
 21
18.99999999999994
 31
0.0
  0
LINE
  5
EAD
  8
250
  6
CONTINUOUS
 10
55.00000000000081
 20
18.99999999999994
 30
0.0
 11
53.000000000000817
 21
18.99999999999994
 31
0.0
  0
LINE
  5
EAE
  8
250
  6
CONTINUOUS
 10
45.00000000000081
 20
18.666666666666611
 30
0.0
 11
43.00000000000081
 21
18.99999999999994
 31
0.0
  0
LINE
  5
EAF
  8
250
  6
CONTINUOUS
 10
45.00000000000081
 20
19.333333333333272
 30
0.0
 11
43.00000000000081
 21
18.99999999999994
 31
0.0
  0
LINE
  5
EB0
  8
250
  6
CONTINUOUS
 10
43.00000000000081
 20
18.99999999999994
 30
0.0
 11
45.00000000000081
 21
18.99999999999994
 31
0.0
  0
LINE
  5
EFB
  8
250
  6
CONTINUOUS
 10
2.3332089012110941
 20
-6.3809382968536674
 30
0.0
 11
17.799875567877731
 21
-6.3809382968536674
 31
0.0
  0
LINE
  5
EFC
  8
250
  6
CONTINUOUS
 10
17.799875567877731
 20
-6.3809382968536674
 30
0.0
 11
22.477252831544028
 21
0.1838383046498002
 31
0.0
  0
LINE
  5
EFD
  8
250
  6
CONTINUOUS
 10
22.477252831544028
 20
0.1838383046498002
 30
0.0
 11
23.771260828560571
 21
1.99999999999996
 31
0.0
  0
LINE
  5
EFE
  8
250
  6
CONTINUOUS
 10
22.71635505369261
 20
0.0134789207046033
 30
0.0
 11
23.771260828560571
 21
1.99999999999996
 31
0.0
  0
LINE
  5
EFF
  8
250
  6
CONTINUOUS
 10
23.771260828560571
 20
1.99999999999996
 30
0.0
 11
22.238150609395412
 21
0.3541976885949971
 31
0.0
  0
TEXT
  5
F00
  8
250
  6
CONTINUOUS
 10
1.93320890121106
 20
-4.9809382968536902
 30
0.0
 40
2.7999999999999989
  1
ST06W
  7
ACJISTS
  0
LINE
  5
F01
  8
247
  6
CONTINUOUS
 10
9.25
 20
3.49999999999996
 30
0.0
 11
13.884615384330001
 21
3.49999999999996
 31
0.0
  0
LINE
  5
F02
  8
247
  6
CONTINUOUS
 10
10.04510650001202
 20
5.99999999999996
 30
0.0
 11
9.4429411899426441
 21
3.9000000000839519
 31
0.0
  0
LINE
  5
F03
  8
247
  6
CONTINUOUS
 10
10.674848596480951
 20
5.0038461538860757
 30
0.0
 11
9.7594639811329671
 21
5.0038461538860757
 31
0.0
  0
ARC
  5
F04
  8
247
  6
CONTINUOUS
 10
10.912736598053179
 20
5.6152809327058613
 30
0.0
 40
0.3876715809326743
 50
342.99788967529531
 51
82.924166218513619
  0
ARC
  5
F05
  8
247
  6
CONTINUOUS
 10
10.61752244319587
 20
5.694776868971946
 30
0.0
 40
0.6933047965358766
 50
274.74293685219902
 51
343.84922627326682
1001
GENIUS_GENOBJ-N-FIL_13
1002
{
1000
OWNER
1000
GEN
1002
}
1001
GENIUS_GENODEF_13
1002
{
1000
HIER
1070
     0
1002
}
1002
{
1000
MANEDIT
1070
     0
1002
}
1002
{
1000
NOSEL
1070
     0
1002
}
1002
{
1000
BEHIND
1070
     0
1002
}
1002
{
1000
OTHER
1070
     0
1002
}
1002
{
1000
REACTOR
1002
}
  0
LINE
  5
F06
  8
247
  6
CONTINUOUS
 10
10.35832580529063
 20
3.9000000000839519
 30
0.0
 11
9.4429411899426441
 21
3.9000000000839519
 31
0.0
  0
LINE
  5
F07
  8
247
  6
CONTINUOUS
 10
10.04510650001202
 20
5.99999999999996
 30
0.0
 11
10.960491115360069
 21
5.99999999999996
 31
0.0
  0
ARC
  5
F08
  8
247
  6
CONTINUOUS
 10
10.621693523733139
 20
4.6125830372320307
 30
0.0
 40
0.394857301075386
 50
335.9909416525216
 51
82.263443459069066
  0
ARC
  5
F09
  8
247
  6
CONTINUOUS
 10
10.28755338957307
 20
4.6087996726673337
 30
0.0
 40
0.7123241612361686
 50
275.70198516425643
 51
347.27733843682199
1001
GENIUS_GENOBJ-N-FIL_13
1002
{
1000
OWNER
1000
GEN
1002
}
1001
GENIUS_GENODEF_13
1002
{
1000
HIER
1070
     0
1002
}
1002
{
1000
MANEDIT
1070
     0
1002
}
1002
{
1000
NOSEL
1070
     0
1002
}
1002
{
1000
BEHIND
1070
     0
1002
}
1002
{
1000
OTHER
1070
     0
1002
}
1002
{
1000
REACTOR
1002
}
  0
LINE
  5
F0A
  8
247
  6
CONTINUOUS
 10
11.3160181129366
 20
3.9000000000839519
 30
0.0
 11
11.91818342300604
 21
5.99999999999996
 31
0.0
  0
LINE
  5
F0B
  8
247
  6
CONTINUOUS
 10
13.414337269092011
 20
5.99999999999996
 30
0.0
 11
13.01832163569645
 21
5.99999999999996
 31
0.0
  0
LINE
  5
F0C
  8
247
  6
CONTINUOUS
 10
12.39126034605601
 20
3.9000000000839519
 30
0.0
 11
12.82202957680806
 21
3.9000000000839519
 31
0.0
  0
ARC
  5
F0D
  8
247
  6
CONTINUOUS
 10
13.618183422930031
 20
4.5417004049165426
 30
0.0
 40
1.5768550576395479
 50
112.3594881415292
 51
164.99324854284649
  0
ARC
  5
F0E
  8
247
  6
CONTINUOUS
 10
13.152488633866771
 20
5.434181141461937
 30
0.0
 40
0.6234706797009447
 50
4.9945893190753177
 51
65.166328957308281
1001
GENIUS_GENOBJ-N-FIL_13
1002
{
1000
OWNER
1000
GEN
1002
}
1001
GENIUS_GENODEF_13
1002
{
1000
HIER
1070
     0
1002
}
1002
{
1000
MANEDIT
1070
     0
1002
}
1002
{
1000
NOSEL
1070
     0
1002
}
1002
{
1000
BEHIND
1070
     0
1002
}
1002
{
1000
OTHER
1070
     0
1002
}
1002
{
1000
REACTOR
1002
}
  0
ARC
  5
F0F
  8
247
  6
CONTINUOUS
 10
12.555816048967239
 20
4.837897878030577
 30
0.0
 40
0.9749472149106983
 50
285.8460965557839
 51
352.3251370041624
  0
ARC
  5
F10
  8
247
  6
CONTINUOUS
 10
12.964788361227759
 20
4.6285295980289511
 30
0.0
 40
0.9271945638692009
 50
159.71360167048971
 51
231.7887456564151
1001
GENIUS_GENOBJ-N-FIL_13
1002
{
1000
OWNER
1000
GEN
1002
}
1001
GENIUS_GENODEF_13
1002
{
1000
HIER
1070
     0
1002
}
1002
{
1000
MANEDIT
1070
     0
1002
}
1002
{
1000
NOSEL
1070
     0
1002
}
1002
{
1000
BEHIND
1070
     0
1002
}
1002
{
1000
OTHER
1070
     0
1002
}
1002
{
1000
REACTOR
1002
}
  0
LINE
  5
F11
  8
247
  6
CONTINUOUS
 10
13.037414192184031
 20
4.7076923077440433
 30
0.0
 11
13.52202957678003
 21
4.7076923077440433
 31
0.0
  0
ARC
  5
F12
  8
247
  6
CONTINUOUS
 10
9.25
 20
4.74999999999996
 30
0.0
 40
1.25
 50
90.0
 51
270.0
  0
LINE
  5
F13
  8
247
  6
CONTINUOUS
 10
9.25
 20
5.99999999999996
 30
0.0
 11
9.6961538460860197
 21
5.99999999999996
 31
0.0
  0
ARC
  5
F14
  8
247
  6
CONTINUOUS
 10
13.884615384330001
 20
4.74999999999996
 30
0.0
 40
1.25
 50
270.0
 51
90.0
  0
VIEWPORT
  5
22
 67
     1
  8
0
 10
261.51769911504419
 20
148.5
 30
0.0
 40
523.0353982300885
 41
297.0
 68
     1
 69
     1
1001
ACAD
1000
MVIEW
1002
{
1070
    16
1010
0.0
1020
0.0
1030
0.0
1010
0.0
1020
0.0
1030
1.0
1040
0.0
1040
297.0
1040
261.51769911504419
1040
148.5
1040
50.0
1040
0.0
1040
0.0
1070
     0
1070
   100
1070
     1
1070
     1
1070
     0
1070
     0
1070
     0
1070
     0
1040
0.0
1040
0.0
1040
0.0
1040
1.0
1040
1.0
1040
10.0
1040
10.0
1070
     0
1002
{
1002
}
1002
}
1001
GENIUS_GENODEF_13
1002
{
1000
HIER
1070
     0
1002
}
1002
{
1000
MANEDIT
1070
     0
1002
}
1002
{
1000
NOSEL
1070
     0
1002
}
1002
{
1000
BEHIND
1070
     0
1002
}
1002
{
1000
OTHER
1070
     0
1002
}
1002
{
1000
REACTOR
1002
}
1001
GENIUS_GENOBJ-N-SDF_13
1002
{
1000
OWNER
1000
GEN
1002
}
1001
GENIUS_GENSCREG_15
1000
PF
1040
1.0
1000
DF
1040
1.0
1000
MIN
1011
0.0
1021
0.0
1031
0.0
1021
0.0
1031
0.0
1000
MAX
1011
523.0353982300885
1021
0.0
1031
0.0
1021
297.0
1031
0.0
1000
FLAGS
1070
     4
  0
ENDSEC
  0
EOF
