  0
SECTION
  2
HEADER
  9
$ACADVER
  1
AC1009
  9
$INSBASE
 10
0.0
 20
0.0
 30
0.0
  9
$EXTMIN
 10
-11.0
 20
-11.247702901517799
 30
0.0
  9
$EXTMAX
 10
75.476190476190467
 20
40.0
 30
0.0
  9
$LIMMIN
 10
0.0
 20
0.0
  9
$LIMMAX
 10
297.0
 20
210.0
  9
$ORTHOMODE
 70
     1
  9
$REGENMODE
 70
     1
  9
$FILLMODE
 70
     1
  9
$QTEXTMODE
 70
     0
  9
$MIRRTEXT
 70
     1
  9
$DRAGMODE
 70
     2
  9
$LTSCALE
 40
10.0
  9
$OSMODE
 70
  3071
  9
$ATTMODE
 70
     1
  9
$TEXTSIZE
 40
3.0
  9
$TRACEWID
 40
1.0
  9
$TEXTSTYLE
  7
YOKO
  9
$CLAYER
  8
240
  9
$CELTYPE
  6
BYLAYER
  9
$CECOLOR
 62
   256
  9
$DIMSCALE
 40
1.0
  9
$DIMASZ
 40
2.0
  9
$DIMEXO
 40
0.5
  9
$DIMDLI
 40
2.5
  9
$DIMRND
 40
0.0
  9
$DIMDLE
 40
0.0
  9
$DIMEXE
 40
1.0
  9
$DIMTP
 40
0.0
  9
$DIMTM
 40
0.0
  9
$DIMTXT
 40
2.799999999999998
  9
$DIMCEN
 40
0.0
  9
$DIMTSZ
 40
0.0
  9
$DIMTOL
 70
     0
  9
$DIMLIM
 70
     0
  9
$DIMTIH
 70
     0
  9
$DIMTOH
 70
     0
  9
$DIMSE1
 70
     0
  9
$DIMSE2
 70
     0
  9
$DIMTAD
 70
     3
  9
$DIMZIN
 70
     8
  9
$DIMBLK
  1

  9
$DIMASO
 70
     1
  9
$DIMSHO
 70
     1
  9
$DIMPOST
  1

  9
$DIMAPOST
  1

  9
$DIMALT
 70
     0
  9
$DIMALTD
 70
     2
  9
$DIMALTF
 40
25.399999999999999
  9
$DIMLFAC
 40
1.0
  9
$DIMTOFL
 70
     1
  9
$DIMTVP
 40
0.0
  9
$DIMTIX
 70
     1
  9
$DIMSOXD
 70
     0
  9
$DIMSAH
 70
     1
  9
$DIMBLK1
  1
OPEN
  9
$DIMBLK2
  1
OPEN
  9
$DIMSTYLE
  2
BIGT
  9
$DIMCLRD
 70
   256
  9
$DIMCLRE
 70
   256
  9
$DIMCLRT
 70
    40
  9
$DIMTFAC
 40
1.0
  9
$DIMGAP
 40
1.0
  9
$LUNITS
 70
     2
  9
$LUPREC
 70
     3
  9
$SKETCHINC
 40
1.0
  9
$FILLETRAD
 40
0.0
  9
$AUNITS
 70
     0
  9
$AUPREC
 70
     3
  9
$MENU
  1
.
  9
$ELEVATION
 40
0.0
  9
$PELEVATION
 40
0.0
  9
$THICKNESS
 40
0.0
  9
$LIMCHECK
 70
     0
  9
$BLIPMODE
 70
     0
  9
$CHAMFERA
 40
10.0
  9
$CHAMFERB
 40
10.0
  9
$SKPOLY
 70
     0
  9
$TDCREATE
 40
2457094.6051030792
  9
$TDUPDATE
 40
2457378.62658404
  9
$TDINDWG
 40
0.013997037
  9
$TDUSRTIMER
 40
0.0139970255
  9
$USRTIMER
 70
     1
  9
$ANGBASE
 50
0.0
  9
$ANGDIR
 70
     0
  9
$PDMODE
 70
     1
  9
$PDSIZE
 40
-5.0
  9
$PLINEWID
 40
0.0
  9
$COORDS
 70
     1
  9
$SPLFRAME
 70
     0
  9
$SPLINETYPE
 70
     6
  9
$SPLINESEGS
 70
     8
  9
$ATTDIA
 70
     1
  9
$ATTREQ
 70
     1
  9
$HANDLING
 70
     1
  9
$HANDSEED
  5
ED4
  9
$SURFTAB1
 70
     6
  9
$SURFTAB2
 70
     6
  9
$SURFTYPE
 70
     6
  9
$SURFU
 70
     6
  9
$SURFV
 70
     6
  9
$UCSNAME
  2

  9
$UCSORG
 10
0.0
 20
0.0
 30
0.0
  9
$UCSXDIR
 10
1.0
 20
0.0
 30
0.0
  9
$UCSYDIR
 10
0.0
 20
1.0
 30
0.0
  9
$PUCSNAME
  2

  9
$PUCSORG
 10
0.0
 20
0.0
 30
0.0
  9
$PUCSXDIR
 10
1.0
 20
0.0
 30
0.0
  9
$PUCSYDIR
 10
0.0
 20
1.0
 30
0.0
  9
$USERI1
 70
     1
  9
$USERI2
 70
     0
  9
$USERI3
 70
     0
  9
$USERI4
 70
     0
  9
$USERI5
 70
     0
  9
$USERR1
 40
0.0
  9
$USERR2
 40
0.0
  9
$USERR3
 40
0.0
  9
$USERR4
 40
0.0
  9
$USERR5
 40
0.0
  9
$WORLDVIEW
 70
     1
  9
$SHADEDGE
 70
     3
  9
$SHADEDIF
 70
    70
  9
$TILEMODE
 70
     1
  9
$MAXACTVP
 70
    16
  9
$PLIMCHECK
 70
     0
  9
$PEXTMIN
 10
1.0000000000000000E+020
 20
1.0000000000000000E+020
 30
1.0000000000000000E+020
  9
$PEXTMAX
 10
-1.0000000000000000E+020
 20
-1.0000000000000000E+020
 30
-1.0000000000000000E+020
  9
$PLIMMIN
 10
0.0
 20
0.0
  9
$PLIMMAX
 10
420.0
 20
297.0
  9
$UNITMODE
 70
     0
  9
$VISRETAIN
 70
     0
  9
$PLINEGEN
 70
     0
  9
$PSLTSCALE
 70
     1
  0
ENDSEC
  0
SECTION
  2
TABLES
  0
TABLE
  2
VPORT
 70
     1
  0
VPORT
  2
*ACTIVE
 70
     0
 10
0.0
 20
0.0
 11
1.0
 21
1.0
 12
39.244650530472477
 22
15.752539264718321
 13
0.0
 23
0.0
 14
7.0
 24
7.0
 15
7.0
 25
7.0
 16
0.0
 26
0.0
 36
1.0
 17
0.0
 27
0.0
 37
0.0
 40
96.217641883073043
 41
1.486725663716814
 42
50.0
 43
0.0
 44
0.0
 50
0.0
 51
0.0
 71
     0
 72
 20000
 73
     1
 74
     0
 75
     0
 76
     0
 77
     0
 78
     0
  0
ENDTAB
  0
TABLE
  2
LTYPE
 70
    14
  0
LTYPE
  2
CONTINUOUS
 70
     0
  3
Solid line
 72
    65
 73
     0
 40
0.0
  0
LTYPE
  2
CENTER2
 70
     0
  3
___ _ ___ _ ___ _ ___ _ ___ _ ___ _ ___ _ ___ _
 72
    65
 73
     4
 40
1.125
 49
0.75
 49
-0.125
 49
0.125
 49
-0.125
  0
LTYPE
  2
PHANTOM2
 70
     0
  3
___ _ _ ___ _ _ ___ _ _ ___ _ _ ___ _ _ ___ _ _
 72
    65
 73
     6
 40
1.25
 49
0.625
 49
-0.125
 49
0.125
 49
-0.125
 49
0.125
 49
-0.125
  0
LTYPE
  2
HIDDEN2
 70
     0
  3
_ _ _ _ _ _ _ _ _ _ _ _ _ _ _ _ _ _ _ _ _ _ _ _
 72
    65
 73
     2
 40
0.1875
 49
0.125
 49
-0.0625
  0
LTYPE
  2
AMCONSTR
 70
     0
  3
_______________________
 72
    65
 73
     2
 40
9999.0
 49
9999.0
 49
0.0
  0
LTYPE
  2
AM_ISO02W050
 70
     0
  3
__ __ __ __ __ __ __ __ __ __ __ __ __ __ __
 72
    65
 73
     2
 40
7.5
 49
6.0
 49
-1.5
  0
LTYPE
  2
ACJISTGB
 70
     0
  3
__ . . __ . .
 72
    65
 73
     6
 40
9.0
 49
4.0
 49
-1.0
 49
1.0
 49
-1.0
 49
1.0
 49
-1.0
  0
LTYPE
  2
ACJISTGL
 70
     0
  3
_ _ _ _ _
 72
    65
 73
     2
 40
3.0
 49
2.0
 49
-1.0
  0
LTYPE
  2
ACISOWELD
 70
     0
  3
_ _ _ _ _
 72
    65
 73
     2
 40
2.0
 49
2.0
 49
-1.0
  0
LTYPE
  2
ACISOTGB
 70
     0
  3
__ . . __ . .
 72
    65
 73
     6
 40
9.0
 49
4.0
 49
-1.0
 49
1.0
 49
-1.0
 49
1.0
 49
-1.0
  0
LTYPE
  2
ACISOTGL
 70
     0
  3
_ _ _ _ _
 72
    65
 73
     2
 40
3.0
 49
2.0
 49
-1.0
  0
ENDTAB
  0
TABLE
  2
LAYER
 70
     8
  0
LAYER
  2
0
 70
     0
 62
     7
  6
CONTINUOUS
  0
LAYER
  2
240
 70
     0
 62
     4
  6
CONTINUOUS
  0
LAYER
  2
241
 70
     0
 62
   211
  6
CONTINUOUS
  0
LAYER
  2
245
 70
     0
 62
     2
  6
CENTER2
  0
LAYER
  2
250
 70
     0
 62
     3
  6
CONTINUOUS
  0
LAYER
  2
DEFPOINTS
 70
     0
 62
     7
  6
CONTINUOUS
  0
LAYER
  2
247
 70
     0
 62
    60
  6
CONTINUOUS
  0
ENDTAB
  0
TABLE
  2
STYLE
 70
     6
  0
STYLE
  2
STANDARD
 70
     0
 40
0.0
 41
1.0
 50
0.0
 71
     0
 42
3.0
  3
romans.shx
  4
BIGFONT.SHX
  0
STYLE
  2
YOKO
 70
     0
 40
0.0
 41
1.0
 50
0.0
 71
     0
 42
3.0
  3
romans.shx
  4
extfont.shx
  0
STYLE
  2
ACJISTS
 70
     0
 40
1.0
 41
1.0
 50
0.0
 71
     0
 42
3.0
  3
amgdt.shx
  4
extfont.shx
  0
STYLE
  2
ACJISGDT
 70
     0
 40
0.0
 41
1.0
 50
0.0
 71
     0
 42
3.0
  3
amgdt.shx
  4
extfont.shx
  0
STYLE
  2
ACISOTS
 70
     0
 40
1.0
 41
1.0
 50
0.0
 71
     0
 42
3.0
  3
amgdt.shx
  4
extfont.shx
  0
STYLE
  2
ACISOGDT
 70
     0
 40
0.0
 41
1.0
 50
0.0
 71
     0
 42
3.0
  3
amgdt.shx
  4
extfont.shx
  0
ENDTAB
  0
TABLE
  2
VIEW
 70
     0
  0
ENDTAB
  0
TABLE
  2
UCS
 70
     0
  0
ENDTAB
  0
TABLE
  2
APPID
 70
    44
  0
APPID
  2
ACAD
 70
     0
  0
APPID
  2
GLOBAL
 70
     0
  0
APPID
  2
DETAIL
 70
     0
  0
APPID
  2
GRPNAME
 70
     0
  0
APPID
  2
GPARA
 70
     0
  0
APPID
  2
DCO15
 70
     0
  0
APPID
  2
ITEMNAME
 70
     0
  0
APPID
  2
GRADE_0
 70
     0
  0
APPID
  2
LAYER_SCALE
 70
     0
  0
APPID
  2
ACAD_PSEXT
 70
     0
  0
APPID
  2
ACAD_NAV_VCDISPLAY
 70
     0
  0
APPID
  2
HATCH_TYPE
 70
     0
  0
APPID
  2
HATCH_DISPLAY
 70
     0
  0
APPID
  2
HATCH_DISTANCE
 70
     0
  0
APPID
  2
ASKLEADER
 70
     0
  0
APPID
  2
ASKLEADERCHILD
 70
     0
  0
APPID
  2
MCAD_NO_VIS
 70
     0
  0
APPID
  2
ACAD_TEMP_GRAPHIC
 70
     0
  0
APPID
  2
ACATTRIBSERVICES
 70
     0
  0
APPID
  2
GENIUS_GENSCREG_15
 70
     0
  0
APPID
  2
GENIUS_GENODEF_13
 70
     0
  0
APPID
  2
GENIUS_GENOBJ-N-SDF_13
 70
     0
  0
APPID
  2
GENIUS_GENREC_14
 70
     0
  0
APPID
  2
GENIUS_GENOBJ-N-REC_13
 70
     0
  0
APPID
  2
GENIUS_GENDIMSH_14
 70
     0
  0
APPID
  2
GENIUS_GENOBJ-N-DIM_13
 70
     0
  0
APPID
  2
GENIUS_GENDIM_13
 70
     0
  0
APPID
  2
GENIUS_GENDTOL_13
 70
     0
  0
APPID
  2
GENIUS_GENOLIS_13
 70
     0
  0
APPID
  2
GENIUS_GENOENT_13
 70
     0
  0
APPID
  2
GENIUS_GENOBJ-F-FEM_13
 70
     0
  0
APPID
  2
GENIUS_GENOREF_13
 70
     0
  0
APPID
  2
GENIUS_GEFFEM_13
 70
     0
  0
APPID
  2
GENIUS_GEFFEMP_13
 70
     0
  0
APPID
  2
AD_DRAW
 70
     0
  0
APPID
  2
DESIGNERASSEMBLIES
 70
     0
  0
APPID
  2
ACADM_DIM_EDIT
 70
     0
  0
APPID
  2
AMDT_DM_ADJ
 70
     0
  0
APPID
  2
GENIUS_GENOBJ-N-FIL_13
 70
     0
  0
APPID
  2
GENIUS_GENFIL_13
 70
     0
  0
APPID
  2
GENIUS_GENOBJ-N-CHA_13
 70
     0
  0
APPID
  2
ACAD_DSTYLE_DIMINSPECT
 70
     0
  0
APPID
  2
ACAD_EXEMPT_FROM_CAD_STANDARDS
 70
     0
  0
APPID
  2
ACAD_MLEADERVER
 70
     0
  0
ENDTAB
  0
TABLE
  2
DIMSTYLE
 70
    23
  0
DIMSTYLE
  2
BIGT
 70
     0
  3

  4

  5
OPEN
  6

  7

 40
1.0
 41
2.2299999999999991
 42
0.5
 43
7.0
 44
1.0
 45
0.0
 46
0.0
 47
0.0
 48
0.01
140
2.7999999999999989
141
0.0
142
0.0
143
25.399999999999999
144
1.0
145
0.0
146
1.0
147
1.0
 71
     0
 72
     0
 73
     0
 74
     0
 75
     0
 76
     0
 77
     3
 78
     9
170
     0
171
     2
172
     1
173
     0
174
     1
175
     0
176
   256
177
   256
178
    40
  0
DIMSTYLE
  2
BIGT$0
 70
     0
  3

  4

  5
OPEN
  6

  7

 40
1.0
 41
2.2299999999999991
 42
0.5
 43
7.0
 44
1.0
 45
0.0
 46
0.0
 47
0.0
 48
0.01
140
2.7999999999999989
141
0.0
142
0.0
143
25.399999999999999
144
1.0
145
0.0
146
1.0
147
1.0
 71
     0
 72
     0
 73
     0
 74
     0
 75
     0
 76
     0
 77
     3
 78
     9
170
     0
171
     2
172
     1
173
     0
174
     1
175
     0
176
   256
177
   256
178
    40
  0
DIMSTYLE
  2
BIGT$2
 70
     0
  3

  4

  5
OPEN
  6

  7

 40
1.0
 41
2.2299999999999991
 42
0.5
 43
7.0
 44
1.0
 45
0.0
 46
0.0
 47
0.0
 48
0.01
140
2.7999999999999989
141
0.0
142
0.0
143
25.399999999999999
144
1.0
145
0.0
146
1.0
147
1.0
 71
     0
 72
     0
 73
     0
 74
     0
 75
     0
 76
     0
 77
     3
 78
     9
170
     0
171
     2
172
     1
173
     0
174
     0
175
     0
176
   256
177
   256
178
    40
  0
DIMSTYLE
  2
BIGT$3
 70
     0
  3

  4

  5
OPEN
  6

  7

 40
1.0
 41
2.2299999999999991
 42
0.5
 43
2.5
 44
1.0
 45
0.0
 46
0.0
 47
0.0
 48
0.01
140
2.7999999999999989
141
0.0
142
0.0
143
25.399999999999999
144
1.0
145
0.0
146
1.0
147
1.0
 71
     0
 72
     0
 73
     0
 74
     0
 75
     0
 76
     0
 77
     3
 78
     9
170
     0
171
     2
172
     1
173
     0
174
     0
175
     0
176
   256
177
   256
178
    40
  0
DIMSTYLE
  2
BIGT$4
 70
     0
  3

  4

  5
OPEN
  6

  7

 40
1.0
 41
2.2299999999999991
 42
0.5
 43
2.5
 44
1.0
 45
0.0
 46
0.0
 47
0.0
 48
0.01
140
2.7999999999999989
141
0.0
142
0.0
143
25.399999999999999
144
1.0
145
0.0
146
1.0
147
1.0
 71
     0
 72
     0
 73
     0
 74
     0
 75
     0
 76
     0
 77
     3
 78
     9
170
     0
171
     2
172
     1
173
     0
174
     0
175
     0
176
   256
177
   256
178
    40
  0
DIMSTYLE
  2
BIGT$6
 70
     0
  3

  4

  5
OPEN
  6

  7

 40
1.0
 41
2.2299999999999991
 42
0.5
 43
2.5
 44
1.0
 45
0.0
 46
0.0
 47
0.0
 48
0.01
140
2.7999999999999989
141
0.0
142
0.0
143
25.399999999999999
144
1.0
145
0.0
146
1.0
147
1.0
 71
     0
 72
     0
 73
     0
 74
     0
 75
     0
 76
     0
 77
     3
 78
     9
170
     0
171
     2
172
     1
173
     0
174
     0
175
     0
176
   256
177
   256
178
    40
  0
DIMSTYLE
  2
BIGT$7
 70
     0
  3

  4

  5
OPEN
  6

  7

 40
0.0
 41
2.2299999999999991
 42
0.5
 43
7.0
 44
1.0
 45
0.0
 46
0.0
 47
0.0
 48
0.01
140
2.7999999999999989
141
0.0
142
0.0
143
25.399999999999999
144
1.0
145
0.0
146
1.0
147
1.0
 71
     0
 72
     0
 73
     0
 74
     0
 75
     0
 76
     0
 77
     3
 78
     9
170
     0
171
     2
172
     0
173
     0
174
     0
175
     0
176
   256
177
   256
178
    40
  0
DIMSTYLE
  2
BIGT$SF
 70
     0
  3

  4

  5
OPEN
  6

  7

 40
1.0
 41
2.2299999999999991
 42
0.5
 43
7.0
 44
1.0
 45
0.0
 46
0.0
 47
0.0
 48
0.0
140
2.7999999999999989
141
0.0
142
0.0
143
25.399999999999999
144
1.0
145
0.0
146
1.0
147
1.0
 71
     0
 72
     0
 73
     0
 74
     0
 75
     0
 76
     0
 77
     3
 78
     9
170
     0
171
     2
172
     1
173
     0
174
     0
175
     0
176
   256
177
   256
178
    40
  0
DIMSTYLE
  2
BIGT$SH
 70
     0
  3

  4

  5
OPEN
  6

  7

 40
1.0
 41
2.2299999999999991
 42
0.5
 43
7.0
 44
1.0
 45
0.0
 46
0.0
 47
0.0
 48
0.0
140
2.7999999999999989
141
0.0
142
0.0
143
25.399999999999999
144
1.0
145
0.0
146
1.0
147
1.0
 71
     0
 72
     0
 73
     0
 74
     0
 75
     0
 76
     0
 77
     3
 78
     9
170
     0
171
     2
172
     1
173
     0
174
     0
175
     0
176
   256
177
   256
178
    40
  0
DIMSTYLE
  2
AM_ISO
 70
     0
  3

  4
"
  5

  6

  7

 40
1.0
 41
2.5
 42
1.0
 43
10.0
 44
1.0
 45
0.0
 46
0.0
 47
0.1
 48
0.1
140
3.5
141
0.0
142
0.0
143
0.0393701
144
1.0
145
0.0
146
0.71
147
1.5
 71
     0
 72
     0
 73
     0
 74
     0
 75
     0
 76
     0
 77
     1
 78
     8
170
     0
171
     2
172
     1
173
     0
174
     0
175
     0
176
   256
177
   256
178
     2
  0
DIMSTYLE
  2
AM_ISO$3
 70
     0
  3

  4
"
  5

  6

  7

 40
1.0
 41
2.5
 42
1.0
 43
10.0
 44
1.0
 45
0.0
 46
0.0
 47
0.1
 48
0.1
140
3.5
141
0.0
142
0.0
143
0.0393701
144
1.0
145
0.0
146
0.71
147
1.5
 71
     0
 72
     0
 73
     0
 74
     1
 75
     0
 76
     0
 77
     1
 78
     8
170
     0
171
     2
172
     0
173
     0
174
     0
175
     0
176
   256
177
   256
178
     2
  0
DIMSTYLE
  2
AM_ISO$4
 70
     0
  3

  4
"
  5

  6

  7

 40
1.0
 41
2.5
 42
1.0
 43
10.0
 44
1.0
 45
0.0
 46
0.0
 47
0.1
 48
0.1
140
3.5
141
0.0
142
0.0
143
0.0393701
144
1.0
145
0.0
146
0.71
147
1.5
 71
     0
 72
     0
 73
     0
 74
     1
 75
     0
 76
     0
 77
     1
 78
     8
170
     0
171
     2
172
     0
173
     0
174
     0
175
     0
176
   256
177
   256
178
     2
  0
DIMSTYLE
  2
AM_ISO$6
 70
     0
  3

  4
"
  5

  6

  7

 40
1.0
 41
2.5
 42
1.0
 43
10.0
 44
1.0
 45
0.0
 46
0.0
 47
0.1
 48
0.1
140
3.5
141
0.0
142
0.0
143
0.0393701
144
1.0
145
0.0
146
0.71
147
1.5
 71
     0
 72
     0
 73
     0
 74
     0
 75
     0
 76
     0
 77
     0
 78
     8
170
     0
171
     2
172
     1
173
     0
174
     0
175
     0
176
   256
177
   256
178
     2
  0
DIMSTYLE
  2
AM_ISO$7
 70
     0
  3

  4
"
  5

  6

  7

 40
1.0
 41
2.5
 42
1.0
 43
10.0
 44
1.0
 45
0.0
 46
0.0
 47
0.1
 48
0.1
140
5.0
141
0.0
142
0.0
143
0.0393701
144
1.0
145
0.0
146
0.71
147
1.5
 71
     0
 72
     0
 73
     0
 74
     0
 75
     0
 76
     0
 77
     1
 78
     8
170
     0
171
     2
172
     1
173
     0
174
     0
175
     0
176
   256
177
   256
178
     2
  0
DIMSTYLE
  2
AM_ISO$SF
 70
     0
  3

  4
"
  5

  6

  7

 40
1.0
 41
2.5
 42
1.0
 43
10.0
 44
1.0
 45
0.0
 46
0.0
 47
0.1
 48
0.1
140
3.5
141
0.0
142
0.0
143
0.0393701
144
1.0
145
0.0
146
0.71
147
1.5
 71
     0
 72
     0
 73
     0
 74
     0
 75
     1
 76
     1
 77
     1
 78
     8
170
     0
171
     2
172
     1
173
     0
174
     0
175
     0
176
   256
177
   256
178
     2
  0
DIMSTYLE
  2
AM_ISO$SH
 70
     0
  3

  4
"
  5

  6
GENAXEH
  7

 40
1.0
 41
2.5
 42
1.0
 43
10.0
 44
1.0
 45
0.0
 46
0.0
 47
0.1
 48
0.1
140
3.5
141
0.0
142
0.0
143
0.0393701
144
2.0
145
0.0
146
0.71
147
1.5
 71
     0
 72
     0
 73
     0
 74
     0
 75
     1
 76
     1
 77
     1
 78
     8
170
     0
171
     2
172
     1
173
     1
174
     0
175
     0
176
   256
177
   256
178
     2
  0
DIMSTYLE
  2
TECHNICAL_OSAKA
 70
     0
  3

  4
"
  5
OPEN30
  6

  7

 40
1.0
 41
2.5
 42
1.0
 43
10.0
 44
1.0
 45
0.0
 46
0.0
 47
0.1
 48
0.1
140
2.7999999999999989
141
0.0
142
0.0
143
0.0393701
144
1.0
145
0.0
146
0.71
147
1.5
 71
     0
 72
     0
 73
     0
 74
     0
 75
     0
 76
     0
 77
     3
 78
     8
170
     0
171
     2
172
     1
173
     0
174
     0
175
     0
176
   256
177
   256
178
    40
  0
DIMSTYLE
  2
TECHNICAL_OSAKA$3
 70
     0
  3

  4
"
  5
OPEN30
  6

  7

 40
1.0
 41
2.5
 42
1.0
 43
10.0
 44
1.0
 45
0.0
 46
0.0
 47
0.1
 48
0.1
140
2.7999999999999989
141
0.0
142
0.0
143
0.0393701
144
1.0
145
0.0
146
0.71
147
1.5
 71
     0
 72
     0
 73
     0
 74
     1
 75
     0
 76
     0
 77
     3
 78
     8
170
     0
171
     2
172
     0
173
     0
174
     0
175
     0
176
   256
177
   256
178
    40
  0
DIMSTYLE
  2
TECHNICAL_OSAKA$4
 70
     0
  3

  4
"
  5
OPEN30
  6

  7

 40
1.0
 41
2.5
 42
1.0
 43
10.0
 44
1.0
 45
0.0
 46
0.0
 47
0.1
 48
0.1
140
2.7999999999999989
141
0.0
142
0.0
143
0.0393701
144
1.0
145
0.0
146
0.71
147
1.5
 71
     0
 72
     0
 73
     0
 74
     1
 75
     0
 76
     0
 77
     3
 78
     8
170
     0
171
     2
172
     0
173
     0
174
     0
175
     0
176
   256
177
   256
178
    40
  0
DIMSTYLE
  2
TECHNICAL_OSAKA$6
 70
     0
  3

  4
"
  5
OPEN30
  6

  7

 40
1.0
 41
2.5
 42
1.0
 43
10.0
 44
1.0
 45
0.0
 46
0.0
 47
0.1
 48
0.1
140
2.7999999999999989
141
0.0
142
0.0
143
0.0393701
144
1.0
145
0.0
146
0.71
147
1.5
 71
     0
 72
     0
 73
     0
 74
     0
 75
     0
 76
     0
 77
     0
 78
     8
170
     0
171
     2
172
     1
173
     0
174
     0
175
     0
176
   256
177
   256
178
    40
  0
DIMSTYLE
  2
TECHNICAL_OSAKA$7
 70
     0
  3

  4
"
  5
OPEN30
  6

  7

 40
1.0
 41
2.5
 42
1.0
 43
10.0
 44
1.0
 45
0.0
 46
0.0
 47
0.1
 48
0.1
140
2.7999999999999989
141
0.0
142
0.0
143
0.0393701
144
1.0
145
0.0
146
0.71
147
1.5
 71
     0
 72
     0
 73
     0
 74
     0
 75
     0
 76
     0
 77
     3
 78
     8
170
     0
171
     2
172
     1
173
     0
174
     0
175
     0
176
   256
177
   256
178
    40
  0
DIMSTYLE
  2
TECHNICAL_OSAKA$SF
 70
     0
  3

  4
"
  5
OPEN30
  6
OPEN30
  7
OPEN30
 40
1.0
 41
2.5
 42
1.0
 43
10.0
 44
1.0
 45
0.0
 46
0.0
 47
0.1
 48
0.1
140
3.5
141
0.0
142
0.0
143
0.0393701
144
1.0
145
0.0
146
0.71
147
1.5
 71
     0
 72
     0
 73
     0
 74
     0
 75
     1
 76
     1
 77
     3
 78
     8
170
     0
171
     2
172
     1
173
     0
174
     0
175
     0
176
   256
177
   256
178
    40
  0
DIMSTYLE
  2
TECHNICAL_OSAKA$SH
 70
     0
  3

  4
"
  5
OPEN30
  6
GENAXEH
  7
OPEN30
 40
1.0
 41
2.5
 42
1.0
 43
10.0
 44
1.0
 45
0.0
 46
0.0
 47
0.1
 48
0.1
140
3.5
141
0.0
142
0.0
143
0.0393701
144
2.0
145
0.0
146
0.71
147
1.5
 71
     0
 72
     0
 73
     0
 74
     0
 75
     1
 76
     1
 77
     3
 78
     8
170
     0
171
     2
172
     1
173
     1
174
     0
175
     0
176
   256
177
   256
178
    40
  0
ENDTAB
  0
ENDSEC
  0
SECTION
  2
BLOCKS
  0
BLOCK
  8
0
  2
$MODEL_SPACE
 70
     0
 10
0.0
 20
0.0
 30
0.0
  3
$MODEL_SPACE
  1

  0
ENDBLK
  5
1C
  8
0
  0
BLOCK
 67
     1
  8
0
  2
$PAPER_SPACE
 70
     0
 10
0.0
 20
0.0
 30
0.0
  3
$PAPER_SPACE
  1

  0
ENDBLK
  5
19
 67
     1
  8
0
  0
BLOCK
  8
0
  2
_OPEN
 70
     0
 10
0.0
 20
0.0
 30
0.0
  3
_OPEN
  1

  0
LINE
  5
CE4
  8
0
  6
BYBLOCK
 62
     0
 10
-1.0
 20
0.1666666666666666
 30
0.0
 11
0.0
 21
0.0
 31
0.0
  0
LINE
  5
CE5
  8
0
  6
BYBLOCK
 62
     0
 10
-1.0
 20
-0.1666666666666666
 30
0.0
 11
0.0
 21
0.0
 31
0.0
  0
LINE
  5
CE6
  8
0
  6
BYBLOCK
 62
     0
 10
0.0
 20
0.0
 30
0.0
 11
-1.0
 21
0.0
 31
0.0
  0
ENDBLK
  5
CE7
  8
0
  0
BLOCK
  8
0
  2
矢印なし
 70
     0
 10
0.0
 20
0.0
 30
0.0
  3
矢印なし
  1

  0
ENDBLK
  5
6E5
  8
0
  0
BLOCK
  8
0
  2
GENAXEH
 70
     0
 10
0.0
 20
0.0
 30
0.0
  3
GENAXEH
  1

  0
LINE
  5
D1F
  8
0
 10
-1.0
 20
0.0
 30
0.0
 11
1.0
 21
0.0
 31
0.0
  0
ENDBLK
  5
D20
  8
0
  0
BLOCK
  8
0
  2
_OPEN30
 70
     0
 10
0.0
 20
0.0
 30
0.0
  3
_OPEN30
  1

  0
LINE
  5
D5B
  8
0
  6
BYBLOCK
 62
     0
 10
-1.0
 20
0.26794919
 30
0.0
 11
0.0
 21
0.0
 31
0.0
  0
LINE
  5
D5C
  8
0
  6
BYBLOCK
 62
     0
 10
0.0
 20
0.0
 30
0.0
 11
-1.0
 21
-0.26794919
 31
0.0
  0
LINE
  5
D5D
  8
0
  6
BYBLOCK
 62
     0
 10
0.0
 20
0.0
 30
0.0
 11
-1.0
 21
0.0
 31
0.0
  0
ENDBLK
  5
D5E
  8
0
  0
ENDSEC
  0
SECTION
  2
ENTITIES
  0
INSERT
  5
6E6
  8
245
  2
矢印なし
 10
175.62382696643769
 20
90.551235716905978
 30
0.0
  0
TEXT
  5
9C7
  8
241
  6
CONTINUOUS
 10
0.0
 20
35.0
 30
0.0
 40
5.0
  1
ST5W-CS5-45B-20
  7
YOKO
 11
0.0
 21
35.0
 31
0.0
 73
     1
  0
LINE
  5
BE1
  8
250
  6
CONTINUOUS
 10
49.449999999990332
 20
2.4500000000204789
 30
0.0
 11
64.000000000000028
 21
2.4500000000204789
 31
0.0
  0
LINE
  5
BE4
  8
250
  6
CONTINUOUS
 10
63.000000000000028
 20
2.4500000000204789
 30
0.0
 11
63.000000000000071
 21
-6.9255547737373169
 31
0.0
  0
LINE
  5
DA6
  8
245
  6
CENTER2
 10
-1.0
 20
-0.0000000000000284
 30
0.0
 11
51.000000000000121
 21
-0.0000000000000284
 31
0.0
  0
LINE
  5
DA7
  8
240
  6
CONTINUOUS
 10
28.09474411167491
 20
2.4999999999999698
 30
0.0
 11
-0.0000000000000711
 21
2.5000000000001452
 31
0.0
  0
LINE
  5
DA8
  8
240
  6
CONTINUOUS
 10
28.094744111674181
 20
-2.500000000000425
 30
0.0
 11
0.0000000000000711
 21
-2.5000000000000209
 31
0.0
  0
LINE
  5
DA9
  8
241
  6
CONTINUOUS
 10
48.749999999978897
 20
-2.4500000000248559
 30
0.0
 11
48.749999999977582
 21
2.450000000024799
 31
0.0
  0
LINE
  5
DAA
  8
241
  6
CONTINUOUS
 10
48.949999999990332
 20
-2.4499999999877371
 30
0.0
 11
48.949999999987959
 21
2.4499999999876811
 31
0.0
  0
LINE
  5
DAB
  8
240
  6
CONTINUOUS
 10
30.000000000000849
 20
1.399999999999948
 30
0.0
 11
47.699999999991221
 21
1.4000000000000621
 31
0.0
  0
LINE
  5
DAC
  8
240
  6
CONTINUOUS
 10
30.000000000001311
 20
-1.3999999999994941
 30
0.0
 11
47.699999999954052
 21
-1.4000000000000039
 31
0.0
  0
LINE
  5
DAD
  8
240
  6
CONTINUOUS
 10
48.749999999998352
 20
2.4500000000079751
 30
0.0
 11
48.949999999980143
 21
2.4500000000204789
 31
0.0
  0
LINE
  5
DAE
  8
240
  6
CONTINUOUS
 10
48.749999999987381
 20
-2.4500000000329289
 30
0.0
 11
48.950000000013738
 21
-2.4499999999643758
 31
0.0
  0
LINE
  5
DAF
  8
240
  6
CONTINUOUS
 10
48.749999999998352
 20
2.4500000000079751
 30
0.0
 11
47.699999999991221
 21
1.4000000000000621
 31
0.0
  0
LINE
  5
DB0
  8
240
  6
CONTINUOUS
 10
49.999999999999829
 20
-1.3999999999784609
 30
0.0
 11
48.950000000013738
 21
-2.4499999999643758
 31
0.0
  0
LINE
  5
DB1
  8
240
  6
CONTINUOUS
 10
50.000000000001307
 20
1.400000000000176
 30
0.0
 11
48.949999999980143
 21
2.4500000000204789
 31
0.0
  0
LINE
  5
DB2
  8
240
  6
CONTINUOUS
 10
48.749999999987381
 20
-2.4500000000329289
 30
0.0
 11
47.699999999954052
 21
-1.4000000000000039
 31
0.0
  0
LINE
  5
DB3
  8
240
  6
CONTINUOUS
 10
49.999999999999829
 20
-1.3999999999784609
 30
0.0
 11
50.000000000000391
 21
1.3999999999784041
 31
0.0
  0
LINE
  5
DB4
  8
241
  6
CONTINUOUS
 10
47.699999999991121
 20
-1.399999999999948
 30
0.0
 11
47.699999999989458
 21
1.39999999999989
 31
0.0
  0
LINE
  5
DB5
  8
241
  6
CONTINUOUS
 10
30.00000000000108
 20
-1.39999999999955
 30
0.0
 11
30.0
 21
1.3999999999994941
 31
0.0
  0
LINE
  5
DB6
  8
240
  6
CONTINUOUS
 10
30.000000000001311
 20
-1.3999999999994941
 30
0.0
 11
28.094744111674181
 21
-2.500000000000425
 31
0.0
  0
LINE
  5
DB7
  8
240
  6
CONTINUOUS
 10
30.000000000000849
 20
1.399999999999948
 30
0.0
 11
28.09474411167491
 21
2.4999999999999698
 31
0.0
  0
LINE
  5
DB8
  8
241
  6
CONTINUOUS
 10
28.09474411167491
 20
-2.500000000000369
 30
0.0
 11
28.09474411167562
 21
2.5000000000003122
 31
0.0
  0
LINE
  5
DC3
  8
240
  6
CONTINUOUS
 10
-0.000000000000071
 20
2.5000000000001452
 30
0.0
 11
0.0000000000000711
 21
-2.5000000000000209
 31
0.0
  0
TEXT
  5
DC5
  8
250
  6
CONTINUOUS
 10
62.0
 20
-8.0781698340968209
 30
0.0
 40
3.0
  1
\U+22054.9
 50
90.0
1001
ACAD
1000
MTEXTBEGIN
1070
    73
1070
     1
1070
    44
1040
1.0
1070
    74
1070
     0
1000
MTEXTEND
  0
LINE
  5
DC6
  8
250
  6
CONTINUOUS
 10
62.666666666666693
 20
0.4500000000204798
 30
0.0
 11
63.000000000000028
 21
2.4500000000204789
 31
0.0
  0
LINE
  5
DC7
  8
250
  6
CONTINUOUS
 10
63.333333333333357
 20
0.4500000000204798
 30
0.0
 11
63.000000000000028
 21
2.4500000000204789
 31
0.0
  0
LINE
  5
DC8
  8
250
  6
CONTINUOUS
 10
63.000000000000028
 20
2.4500000000204789
 30
0.0
 11
63.000000000000028
 21
0.4500000000204798
 31
0.0
  0
LINE
  5
DC9
  8
250
  6
CONTINUOUS
 10
-0.0000000000000568
 20
3.0000000000001452
 30
0.0
 11
-0.0000000000000556
 21
22.0
 31
0.0
  0
LINE
  5
DCA
  8
250
  6
CONTINUOUS
 10
49.999999999999829
 20
1.899999999978405
 30
0.0
 11
49.999999999999829
 21
22.0
 31
0.0
  0
LINE
  5
DCB
  8
250
  6
CONTINUOUS
 10
1.999999999999944
 20
21.0
 30
0.0
 11
47.999999999999822
 21
21.0
 31
0.0
  0
LINE
  5
DCF
  8
250
  6
CONTINUOUS
 10
30.000000000000849
 20
1.899999999999948
 30
0.0
 11
30.000000000000849
 21
15.0
 31
0.0
  0
LINE
  5
DD0
  8
250
  6
CONTINUOUS
 10
50.000000000001307
 20
1.900000000000176
 30
0.0
 11
50.000000000001307
 21
15.0
 31
0.0
  0
LINE
  5
DD1
  8
250
  6
CONTINUOUS
 10
32.000000000000853
 20
14.0
 30
0.0
 11
48.000000000001322
 21
14.0
 31
0.0
  0
TEXT
  5
DDD
  8
250
  6
CONTINUOUS
 10
22.142857142857039
 20
22.0
 30
0.0
 40
3.0
  1
50
1001
ACAD
1000
MTEXTBEGIN
1070
    73
1070
     1
1070
    44
1040
1.0
1070
    74
1070
     0
1000
MTEXTEND
  0
LINE
  5
DDE
  8
250
  6
CONTINUOUS
 10
47.999999999999822
 20
21.333333333333329
 30
0.0
 11
49.999999999999829
 21
21.0
 31
0.0
  0
LINE
  5
DDF
  8
250
  6
CONTINUOUS
 10
47.999999999999822
 20
20.666666666666671
 30
0.0
 11
49.999999999999829
 21
21.0
 31
0.0
  0
LINE
  5
DE0
  8
250
  6
CONTINUOUS
 10
49.999999999999829
 20
21.0
 30
0.0
 11
47.999999999999822
 21
21.0
 31
0.0
  0
LINE
  5
DE1
  8
250
  6
CONTINUOUS
 10
1.999999999999944
 20
20.666666666666671
 30
0.0
 11
-0.0000000000000557
 21
21.0
 31
0.0
  0
LINE
  5
DE2
  8
250
  6
CONTINUOUS
 10
1.999999999999944
 20
21.333333333333329
 30
0.0
 11
-0.0000000000000557
 21
21.0
 31
0.0
  0
LINE
  5
DE3
  8
250
  6
CONTINUOUS
 10
-0.0000000000000557
 20
21.0
 30
0.0
 11
1.999999999999944
 21
21.0
 31
0.0
  0
TEXT
  5
DE4
  8
250
  6
CONTINUOUS
 10
37.142857142858219
 20
15.0
 30
0.0
 40
3.0
  1
20
1001
ACAD
1000
MTEXTBEGIN
1070
    73
1070
     1
1070
    44
1040
1.0
1070
    74
1070
     0
1000
MTEXTEND
  0
LINE
  5
DE5
  8
250
  6
CONTINUOUS
 10
48.000000000001322
 20
14.33333333333333
 30
0.0
 11
50.000000000001307
 21
14.0
 31
0.0
  0
LINE
  5
DE6
  8
250
  6
CONTINUOUS
 10
48.000000000001322
 20
13.666666666666661
 30
0.0
 11
50.000000000001307
 21
14.0
 31
0.0
  0
LINE
  5
DE7
  8
250
  6
CONTINUOUS
 10
50.000000000001307
 20
14.0
 30
0.0
 11
48.000000000001322
 21
14.0
 31
0.0
  0
LINE
  5
DE8
  8
250
  6
CONTINUOUS
 10
32.000000000000853
 20
13.666666666666661
 30
0.0
 11
30.000000000000849
 21
14.0
 31
0.0
  0
LINE
  5
DE9
  8
250
  6
CONTINUOUS
 10
32.000000000000853
 20
14.33333333333333
 30
0.0
 11
30.000000000000849
 21
14.0
 31
0.0
  0
LINE
  5
DEA
  8
250
  6
CONTINUOUS
 10
30.000000000000849
 20
14.0
 30
0.0
 11
32.000000000000853
 21
14.0
 31
0.0
  0
LINE
  5
E35
  8
250
  6
CONTINUOUS
 10
-2.5690820772160232
 20
-11.247702901517799
 30
0.0
 11
12.897584589450609
 21
-11.247702901517799
 31
0.0
  0
LINE
  5
E36
  8
250
  6
CONTINUOUS
 10
12.897584589450609
 20
-11.247702901517799
 30
0.0
 11
17.908711328417041
 21
-4.3079298634235608
 31
0.0
  0
LINE
  5
E37
  8
250
  6
CONTINUOUS
 10
17.908711328417041
 20
-4.3079298634235608
 30
0.0
 11
19.21419576300104
 21
-2.4999999999999378
 31
0.0
  0
LINE
  5
E38
  8
250
  6
CONTINUOUS
 10
18.146729809337611
 20
-4.4798001490311723
 30
0.0
 11
19.21419576300104
 21
-2.4999999999999378
 31
0.0
  0
LINE
  5
E39
  8
250
  6
CONTINUOUS
 10
19.21419576300104
 20
-2.4999999999999378
 30
0.0
 11
17.670692847496468
 21
-4.136059577815951
 31
0.0
  0
TEXT
  5
E3A
  8
250
  6
CONTINUOUS
 10
-1.4852707457040131
 20
-9.8477029015178292
 30
0.0
 40
2.7999999999999989
  1
ST5W
  7
ACJISTS
  0
LINE
  5
E3B
  8
247
  6
CONTINUOUS
 10
4.25
 20
-1.499999999999938
 30
0.0
 11
8.8846153843300044
 21
-1.499999999999938
 31
0.0
  0
LINE
  5
E3C
  8
247
  6
CONTINUOUS
 10
5.0451065000120252
 20
1.0000000000000611
 30
0.0
 11
4.4429411899426441
 21
-1.099999999915946
 31
0.0
  0
LINE
  5
E3D
  8
247
  6
CONTINUOUS
 10
5.6748485964809561
 20
0.0038461538861774
 30
0.0
 11
4.7594639811329671
 21
0.0038461538861774
 31
0.0
  0
ARC
  5
E3E
  8
247
  6
CONTINUOUS
 10
5.9127365980531863
 20
0.6152809327059621
 30
0.0
 40
0.3876715809326743
 50
342.99788967529531
 51
82.924166218513619
  0
ARC
  5
E3F
  8
247
  6
CONTINUOUS
 10
5.6175224431958659
 20
0.6947768689720469
 30
0.0
 40
0.6933047965358766
 50
274.74293685219902
 51
343.84922627326682
1001
GENIUS_GENOBJ-N-FIL_13
1002
{
1000
OWNER
1000
GEN
1002
}
1001
GENIUS_GENODEF_13
1002
{
1000
HIER
1070
     0
1002
}
1002
{
1000
MANEDIT
1070
     0
1002
}
1002
{
1000
NOSEL
1070
     0
1002
}
1002
{
1000
BEHIND
1070
     0
1002
}
1002
{
1000
OTHER
1070
     0
1002
}
1002
{
1000
REACTOR
1002
}
  0
LINE
  5
E40
  8
247
  6
CONTINUOUS
 10
5.3583258052906331
 20
-1.099999999915946
 30
0.0
 11
4.4429411899426441
 21
-1.099999999915946
 31
0.0
  0
LINE
  5
E41
  8
247
  6
CONTINUOUS
 10
5.0451065000120252
 20
1.0000000000000611
 30
0.0
 11
5.960491115360071
 21
1.0000000000000611
 31
0.0
  0
ARC
  5
E42
  8
247
  6
CONTINUOUS
 10
5.6216935237331418
 20
-0.3874169627678676
 30
0.0
 40
0.394857301075386
 50
335.9909416525216
 51
82.263443459069109
  0
ARC
  5
E43
  8
247
  6
CONTINUOUS
 10
5.287553389573076
 20
-0.3912003273325646
 30
0.0
 40
0.7123241612361686
 50
275.70198516425643
 51
347.27733843682199
1001
GENIUS_GENOBJ-N-FIL_13
1002
{
1000
OWNER
1000
GEN
1002
}
1001
GENIUS_GENODEF_13
1002
{
1000
HIER
1070
     0
1002
}
1002
{
1000
MANEDIT
1070
     0
1002
}
1002
{
1000
NOSEL
1070
     0
1002
}
1002
{
1000
BEHIND
1070
     0
1002
}
1002
{
1000
OTHER
1070
     0
1002
}
1002
{
1000
REACTOR
1002
}
  0
LINE
  5
E44
  8
247
  6
CONTINUOUS
 10
6.3160181129366029
 20
-1.099999999915946
 30
0.0
 11
6.9181834230060408
 21
1.0000000000000611
 31
0.0
  0
LINE
  5
E45
  8
247
  6
CONTINUOUS
 10
8.4143372690920142
 20
1.0000000000000611
 30
0.0
 11
8.0183216356964522
 21
1.0000000000000611
 31
0.0
  0
LINE
  5
E46
  8
247
  6
CONTINUOUS
 10
7.391260346056014
 20
-1.099999999915946
 30
0.0
 11
7.8220295768080632
 21
-1.099999999915946
 31
0.0
  0
ARC
  5
E47
  8
247
  6
CONTINUOUS
 10
8.6181834229300307
 20
-0.4582995950833558
 30
0.0
 40
1.5768550576395479
 50
112.3594881415292
 51
164.99324854284649
  0
ARC
  5
E48
  8
247
  6
CONTINUOUS
 10
8.152488633866767
 20
0.4341811414620387
 30
0.0
 40
0.6234706797009447
 50
4.9945893190753123
 51
65.166328957308281
1001
GENIUS_GENOBJ-N-FIL_13
1002
{
1000
OWNER
1000
GEN
1002
}
1001
GENIUS_GENODEF_13
1002
{
1000
HIER
1070
     0
1002
}
1002
{
1000
MANEDIT
1070
     0
1002
}
1002
{
1000
NOSEL
1070
     0
1002
}
1002
{
1000
BEHIND
1070
     0
1002
}
1002
{
1000
OTHER
1070
     0
1002
}
1002
{
1000
REACTOR
1002
}
  0
ARC
  5
E49
  8
247
  6
CONTINUOUS
 10
7.5558160489672437
 20
-0.1621021219693213
 30
0.0
 40
0.9749472149106983
 50
285.8460965557839
 51
352.3251370041624
  0
ARC
  5
E4A
  8
247
  6
CONTINUOUS
 10
7.964788361227761
 20
-0.371470401970948
 30
0.0
 40
0.9271945638692009
 50
159.71360167048971
 51
231.7887456564151
1001
GENIUS_GENOBJ-N-FIL_13
1002
{
1000
OWNER
1000
GEN
1002
}
1001
GENIUS_GENODEF_13
1002
{
1000
HIER
1070
     0
1002
}
1002
{
1000
MANEDIT
1070
     0
1002
}
1002
{
1000
NOSEL
1070
     0
1002
}
1002
{
1000
BEHIND
1070
     0
1002
}
1002
{
1000
OTHER
1070
     0
1002
}
1002
{
1000
REACTOR
1002
}
  0
LINE
  5
E4B
  8
247
  6
CONTINUOUS
 10
8.0374141921840305
 20
-0.2923076922558558
 30
0.0
 11
8.522029576780028
 21
-0.2923076922558558
 31
0.0
  0
ARC
  5
E4C
  8
247
  6
CONTINUOUS
 10
4.25
 20
-0.2499999999999383
 30
0.0
 40
1.25
 50
90.0
 51
270.0
  0
LINE
  5
E4D
  8
247
  6
CONTINUOUS
 10
4.25
 20
1.0000000000000611
 30
0.0
 11
4.6961538460860188
 21
1.0000000000000611
 31
0.0
  0
ARC
  5
E4E
  8
247
  6
CONTINUOUS
 10
8.8846153843300044
 20
-0.2499999999999383
 30
0.0
 40
1.25
 50
270.0
 51
90.0
  0
VIEWPORT
  5
22
 67
     1
  8
0
 10
261.51769911504419
 20
148.5
 30
0.0
 40
523.0353982300885
 41
297.0
 68
     1
 69
     1
1001
ACAD
1000
MVIEW
1002
{
1070
    16
1010
0.0
1020
0.0
1030
0.0
1010
0.0
1020
0.0
1030
1.0
1040
0.0
1040
297.0
1040
261.51769911504419
1040
148.5
1040
50.0
1040
0.0
1040
0.0
1070
     0
1070
   100
1070
     1
1070
     1
1070
     0
1070
     0
1070
     0
1070
     0
1040
0.0
1040
0.0
1040
0.0
1040
1.0
1040
1.0
1040
10.0
1040
10.0
1070
     0
1002
{
1002
}
1002
}
1001
GENIUS_GENOBJ-N-SDF_13
1002
{
1000
OWNER
1000
GEN
1002
}
1001
GENIUS_GENODEF_13
1002
{
1000
HIER
1070
     0
1002
}
1002
{
1000
MANEDIT
1070
     0
1002
}
1002
{
1000
NOSEL
1070
     0
1002
}
1002
{
1000
BEHIND
1070
     0
1002
}
1002
{
1000
OTHER
1070
     0
1002
}
1002
{
1000
REACTOR
1002
}
1001
GENIUS_GENSCREG_15
1000
PF
1040
1.0
1000
DF
1040
1.0
1000
MIN
1011
0.0
1021
0.0
1031
0.0
1021
0.0
1031
0.0
1000
MAX
1011
523.0353982300885
1021
0.0
1031
0.0
1021
297.0
1031
0.0
1000
FLAGS
1070
     4
  0
ENDSEC
  0
EOF
