  0
SECTION
  2
HEADER
  9
$ACADVER
  1
AC1009
  9
$INSBASE
 10
0.0
 20
0.0
 30
0.0
  9
$EXTMIN
 10
-1.022521243922369
 20
-11.254454330451489
 30
-0.0015258207003583
  9
$EXTMAX
 10
75.488708955339234
 20
40.009680734105871
 30
0.0000000349246037
  9
$LIMMIN
 10
0.0
 20
0.0
  9
$LIMMAX
 10
297.0
 20
210.0
  9
$ORTHOMODE
 70
     1
  9
$REGENMODE
 70
     1
  9
$FILLMODE
 70
     1
  9
$QTEXTMODE
 70
     0
  9
$MIRRTEXT
 70
     1
  9
$DRAGMODE
 70
     2
  9
$LTSCALE
 40
10.0
  9
$OSMODE
 70
  3071
  9
$ATTMODE
 70
     1
  9
$TEXTSIZE
 40
3.0
  9
$TRACEWID
 40
1.0
  9
$TEXTSTYLE
  7
YOKO
  9
$CLAYER
  8
240
  9
$CELTYPE
  6
BYLAYER
  9
$CECOLOR
 62
   256
  9
$DIMSCALE
 40
1.0
  9
$DIMASZ
 40
2.0
  9
$DIMEXO
 40
0.5
  9
$DIMDLI
 40
2.5
  9
$DIMRND
 40
0.0
  9
$DIMDLE
 40
0.0
  9
$DIMEXE
 40
1.0
  9
$DIMTP
 40
0.0
  9
$DIMTM
 40
0.0
  9
$DIMTXT
 40
2.799999999999998
  9
$DIMCEN
 40
0.0
  9
$DIMTSZ
 40
0.0
  9
$DIMTOL
 70
     0
  9
$DIMLIM
 70
     0
  9
$DIMTIH
 70
     0
  9
$DIMTOH
 70
     0
  9
$DIMSE1
 70
     0
  9
$DIMSE2
 70
     0
  9
$DIMTAD
 70
     3
  9
$DIMZIN
 70
     8
  9
$DIMBLK
  1

  9
$DIMASO
 70
     1
  9
$DIMSHO
 70
     1
  9
$DIMPOST
  1

  9
$DIMAPOST
  1

  9
$DIMALT
 70
     0
  9
$DIMALTD
 70
     2
  9
$DIMALTF
 40
25.399999999999999
  9
$DIMLFAC
 40
1.0
  9
$DIMTOFL
 70
     1
  9
$DIMTVP
 40
0.0
  9
$DIMTIX
 70
     1
  9
$DIMSOXD
 70
     0
  9
$DIMSAH
 70
     1
  9
$DIMBLK1
  1
OPEN
  9
$DIMBLK2
  1
OPEN
  9
$DIMSTYLE
  2
BIGT
  9
$DIMCLRD
 70
   256
  9
$DIMCLRE
 70
   256
  9
$DIMCLRT
 70
    40
  9
$DIMTFAC
 40
1.0
  9
$DIMGAP
 40
1.0
  9
$LUNITS
 70
     2
  9
$LUPREC
 70
     3
  9
$SKETCHINC
 40
1.0
  9
$FILLETRAD
 40
0.0
  9
$AUNITS
 70
     0
  9
$AUPREC
 70
     3
  9
$MENU
  1
.
  9
$ELEVATION
 40
0.0
  9
$PELEVATION
 40
0.0
  9
$THICKNESS
 40
0.0
  9
$LIMCHECK
 70
     0
  9
$BLIPMODE
 70
     0
  9
$CHAMFERA
 40
10.0
  9
$CHAMFERB
 40
10.0
  9
$SKPOLY
 70
     0
  9
$TDCREATE
 40
2457094.6022061231
  9
$TDUPDATE
 40
2457378.6251812959
  9
$TDINDWG
 40
0.005691956
  9
$TDUSRTIMER
 40
0.0056917477
  9
$USRTIMER
 70
     1
  9
$ANGBASE
 50
0.0
  9
$ANGDIR
 70
     0
  9
$PDMODE
 70
     1
  9
$PDSIZE
 40
-5.0
  9
$PLINEWID
 40
0.0
  9
$COORDS
 70
     1
  9
$SPLFRAME
 70
     0
  9
$SPLINETYPE
 70
     6
  9
$SPLINESEGS
 70
     8
  9
$ATTDIA
 70
     1
  9
$ATTREQ
 70
     1
  9
$HANDLING
 70
     1
  9
$HANDSEED
  5
1080
  9
$SURFTAB1
 70
     6
  9
$SURFTAB2
 70
     6
  9
$SURFTYPE
 70
     6
  9
$SURFU
 70
     6
  9
$SURFV
 70
     6
  9
$UCSNAME
  2

  9
$UCSORG
 10
0.0
 20
0.0
 30
0.0
  9
$UCSXDIR
 10
1.0
 20
0.0
 30
0.0
  9
$UCSYDIR
 10
0.0
 20
1.0
 30
0.0
  9
$PUCSNAME
  2

  9
$PUCSORG
 10
0.0
 20
0.0
 30
0.0
  9
$PUCSXDIR
 10
1.0
 20
0.0
 30
0.0
  9
$PUCSYDIR
 10
0.0
 20
1.0
 30
0.0
  9
$USERI1
 70
     1
  9
$USERI2
 70
     0
  9
$USERI3
 70
     0
  9
$USERI4
 70
     0
  9
$USERI5
 70
     0
  9
$USERR1
 40
0.0
  9
$USERR2
 40
0.0
  9
$USERR3
 40
0.0
  9
$USERR4
 40
0.0
  9
$USERR5
 40
0.0
  9
$WORLDVIEW
 70
     1
  9
$SHADEDGE
 70
     3
  9
$SHADEDIF
 70
    70
  9
$TILEMODE
 70
     1
  9
$MAXACTVP
 70
    16
  9
$PLIMCHECK
 70
     0
  9
$PEXTMIN
 10
1.0000000000000000E+020
 20
1.0000000000000000E+020
 30
1.0000000000000000E+020
  9
$PEXTMAX
 10
-1.0000000000000000E+020
 20
-1.0000000000000000E+020
 30
-1.0000000000000000E+020
  9
$PLIMMIN
 10
0.0
 20
0.0
  9
$PLIMMAX
 10
420.0
 20
297.0
  9
$UNITMODE
 70
     0
  9
$VISRETAIN
 70
     0
  9
$PLINEGEN
 70
     0
  9
$PSLTSCALE
 70
     1
  0
ENDSEC
  0
SECTION
  2
TABLES
  0
TABLE
  2
VPORT
 70
     1
  0
VPORT
  2
*ACTIVE
 70
     0
 10
0.0
 20
0.0
 11
1.0
 21
1.0
 12
37.233093855708432
 22
14.37761320182719
 13
0.0
 23
0.0
 14
7.0
 24
7.0
 15
7.0
 25
7.0
 16
0.0
 26
0.0
 36
1.0
 17
0.0
 27
0.0
 37
0.0
 40
51.692402064208672
 41
1.486725663716814
 42
50.0
 43
0.0
 44
0.0
 50
0.0
 51
0.0
 71
     0
 72
 20000
 73
     1
 74
     0
 75
     0
 76
     1
 77
     0
 78
     0
  0
ENDTAB
  0
TABLE
  2
LTYPE
 70
    23
  0
LTYPE
  2
CONTINUOUS
 70
     0
  3
Solid line
 72
    65
 73
     0
 40
0.0
  0
LTYPE
  2
CENTER2
 70
     0
  3
___ _ ___ _ ___ _ ___ _ ___ _ ___ _ ___ _ ___ _
 72
    65
 73
     4
 40
1.125
 49
0.75
 49
-0.125
 49
0.125
 49
-0.125
  0
LTYPE
  2
PHANTOM2
 70
     0
  3
___ _ _ ___ _ _ ___ _ _ ___ _ _ ___ _ _ ___ _ _
 72
    65
 73
     6
 40
1.25
 49
0.625
 49
-0.125
 49
0.125
 49
-0.125
 49
0.125
 49
-0.125
  0
LTYPE
  2
HIDDEN2
 70
     0
  3
_ _ _ _ _ _ _ _ _ _ _ _ _ _ _ _ _ _ _ _ _ _ _ _
 72
    65
 73
     2
 40
0.1875
 49
0.125
 49
-0.0625
  0
LTYPE
  2
AMCONSTR
 70
     0
  3
_______________________
 72
    65
 73
     2
 40
9999.0
 49
9999.0
 49
0.0
  0
LTYPE
  2
HIDDEN
 70
     0
  3
Hidden __ __ __ __ __ __ __ __ __ __ __ __ __ _
 72
    65
 73
     2
 40
0.375
 49
0.25
 49
-0.125
  0
LTYPE
  2
CENTER
 70
     0
  3
Center ____ _ ____ _ ____ _ ____ _ ____ _ ____
 72
    65
 73
     4
 40
2.0
 49
1.25
 49
-0.25
 49
0.25
 49
-0.25
  0
LTYPE
  2
AMZIGZAG2
 70
     0
  3
/\/-/\/-/\/-/\/-/\/-/\/
 72
    65
 73
     2
 40
0.4401
 49
0.0001
 49
-0.4400000000000001
  0
LTYPE
  2
ACANSTGB
 70
     0
  3
__ . . __ . .
 72
    65
 73
     6
 40
0.35433070866
 49
0.15748031496
 49
-0.03937007874
 49
0.03937007874
 49
-0.03937007874
 49
0.03937007874
 49
-0.03937007874
  0
LTYPE
  2
ACANSTGL
 70
     0
  3
_ _ _ _ _
 72
    65
 73
     2
 40
0.11811023622
 49
0.07874015748
 49
-0.03937007874
  0
ENDTAB
  0
TABLE
  2
LAYER
 70
     7
  0
LAYER
  2
0
 70
     0
 62
     7
  6
CONTINUOUS
  0
LAYER
  2
240
 70
     0
 62
     4
  6
CONTINUOUS
  0
LAYER
  2
241
 70
     0
 62
   211
  6
CONTINUOUS
  0
LAYER
  2
245
 70
     0
 62
     2
  6
CENTER2
  0
LAYER
  2
250
 70
     0
 62
     3
  6
CONTINUOUS
  0
LAYER
  2
DEFPOINTS
 70
     0
 62
     7
  6
CONTINUOUS
  0
LAYER
  2
247
 70
     0
 62
    60
  6
CONTINUOUS
  0
ENDTAB
  0
TABLE
  2
STYLE
 70
    10
  0
STYLE
  2
STANDARD
 70
     0
 40
0.0
 41
1.0
 50
0.0
 71
     0
 42
3.0
  3
romans.shx
  4
BIGFONT.SHX
  0
STYLE
  2
YOKO
 70
     0
 40
0.0
 41
1.0
 50
0.0
 71
     0
 42
3.0
  3
romans.shx
  4
extfont.shx
  0
STYLE
  2
ACJISTS
 70
     0
 40
1.0
 41
1.0
 50
0.0
 71
     0
 42
3.0
  3
amgdt.shx
  4
extfont.shx
  0
STYLE
  2

 70
     1
 40
0.0
 41
1.0
 50
0.0
 71
     0
 42
3.0
  3
genltshp.shx
  4

  0
STYLE
  2
ACANSGDT
 70
     0
 40
0.0
 41
1.0
 50
0.0
 71
     0
 42
3.0
  3
amgdt.shx
  4

  0
ENDTAB
  0
TABLE
  2
VIEW
 70
     0
  0
ENDTAB
  0
TABLE
  2
UCS
 70
     0
  0
ENDTAB
  0
TABLE
  2
APPID
 70
    47
  0
APPID
  2
ACAD
 70
     0
  0
APPID
  2
ACADANNOTATIVE
 70
     0
  0
APPID
  2
GLOBAL
 70
     0
  0
APPID
  2
DETAIL
 70
     0
  0
APPID
  2
GRPNAME
 70
     0
  0
APPID
  2
GPARA
 70
     0
  0
APPID
  2
DCO15
 70
     0
  0
APPID
  2
ITEMNAME
 70
     0
  0
APPID
  2
GRADE_0
 70
     0
  0
APPID
  2
LAYER_SCALE
 70
     0
  0
APPID
  2
ACAD_PSEXT
 70
     0
  0
APPID
  2
ACAD_NAV_VCDISPLAY
 70
     0
  0
APPID
  2
HATCH_TYPE
 70
     0
  0
APPID
  2
HATCH_DISPLAY
 70
     0
  0
APPID
  2
HATCH_DISTANCE
 70
     0
  0
APPID
  2
ASKLEADER
 70
     0
  0
APPID
  2
ASKLEADERCHILD
 70
     0
  0
APPID
  2
MCAD_NO_VIS
 70
     0
  0
APPID
  2
ACAD_TEMP_GRAPHIC
 70
     0
  0
APPID
  2
ACATTRIBSERVICES
 70
     0
  0
APPID
  2
GENIUS_GENSCREG_15
 70
     0
  0
APPID
  2
GENIUS_GENODEF_13
 70
     0
  0
APPID
  2
GENIUS_GENOBJ-N-SDF_13
 70
     0
  0
APPID
  2
GENIUS_GENREC_14
 70
     0
  0
APPID
  2
GENIUS_GENOBJ-N-REC_13
 70
     0
  0
APPID
  2
GENIUS_GENDIMSH_14
 70
     0
  0
APPID
  2
GENIUS_GENOBJ-N-DIM_13
 70
     0
  0
APPID
  2
GENIUS_GENDIM_13
 70
     0
  0
APPID
  2
GENIUS_GENDTOL_13
 70
     0
  0
APPID
  2
GENIUS_GENOLIS_13
 70
     0
  0
APPID
  2
GENIUS_GENOENT_13
 70
     0
  0
APPID
  2
GENIUS_GENOBJ-F-FEM_13
 70
     0
  0
APPID
  2
GENIUS_GENOREF_13
 70
     0
  0
APPID
  2
GENIUS_GEFFEM_13
 70
     0
  0
APPID
  2
GENIUS_GEFFEMP_13
 70
     0
  0
APPID
  2
AD_DRAW
 70
     0
  0
APPID
  2
DESIGNERASSEMBLIES
 70
     0
  0
APPID
  2
ACADM_DIM_EDIT
 70
     0
  0
APPID
  2
AMDT_DM_ADJ
 70
     0
  0
APPID
  2
GENIUS_GENOBJ-N-FIL_13
 70
     0
  0
APPID
  2
GENIUS_GENFIL_13
 70
     0
  0
APPID
  2
GENIUS_GENOBJ-N-CHA_13
 70
     0
  0
APPID
  2
ACAD_DSTYLE_DIMINSPECT
 70
     0
  0
APPID
  2
ACAD_MLEADERVER
 70
     0
  0
APPID
  2
ACAD_DSTYLE_DIMJAG
 70
     0
  0
APPID
  2
ACAD_DSTYLE_DIMBREAK
 70
     0
  0
APPID
  2
ACAD_EXEMPT_FROM_CAD_STANDARDS
 70
     0
  0
ENDTAB
  0
TABLE
  2
DIMSTYLE
 70
    32
  0
DIMSTYLE
  2
STANDARD
 70
     0
  3

  4

  5

  6

  7

 40
1.0
 41
0.18
 42
0.0625
 43
0.38
 44
0.18
 45
0.0
 46
0.0
 47
0.0
 48
0.0
140
0.18
141
0.09
142
0.0
143
25.399999999999999
144
1.0
145
0.0
146
1.0
147
0.09
 71
     0
 72
     0
 73
     1
 74
     1
 75
     0
 76
     0
 77
     0
 78
     0
170
     0
171
     2
172
     0
173
     0
174
     0
175
     0
176
     0
177
     0
178
     0
  0
DIMSTYLE
  2
BIGT
 70
     0
  3

  4

  5

  6

  7

 40
1.0
 41
2.2299999999999991
 42
0.5
 43
7.0
 44
1.0
 45
0.0
 46
0.0
 47
0.0
 48
0.01
140
2.799999999999998
141
0.0
142
0.0
143
25.399999999999999
144
1.0
145
0.0
146
1.0
147
1.0
 71
     0
 72
     0
 73
     0
 74
     0
 75
     0
 76
     0
 77
     3
 78
     9
170
     0
171
     2
172
     1
173
     0
174
     1
175
     0
176
   256
177
   256
178
    40
  0
DIMSTYLE
  2
AM_ANSI
 70
     0
  3

  4
mm
  5

  6

  7

 40
1.0
 41
0.12
 42
0.05
 43
0.5
 44
0.1
 45
0.0
 46
0.0
 47
0.1
 48
0.1
140
0.12
141
0.0
142
0.0
143
25.399999999999999
144
1.0
145
0.0
146
0.71
147
0.06
 71
     0
 72
     0
 73
     1
 74
     1
 75
     0
 76
     0
 77
     0
 78
     7
170
     0
171
     2
172
     0
173
     0
174
     0
175
     0
176
   256
177
   256
178
     2
  0
DIMSTYLE
  2
AM_ANSI$3
 70
     0
  3

  4
mm
  5

  6

  7

 40
1.0
 41
0.12
 42
0.05
 43
0.5
 44
0.1
 45
0.0
 46
0.0
 47
0.1
 48
0.1
140
0.12
141
0.0
142
0.0
143
25.399999999999999
144
1.0
145
0.0
146
0.71
147
0.06
 71
     0
 72
     0
 73
     1
 74
     1
 75
     0
 76
     0
 77
     0
 78
     7
170
     0
171
     2
172
     0
173
     0
174
     0
175
     0
176
   256
177
   256
178
     2
  0
DIMSTYLE
  2
AM_ANSI$4
 70
     0
  3

  4
mm
  5

  6

  7

 40
1.0
 41
0.12
 42
0.05
 43
0.5
 44
0.1
 45
0.0
 46
0.0
 47
0.1
 48
0.1
140
0.12
141
0.0
142
0.0
143
25.399999999999999
144
1.0
145
0.0
146
0.71
147
0.06
 71
     0
 72
     0
 73
     1
 74
     1
 75
     0
 76
     0
 77
     0
 78
     7
170
     0
171
     2
172
     0
173
     0
174
     0
175
     0
176
   256
177
   256
178
     2
  0
DIMSTYLE
  2
AM_ANSI$7
 70
     0
  3

  4
mm
  5

  6

  7

 40
1.0
 41
0.12
 42
0.05
 43
0.5
 44
0.1
 45
0.0
 46
0.0
 47
0.1
 48
0.1
140
0.12
141
0.0
142
0.0
143
25.399999999999999
144
1.0
145
0.0
146
0.71
147
0.06
 71
     0
 72
     0
 73
     1
 74
     1
 75
     0
 76
     0
 77
     0
 78
     7
170
     0
171
     2
172
     0
173
     0
174
     0
175
     0
176
   256
177
   256
178
     2
  0
DIMSTYLE
  2
AM_ANSI$SF
 70
     0
  3

  4
mm
  5

  6

  7

 40
1.0
 41
0.12
 42
0.05
 43
0.5
 44
0.1
 45
0.0
 46
0.0
 47
0.1
 48
0.1
140
0.12
141
0.0
142
0.0
143
25.399999999999999
144
1.0
145
0.0
146
0.71
147
0.06
 71
     0
 72
     0
 73
     1
 74
     1
 75
     1
 76
     1
 77
     0
 78
     7
170
     0
171
     2
172
     0
173
     0
174
     0
175
     0
176
   256
177
   256
178
     2
  0
DIMSTYLE
  2
AM_ANSI$SH
 70
     0
  3

  4
mm
  5

  6
GENAXEH
  7

 40
1.0
 41
0.12
 42
0.05
 43
0.5
 44
0.1
 45
0.0
 46
0.0
 47
0.1
 48
0.1
140
0.12
141
0.0
142
0.0
143
25.399999999999999
144
1.0
145
0.0
146
0.71
147
0.06
 71
     0
 72
     0
 73
     1
 74
     1
 75
     1
 76
     1
 77
     0
 78
     7
170
     0
171
     2
172
     0
173
     1
174
     0
175
     0
176
   256
177
   256
178
     2
  0
ENDTAB
  0
ENDSEC
  0
SECTION
  2
BLOCKS
  0
BLOCK
  8
0
  2
$MODEL_SPACE
 70
     0
 10
0.0
 20
0.0
 30
0.0
  3
$MODEL_SPACE
  1

  0
ENDBLK
  5
F31
  8
0
  0
BLOCK
 67
     1
  8
0
  2
$PAPER_SPACE
 70
     0
 10
0.0
 20
0.0
 30
0.0
  3
$PAPER_SPACE
  1

  0
ENDBLK
  5
F2D
 67
     1
  8
0
  0
BLOCK
  8
0
  2
_OPEN
 70
     0
 10
0.0
 20
0.0
 30
0.0
  3
_OPEN
  1

  0
LINE
  5
CED
  8
0
  6
BYBLOCK
 62
     0
 10
-1.0
 20
0.1666666666666666
 30
0.0
 11
0.0
 21
0.0
 31
0.0
  0
LINE
  5
CEE
  8
0
  6
BYBLOCK
 62
     0
 10
-1.0
 20
-0.1666666666666666
 30
0.0
 11
0.0
 21
0.0
 31
0.0
  0
LINE
  5
CEF
  8
0
  6
BYBLOCK
 62
     0
 10
0.0
 20
0.0
 30
0.0
 11
-1.0
 21
0.0
 31
0.0
  0
ENDBLK
  5
CF0
  8
0
  0
BLOCK
  8
0
  2
矢印なし
 70
     0
 10
0.0
 20
0.0
 30
0.0
  3
矢印なし
  1

  0
ENDBLK
  5
6E5
  8
0
  0
BLOCK
  8
0
  2
GENAXEH
 70
     0
 10
0.0
 20
0.0
 30
0.0
  3
GENAXEH
  1

  0
LINE
  5
D28
  8
0
 10
-1.0
 20
0.0
 30
0.0
 11
1.0
 21
0.0
 31
0.0
  0
ENDBLK
  5
D29
  8
0
  0
BLOCK
  8
0
  2
_ACMFILLEDHALF
 70
     0
 10
0.0
 20
0.0
 30
0.0
  3
_ACMFILLEDHALF
  1

  0
TRACE
  5
FFB
  8
240
 62
     0
 10
-0.8
 20
0.0
 30
0.0
 11
-1.0
 21
0.166666666
 31
0.0
 12
0.0
 22
0.0
 32
0.0
 13
0.0
 23
0.0
 33
0.0
  0
LINE
  5
FFC
  8
240
 62
     0
 10
-1.0
 20
0.0
 30
0.0
 11
-0.8
 21
0.0
 31
0.0
  0
ENDBLK
  5
FFA
  8
0
  0
ENDSEC
  0
SECTION
  2
ENTITIES
  0
INSERT
  5
6E6
  8
245
  2
矢印なし
 10
175.62382696643769
 20
90.55123571690595
 30
0.0
  0
TEXT
  5
9C6
  8
241
  6
CONTINUOUS
 10
0.0000000000460005
 20
35.0
 30
0.0
 40
5.0
  1
ST5W-CS5-45B-10
  7
YOKO
 11
0.0000000000460005
 21
35.0
 31
0.0
 73
     1
  0
LINE
  5
BEB
  8
250
  6
CONTINUOUS
 10
49.300000000019978
 20
2.4499999999813991
 30
0.0
 11
60.50000000000022
 21
2.449999999981384
 31
0.0
  0
LINE
  5
BEE
  8
250
  6
CONTINUOUS
 10
59.500000000000213
 20
2.449999999981384
 30
0.0
 11
59.500000000000021
 21
-7.1245335078302059
 31
0.0
  0
LINE
  5
D95
  8
245
  6
CENTER2
 10
-1.0
 20
0.0
 30
0.0
 11
51.000000000002061
 21
0.0
 31
0.0
  0
LINE
  5
D96
  8
240
  6
CONTINUOUS
 10
37.834936490538681
 20
2.5000000000002842
 30
0.0
 11
0.0000000000032827
 21
2.500000000000226
 31
0.0
  0
LINE
  5
D97
  8
240
  6
CONTINUOUS
 10
37.83493649054023
 20
-2.5000000000001701
 30
0.0
 11
-0.0000000000032827
 21
-2.500000000000111
 31
0.0
  0
LINE
  5
D9A
  8
240
  6
CONTINUOUS
 10
39.999999999998309
 20
1.250000000001191
 30
0.0
 11
47.400000000025429
 21
1.2500000000008511
 31
0.0
  0
LINE
  5
D9B
  8
240
  6
CONTINUOUS
 10
40.000000000000519
 20
-1.250000000000397
 30
0.0
 11
47.39999999998463
 21
-1.2499999999996581
 31
0.0
  0
LINE
  5
D9C
  8
240
  6
CONTINUOUS
 10
48.600000000002481
 20
2.4499999999788979
 30
0.0
 11
48.800000000019978
 21
2.4499999999813991
 31
0.0
  0
LINE
  5
D9D
  8
240
  6
CONTINUOUS
 10
48.599999999998673
 20
-2.4500000000139699
 30
0.0
 11
48.800000000003962
 21
-2.4500000000145401
 31
0.0
  0
LINE
  5
D9E
  8
240
  6
CONTINUOUS
 10
48.600000000002481
 20
2.4499999999788979
 30
0.0
 11
47.400000000025429
 21
1.2500000000008511
 31
0.0
  0
LINE
  5
D9F
  8
240
  6
CONTINUOUS
 10
50.000000000002778
 20
-1.250000000015403
 30
0.0
 11
48.800000000003962
 21
-2.4500000000145401
 31
0.0
  0
LINE
  5
DA0
  8
240
  6
CONTINUOUS
 10
48.599999999998673
 20
-2.4500000000139699
 30
0.0
 11
47.39999999998463
 21
-1.2499999999996581
 31
0.0
  0
LINE
  5
DA1
  8
240
  6
CONTINUOUS
 10
50.000000000001378
 20
1.2500000000008511
 30
0.0
 11
48.800000000019978
 21
2.4499999999813991
 31
0.0
  0
LINE
  5
DA2
  8
240
  6
CONTINUOUS
 10
50.000000000002778
 20
-1.250000000015403
 30
0.0
 11
50.000000000001329
 21
1.250000000015403
 31
0.0
  0
LINE
  5
DA3
  8
241
  6
CONTINUOUS
 10
47.400000000024548
 20
-1.2499999999994871
 30
0.0
 11
47.400000000025159
 21
1.2499999999994871
 31
0.0
  0
LINE
  5
DA4
  8
241
  6
CONTINUOUS
 10
40.000000000001151
 20
-1.2499999999998861
 30
0.0
 11
39.999999999999119
 21
1.2499999999998861
 31
0.0
  0
LINE
  5
DA5
  8
240
  6
CONTINUOUS
 10
40.000000000000519
 20
-1.250000000000397
 30
0.0
 11
37.83493649054023
 21
-2.5000000000001701
 31
0.0
  0
LINE
  5
DA6
  8
240
  6
CONTINUOUS
 10
39.999999999998309
 20
1.250000000001191
 30
0.0
 11
37.834936490538681
 21
2.5000000000002842
 31
0.0
  0
LINE
  5
DA7
  8
241
  6
CONTINUOUS
 10
37.834936490538681
 20
-2.5000000000000551
 30
0.0
 11
37.834936490538119
 21
2.5000000000000551
 31
0.0
  0
LINE
  5
DAC
  8
240
  6
CONTINUOUS
 10
0.0000000000032827
 20
2.500000000000226
 30
0.0
 11
-0.0000000000032827
 21
-2.500000000000111
 31
0.0
  0
LINE
  5
DB0
  8
241
  6
CONTINUOUS
 10
48.600000000000961
 20
2.450000000015335
 30
0.0
 11
48.599999999998893
 21
-2.450000000015335
 31
0.0
  0
LINE
  5
DB1
  8
241
  6
CONTINUOUS
 10
48.800000000011899
 20
2.4500000000055571
 30
0.0
 11
48.800000000012538
 21
-2.4500000000055571
 31
0.0
  0
TEXT
  5
DB4
  8
250
  6
CONTINUOUS
 10
58.500000000000192
 20
-8.4408029617174751
 30
0.0
 40
3.0
  1
\U+22054.9
 50
90.0
1001
ACAD
1000
MTEXTBEGIN
1070
    73
1070
     1
1070
    44
1040
1.0
1070
    74
1070
     0
1000
MTEXTEND
  0
LINE
  5
DB5
  8
250
  6
CONTINUOUS
 10
59.166666666666877
 20
0.4499999999813859
 30
0.0
 11
59.500000000000213
 21
2.449999999981384
 31
0.0
  0
LINE
  5
DB6
  8
250
  6
CONTINUOUS
 10
59.833333333333542
 20
0.4499999999813859
 30
0.0
 11
59.500000000000213
 21
2.449999999981384
 31
0.0
  0
LINE
  5
DB7
  8
250
  6
CONTINUOUS
 10
59.500000000000213
 20
2.449999999981384
 30
0.0
 11
59.500000000000213
 21
0.4499999999813859
 31
0.0
  0
LINE
  5
DB8
  8
250
  6
CONTINUOUS
 10
0.000000000002629
 20
3.000000000000226
 30
0.0
 11
0.0000000000026302
 21
22.0
 31
0.0
  0
LINE
  5
DB9
  8
250
  6
CONTINUOUS
 10
50.000000000002778
 20
1.7500000000154019
 30
0.0
 11
50.000000000002778
 21
22.0
 31
0.0
  0
LINE
  5
DBA
  8
250
  6
CONTINUOUS
 10
2.000000000002629
 20
21.0
 30
0.0
 11
48.000000000002778
 21
21.0
 31
0.0
  0
LINE
  5
DBE
  8
250
  6
CONTINUOUS
 10
39.999999999998309
 20
1.750000000001193
 30
0.0
 11
39.999999999998309
 21
15.0
 31
0.0
  0
LINE
  5
DBF
  8
250
  6
CONTINUOUS
 10
50.000000000002778
 20
1.7500000000154019
 30
0.0
 11
50.000000000002778
 21
15.0
 31
0.0
  0
LINE
  5
DC0
  8
250
  6
CONTINUOUS
 10
41.999999999998309
 20
14.0
 30
0.0
 11
48.000000000002778
 21
14.0
 31
0.0
  0
TEXT
  5
DCC
  8
250
  6
CONTINUOUS
 10
22.142857142859871
 20
22.0
 30
0.0
 40
3.0
  1
50
1001
ACAD
1000
MTEXTBEGIN
1070
    73
1070
     1
1070
    44
1040
1.0
1070
    74
1070
     0
1000
MTEXTEND
  0
LINE
  5
DCD
  8
250
  6
CONTINUOUS
 10
48.000000000002778
 20
21.333333333333329
 30
0.0
 11
50.000000000002778
 21
21.0
 31
0.0
  0
LINE
  5
DCE
  8
250
  6
CONTINUOUS
 10
48.000000000002778
 20
20.666666666666671
 30
0.0
 11
50.000000000002778
 21
21.0
 31
0.0
  0
LINE
  5
DCF
  8
250
  6
CONTINUOUS
 10
50.000000000002778
 20
21.0
 30
0.0
 11
48.000000000002778
 21
21.0
 31
0.0
  0
LINE
  5
DD0
  8
250
  6
CONTINUOUS
 10
2.000000000002629
 20
20.666666666666671
 30
0.0
 11
0.0000000000026302
 21
21.0
 31
0.0
  0
LINE
  5
DD1
  8
250
  6
CONTINUOUS
 10
2.000000000002629
 20
21.333333333333329
 30
0.0
 11
0.0000000000026302
 21
21.0
 31
0.0
  0
LINE
  5
DD2
  8
250
  6
CONTINUOUS
 10
0.0000000000026302
 20
21.0
 30
0.0
 11
2.000000000002629
 21
21.0
 31
0.0
  0
TEXT
  5
DD3
  8
250
  6
CONTINUOUS
 10
41.928571428571978
 20
15.0
 30
0.0
 40
3.0
  1
10
1001
ACAD
1000
MTEXTBEGIN
1070
    73
1070
     1
1070
    44
1040
1.0
1070
    74
1070
     0
1000
MTEXTEND
  0
LINE
  5
DD4
  8
250
  6
CONTINUOUS
 10
48.000000000002778
 20
14.33333333333333
 30
0.0
 11
50.000000000002778
 21
14.0
 31
0.0
  0
LINE
  5
DD5
  8
250
  6
CONTINUOUS
 10
48.000000000002778
 20
13.666666666666661
 30
0.0
 11
50.000000000002778
 21
14.0
 31
0.0
  0
LINE
  5
DD6
  8
250
  6
CONTINUOUS
 10
50.000000000002778
 20
14.0
 30
0.0
 11
48.000000000002778
 21
14.0
 31
0.0
  0
LINE
  5
DD7
  8
250
  6
CONTINUOUS
 10
41.999999999998309
 20
13.666666666666661
 30
0.0
 11
39.999999999998309
 21
14.0
 31
0.0
  0
LINE
  5
DD8
  8
250
  6
CONTINUOUS
 10
41.999999999998309
 20
14.33333333333333
 30
0.0
 11
39.999999999998309
 21
14.0
 31
0.0
  0
LINE
  5
DD9
  8
250
  6
CONTINUOUS
 10
39.999999999998309
 20
14.0
 30
0.0
 11
41.999999999998309
 21
14.0
 31
0.0
  0
LINE
  5
E24
  8
250
  6
CONTINUOUS
 10
-0.829627180272439
 20
-11.24770290151781
 30
0.0
 11
12.897584589450609
 21
-11.24770290151781
 31
0.0
  0
LINE
  5
E25
  8
250
  6
CONTINUOUS
 10
12.897584589450609
 20
-11.24770290151781
 30
0.0
 11
17.908711328417041
 21
-4.3079298634235661
 31
0.0
  0
LINE
  5
E26
  8
250
  6
CONTINUOUS
 10
17.908711328417041
 20
-4.3079298634235661
 30
0.0
 11
19.21419576300104
 21
-2.4999999999999432
 31
0.0
  0
LINE
  5
E27
  8
250
  6
CONTINUOUS
 10
18.1467298093376
 20
-4.4798001490311758
 30
0.0
 11
19.21419576300104
 21
-2.4999999999999432
 31
0.0
  0
LINE
  5
E28
  8
250
  6
CONTINUOUS
 10
19.21419576300104
 20
-2.4999999999999432
 30
0.0
 11
17.670692847496468
 21
-4.1360595778159563
 31
0.0
  0
TEXT
  5
E29
  8
250
  6
CONTINUOUS
 10
-0.1943779769519542
 20
-9.9137433903323977
 30
0.0
 40
2.799999999999998
  1
ST5W
  7
ACJISTS
  0
LINE
  5
E2A
  8
247
  6
CONTINUOUS
 10
4.25
 20
-1.499999999999942
 30
0.0
 11
8.8846153843300026
 21
-1.499999999999942
 31
0.0
  0
LINE
  5
E2B
  8
247
  6
CONTINUOUS
 10
5.0451065000120252
 20
1.0000000000000551
 30
0.0
 11
4.4429411899426441
 21
-1.0999999999159511
 31
0.0
  0
LINE
  5
E2C
  8
247
  6
CONTINUOUS
 10
5.6748485964809561
 20
0.0038461538861725
 30
0.0
 11
4.7594639811329671
 21
0.0038461538861725
 31
0.0
  0
ARC
  5
E2D
  8
247
  6
CONTINUOUS
 10
5.9127365980531854
 20
0.6152809327059572
 30
0.0
 40
0.3876715809326743
 50
342.9978896752952
 51
82.924166218513619
  0
ARC
  5
E2E
  8
247
  6
CONTINUOUS
 10
5.617522443195865
 20
0.6947768689720421
 30
0.0
 40
0.6933047965358767
 50
274.74293685219902
 51
343.84922627326682
1001
GENIUS_GENOBJ-N-FIL_13
1002
{
1000
OWNER
1000
GEN
1002
}
1001
GENIUS_GENODEF_13
1002
{
1000
HIER
1070
     0
1002
}
1002
{
1000
MANEDIT
1070
     0
1002
}
1002
{
1000
NOSEL
1070
     0
1002
}
1002
{
1000
BEHIND
1070
     0
1002
}
1002
{
1000
OTHER
1070
     0
1002
}
1002
{
1000
REACTOR
1002
}
  0
LINE
  5
E2F
  8
247
  6
CONTINUOUS
 10
5.3583258052906331
 20
-1.0999999999159511
 30
0.0
 11
4.4429411899426441
 21
-1.0999999999159511
 31
0.0
  0
LINE
  5
E30
  8
247
  6
CONTINUOUS
 10
5.0451065000120252
 20
1.0000000000000551
 30
0.0
 11
5.960491115360071
 21
1.0000000000000551
 31
0.0
  0
ARC
  5
E31
  8
247
  6
CONTINUOUS
 10
5.6216935237331409
 20
-0.3874169627678725
 30
0.0
 40
0.394857301075386
 50
335.99094165252171
 51
82.263443459069123
  0
ARC
  5
E32
  8
247
  6
CONTINUOUS
 10
5.2875533895730751
 20
-0.3912003273325695
 30
0.0
 40
0.7123241612361686
 50
275.70198516425643
 51
347.27733843682199
1001
GENIUS_GENOBJ-N-FIL_13
1002
{
1000
OWNER
1000
GEN
1002
}
1001
GENIUS_GENODEF_13
1002
{
1000
HIER
1070
     0
1002
}
1002
{
1000
MANEDIT
1070
     0
1002
}
1002
{
1000
NOSEL
1070
     0
1002
}
1002
{
1000
BEHIND
1070
     0
1002
}
1002
{
1000
OTHER
1070
     0
1002
}
1002
{
1000
REACTOR
1002
}
  0
LINE
  5
E33
  8
247
  6
CONTINUOUS
 10
6.3160181129366011
 20
-1.0999999999159511
 30
0.0
 11
6.9181834230060399
 21
1.0000000000000551
 31
0.0
  0
LINE
  5
E34
  8
247
  6
CONTINUOUS
 10
8.4143372690920142
 20
1.0000000000000551
 30
0.0
 11
8.0183216356964504
 21
1.0000000000000551
 31
0.0
  0
LINE
  5
E35
  8
247
  6
CONTINUOUS
 10
7.3912603460560131
 20
-1.0999999999159511
 30
0.0
 11
7.8220295768080623
 21
-1.0999999999159511
 31
0.0
  0
ARC
  5
E36
  8
247
  6
CONTINUOUS
 10
8.6181834229300307
 20
-0.4582995950833606
 30
0.0
 40
1.576855057639547
 50
112.3594881415292
 51
164.9932485428464
  0
ARC
  5
E37
  8
247
  6
CONTINUOUS
 10
8.152488633866767
 20
0.4341811414620338
 30
0.0
 40
0.6234706797009447
 50
4.9945893190753123
 51
65.166328957308281
1001
GENIUS_GENOBJ-N-FIL_13
1002
{
1000
OWNER
1000
GEN
1002
}
1001
GENIUS_GENODEF_13
1002
{
1000
HIER
1070
     0
1002
}
1002
{
1000
MANEDIT
1070
     0
1002
}
1002
{
1000
NOSEL
1070
     0
1002
}
1002
{
1000
BEHIND
1070
     0
1002
}
1002
{
1000
OTHER
1070
     0
1002
}
1002
{
1000
REACTOR
1002
}
  0
ARC
  5
E38
  8
247
  6
CONTINUOUS
 10
7.5558160489672419
 20
-0.1621021219693262
 30
0.0
 40
0.9749472149106983
 50
285.8460965557839
 51
352.3251370041624
  0
ARC
  5
E39
  8
247
  6
CONTINUOUS
 10
7.964788361227761
 20
-0.3714704019709529
 30
0.0
 40
0.9271945638692009
 50
159.71360167048971
 51
231.7887456564151
1001
GENIUS_GENOBJ-N-FIL_13
1002
{
1000
OWNER
1000
GEN
1002
}
1001
GENIUS_GENODEF_13
1002
{
1000
HIER
1070
     0
1002
}
1002
{
1000
MANEDIT
1070
     0
1002
}
1002
{
1000
NOSEL
1070
     0
1002
}
1002
{
1000
BEHIND
1070
     0
1002
}
1002
{
1000
OTHER
1070
     0
1002
}
1002
{
1000
REACTOR
1002
}
  0
LINE
  5
E3A
  8
247
  6
CONTINUOUS
 10
8.0374141921840305
 20
-0.2923076922558607
 30
0.0
 11
8.522029576780028
 21
-0.2923076922558607
 31
0.0
  0
ARC
  5
E3B
  8
247
  6
CONTINUOUS
 10
4.25
 20
-0.2499999999999432
 30
0.0
 40
1.25
 50
90.0
 51
270.0
  0
LINE
  5
E3C
  8
247
  6
CONTINUOUS
 10
4.25
 20
1.0000000000000551
 30
0.0
 11
4.6961538460860179
 21
1.0000000000000551
 31
0.0
  0
ARC
  5
E3D
  8
247
  6
CONTINUOUS
 10
8.8846153843300026
 20
-0.2499999999999432
 30
0.0
 40
1.25
 50
270.0
 51
90.0
  0
VIEWPORT
  5
22
 67
     1
  8
0
 10
261.51769911504419
 20
148.5
 30
0.0
 40
523.0353982300885
 41
297.0
 68
     1
 69
     1
1001
ACAD
1000
MVIEW
1002
{
1070
    16
1010
0.0
1020
0.0
1030
0.0
1010
0.0
1020
0.0
1030
1.0
1040
0.0
1040
297.0
1040
261.51769911504419
1040
148.5
1040
50.0
1040
0.0
1040
0.0
1070
     0
1070
   100
1070
     1
1070
     1
1070
     0
1070
     0
1070
     0
1070
     0
1040
0.0
1040
0.0
1040
0.0
1040
1.0
1040
1.0
1040
10.0
1040
10.0
1070
     0
1002
{
1002
}
1002
}
1001
GENIUS_GENOBJ-N-SDF_13
1002
{
1000
OWNER
1000
GEN
1002
}
1001
GENIUS_GENODEF_13
1002
{
1000
HIER
1070
     0
1002
}
1002
{
1000
MANEDIT
1070
     0
1002
}
1002
{
1000
NOSEL
1070
     0
1002
}
1002
{
1000
BEHIND
1070
     0
1002
}
1002
{
1000
OTHER
1070
     0
1002
}
1002
{
1000
REACTOR
1002
}
1001
GENIUS_GENSCREG_15
1000
PF
1040
1.0
1000
DF
1040
1.0
1000
MIN
1011
0.0
1021
0.0
1031
0.0
1021
0.0
1031
0.0
1000
MAX
1011
523.0353982300885
1021
0.0
1031
0.0
1021
297.0
1031
0.0
1000
FLAGS
1070
     4
  0
ENDSEC
  0
EOF
