  0
SECTION
  2
HEADER
  9
$ACADVER
  1
AC1009
  9
$INSBASE
 10
0.0
 20
0.0
 30
0.0
  9
$EXTMIN
 10
-150.61893006315921
 20
-48.000000000000028
 30
0.0
  9
$EXTMAX
 10
84.999999999999403
 20
82.000000000000057
 30
0.0
  9
$LIMMIN
 10
0.0
 20
0.0
  9
$LIMMAX
 10
297.0
 20
210.0
  9
$ORTHOMODE
 70
     0
  9
$REGENMODE
 70
     1
  9
$FILLMODE
 70
     1
  9
$QTEXTMODE
 70
     0
  9
$MIRRTEXT
 70
     1
  9
$DRAGMODE
 70
     2
  9
$LTSCALE
 40
10.0
  9
$OSMODE
 70
    37
  9
$ATTMODE
 70
     1
  9
$TEXTSIZE
 40
3.0
  9
$TRACEWID
 40
1.0
  9
$TEXTSTYLE
  7
YOKO
  9
$CLAYER
  8
240
  9
$CELTYPE
  6
BYLAYER
  9
$CECOLOR
 62
   256
  9
$DIMSCALE
 40
1.0
  9
$DIMASZ
 40
2.2299999999999991
  9
$DIMEXO
 40
0.5
  9
$DIMDLI
 40
7.0
  9
$DIMRND
 40
0.0
  9
$DIMDLE
 40
0.0
  9
$DIMEXE
 40
1.0
  9
$DIMTP
 40
0.0
  9
$DIMTM
 40
0.01
  9
$DIMTXT
 40
2.7999999999999989
  9
$DIMCEN
 40
0.0
  9
$DIMTSZ
 40
0.0
  9
$DIMTOL
 70
     0
  9
$DIMLIM
 70
     0
  9
$DIMTIH
 70
     0
  9
$DIMTOH
 70
     0
  9
$DIMSE1
 70
     0
  9
$DIMSE2
 70
     0
  9
$DIMTAD
 70
     3
  9
$DIMZIN
 70
     9
  9
$DIMBLK
  1
OPEN
  9
$DIMASO
 70
     1
  9
$DIMSHO
 70
     1
  9
$DIMPOST
  1

  9
$DIMAPOST
  1

  9
$DIMALT
 70
     0
  9
$DIMALTD
 70
     2
  9
$DIMALTF
 40
25.399999999999999
  9
$DIMLFAC
 40
1.0
  9
$DIMTOFL
 70
     1
  9
$DIMTVP
 40
0.0
  9
$DIMTIX
 70
     1
  9
$DIMSOXD
 70
     0
  9
$DIMSAH
 70
     0
  9
$DIMBLK1
  1

  9
$DIMBLK2
  1

  9
$DIMSTYLE
  2
BIGT
  9
$DIMCLRD
 70
   256
  9
$DIMCLRE
 70
   256
  9
$DIMCLRT
 70
    40
  9
$DIMTFAC
 40
1.0
  9
$DIMGAP
 40
1.0
  9
$LUNITS
 70
     2
  9
$LUPREC
 70
     6
  9
$SKETCHINC
 40
1.0
  9
$FILLETRAD
 40
0.0
  9
$AUNITS
 70
     0
  9
$AUPREC
 70
     6
  9
$MENU
  1
.
  9
$ELEVATION
 40
0.0
  9
$PELEVATION
 40
0.0
  9
$THICKNESS
 40
0.0
  9
$LIMCHECK
 70
     0
  9
$BLIPMODE
 70
     0
  9
$CHAMFERA
 40
0.2
  9
$CHAMFERB
 40
0.2
  9
$SKPOLY
 70
     0
  9
$TDCREATE
 40
2457654.6193934842
  9
$TDUPDATE
 40
2457654.7529712268
  9
$TDINDWG
 40
0.0151900694
  9
$TDUSRTIMER
 40
0.0151900347
  9
$USRTIMER
 70
     1
  9
$ANGBASE
 50
0.0
  9
$ANGDIR
 70
     0
  9
$PDMODE
 70
     1
  9
$PDSIZE
 40
0.0
  9
$PLINEWID
 40
0.0
  9
$COORDS
 70
     1
  9
$SPLFRAME
 70
     0
  9
$SPLINETYPE
 70
     6
  9
$SPLINESEGS
 70
     4
  9
$ATTDIA
 70
     1
  9
$ATTREQ
 70
     1
  9
$HANDLING
 70
     1
  9
$HANDSEED
  5
4B2E
  9
$SURFTAB1
 70
     6
  9
$SURFTAB2
 70
     6
  9
$SURFTYPE
 70
     6
  9
$SURFU
 70
     6
  9
$SURFV
 70
     6
  9
$UCSNAME
  2

  9
$UCSORG
 10
0.0
 20
0.0
 30
0.0
  9
$UCSXDIR
 10
1.0
 20
0.0
 30
0.0
  9
$UCSYDIR
 10
0.0
 20
1.0
 30
0.0
  9
$PUCSNAME
  2

  9
$PUCSORG
 10
0.0
 20
0.0
 30
0.0
  9
$PUCSXDIR
 10
1.0
 20
0.0
 30
0.0
  9
$PUCSYDIR
 10
0.0
 20
1.0
 30
0.0
  9
$USERI1
 70
     1
  9
$USERI2
 70
     0
  9
$USERI3
 70
     0
  9
$USERI4
 70
     0
  9
$USERI5
 70
     0
  9
$USERR1
 40
0.0
  9
$USERR2
 40
0.0
  9
$USERR3
 40
0.0
  9
$USERR4
 40
0.0
  9
$USERR5
 40
0.0
  9
$WORLDVIEW
 70
     1
  9
$SHADEDGE
 70
     3
  9
$SHADEDIF
 70
    70
  9
$TILEMODE
 70
     1
  9
$MAXACTVP
 70
    16
  9
$PLIMCHECK
 70
     0
  9
$PEXTMIN
 10
1.0000000000000000E+020
 20
1.0000000000000000E+020
 30
1.0000000000000000E+020
  9
$PEXTMAX
 10
-1.0000000000000000E+020
 20
-1.0000000000000000E+020
 30
-1.0000000000000000E+020
  9
$PLIMMIN
 10
0.0
 20
0.0
  9
$PLIMMAX
 10
420.0
 20
297.0
  9
$UNITMODE
 70
     0
  9
$VISRETAIN
 70
     1
  9
$PLINEGEN
 70
     0
  9
$PSLTSCALE
 70
     1
  0
ENDSEC
  0
SECTION
  2
TABLES
  0
TABLE
  2
VPORT
 70
     1
  0
VPORT
  2
*ACTIVE
 70
     0
 10
0.0
 20
0.0
 11
1.0
 21
1.0
 12
0.2794868476798342
 22
13.09103418667558
 13
0.0
 23
0.0
 14
7.0
 24
7.0
 15
7.0
 25
7.0
 16
0.0
 26
0.0
 36
1.0
 17
0.0
 27
0.0
 37
0.0
 40
218.85869721312119
 41
1.469813391877058
 42
50.0
 43
0.0
 44
0.0
 50
0.0
 51
0.0
 71
     0
 72
  2000
 73
     1
 74
     0
 75
     0
 76
     1
 77
     0
 78
     0
  0
ENDTAB
  0
TABLE
  2
LTYPE
 70
    16
  0
LTYPE
  2
CONTINUOUS
 70
     0
  3
Solid line
 72
    65
 73
     0
 40
0.0
  0
LTYPE
  2
CENTER2
 70
     0
  3
___ _ ___ _ ___ _ ___ _ ___ _ ___ _ ___ _ ___ _
 72
    65
 73
     4
 40
1.125
 49
0.75
 49
-0.125
 49
0.125
 49
-0.125
  0
LTYPE
  2
HIDDEN2
 70
     0
  3
_ _ _ _ _ _ _ _ _ _ _ _ _ _ _ _ _ _ _ _ _ _ _ _
 72
    65
 73
     2
 40
0.1875
 49
0.125
 49
-0.0625
  0
LTYPE
  2
PHANTOM2
 70
     0
  3
___ _ _ ___ _ _ ___ _ _ ___ _ _ ___ _ _ ___ _ _
 72
    65
 73
     6
 40
1.25
 49
0.625
 49
-0.125
 49
0.125
 49
-0.125
 49
0.125
 49
-0.125
  0
LTYPE
  2
AM_ISO02W050
 70
     0
  3
__ __ __ __ __ __ __ __ __ __ __ __ __ __ __
 72
    65
 73
     2
 40
7.5
 49
6.0
 49
-1.5
  0
LTYPE
  2
AMCONSTR
 70
     0
  3
_______________________
 72
    65
 73
     2
 40
9999.0
 49
9999.0
 49
0.0
  0
LTYPE
  2
ACISOWELD
 70
     0
  3
_ _ _ _ _
 72
    65
 73
     2
 40
2.0
 49
2.0
 49
-1.0
  0
LTYPE
  2
ACISOTGB
 70
     0
  3
__ . . __ . .
 72
    65
 73
     6
 40
9.0
 49
4.0
 49
-1.0
 49
1.0
 49
-1.0
 49
1.0
 49
-1.0
  0
LTYPE
  2
ACISOTGL
 70
     0
  3
_ _ _ _ _
 72
    65
 73
     2
 40
3.0
 49
2.0
 49
-1.0
  0
LTYPE
  2
ACJISTGB
 70
     0
  3
__ . . __ . .
 72
    65
 73
     6
 40
9.0
 49
4.0
 49
-1.0
 49
1.0
 49
-1.0
 49
1.0
 49
-1.0
  0
LTYPE
  2
ACJISTGL
 70
     0
  3
_ _ _ _ _
 72
    65
 73
     2
 40
3.0
 49
2.0
 49
-1.0
  0
ENDTAB
  0
TABLE
  2
LAYER
 70
     8
  0
LAYER
  2
0
 70
     0
 62
     7
  6
CONTINUOUS
  0
LAYER
  2
DEFPOINTS
 70
     0
 62
     7
  6
CONTINUOUS
  0
LAYER
  2
245
 70
     0
 62
     2
  6
CENTER2
  0
LAYER
  2
240
 70
     0
 62
     4
  6
CONTINUOUS
  0
LAYER
  2
241
 70
     0
 62
   211
  6
CONTINUOUS
  0
LAYER
  2
247
 70
     0
 62
    60
  6
CONTINUOUS
  0
LAYER
  2
250
 70
     0
 62
     3
  6
CONTINUOUS
  0
ENDTAB
  0
TABLE
  2
STYLE
 70
     8
  0
STYLE
  2
STANDARD
 70
     0
 40
0.0
 41
1.0
 50
0.0
 71
     0
 42
3.0
  3
romans.shx
  4
extfont.shx
  0
STYLE
  2
ACISOTS
 70
     0
 40
1.0
 41
1.0
 50
0.0
 71
     0
 42
3.0
  3
amgdt.shx
  4
extfont.shx
  0
STYLE
  2
ACISOGDT
 70
     0
 40
0.0
 41
1.0
 50
0.0
 71
     0
 42
3.0
  3
amgdt.shx
  4
extfont.shx
  0
STYLE
  2
ACJISTS
 70
     0
 40
1.0
 41
1.0
 50
0.0
 71
     0
 42
3.0
  3
amgdt.shx
  4
extfont.shx
  0
STYLE
  2
ACJISGDT
 70
     0
 40
0.0
 41
1.0
 50
0.0
 71
     0
 42
3.0
  3
amgdt.shx
  4
extfont.shx
  0
STYLE
  2
YOKO
 70
     0
 40
0.0
 41
1.0
 50
0.0
 71
     0
 42
3.0
  3
romans.shx
  4
extfont.shx
  0
ENDTAB
  0
TABLE
  2
VIEW
 70
     0
  0
ENDTAB
  0
TABLE
  2
UCS
 70
     0
  0
ENDTAB
  0
TABLE
  2
APPID
 70
    42
  0
APPID
  2
ACAD
 70
     0
  0
APPID
  2
GLOBAL
 70
     0
  0
APPID
  2
DETAIL
 70
     0
  0
APPID
  2
GRPNAME
 70
     0
  0
APPID
  2
GPARA
 70
     0
  0
APPID
  2
MCAD_NO_VIS
 70
     0
  0
APPID
  2
ACAD_TEMP_GRAPHIC
 70
     0
  0
APPID
  2
ACATTRIBSERVICES
 70
     0
  0
APPID
  2
GENIUS_GENSCREG_15
 70
     0
  0
APPID
  2
GENIUS_GENODEF_13
 70
     0
  0
APPID
  2
GENIUS_GENOBJ-N-SDF_13
 70
     0
  0
APPID
  2
GENIUS_GENREC_14
 70
     0
  0
APPID
  2
GENIUS_GENOBJ-N-REC_13
 70
     0
  0
APPID
  2
GENIUS_GENDIMSH_14
 70
     0
  0
APPID
  2
GENIUS_GENOBJ-N-DIM_13
 70
     0
  0
APPID
  2
GENIUS_GENDIM_13
 70
     0
  0
APPID
  2
GENIUS_GENDTOL_13
 70
     0
  0
APPID
  2
GENIUS_GENOLIS_13
 70
     0
  0
APPID
  2
GENIUS_GENOENT_13
 70
     0
  0
APPID
  2
GENIUS_GENOBJ-F-FEM_13
 70
     0
  0
APPID
  2
GENIUS_GENOREF_13
 70
     0
  0
APPID
  2
GENIUS_GEFFEM_13
 70
     0
  0
APPID
  2
GENIUS_GEFFEMP_13
 70
     0
  0
APPID
  2
AD_DRAW
 70
     0
  0
APPID
  2
DESIGNERASSEMBLIES
 70
     0
  0
APPID
  2
ACADM_DIM_EDIT
 70
     0
  0
APPID
  2
AMDT_DM_ADJ
 70
     0
  0
APPID
  2
ITEMNAME
 70
     0
  0
APPID
  2
GENIUS_GENOBJ-N-FIL_13
 70
     0
  0
APPID
  2
GENIUS_GENFIL_13
 70
     0
  0
APPID
  2
GENIUS_GENOBJ-N-CHA_13
 70
     0
  0
APPID
  2
ACAD_NAV_VCDISPLAY
 70
     0
  0
APPID
  2
ACAD_DSTYLE_DIMJAG
 70
     0
  0
APPID
  2
ACAD_DSTYLE_DIMBREAK
 70
     0
  0
APPID
  2
ACAECLAYERSTANDARD
 70
     0
  0
APPID
  2
ACAD_PSEXT
 70
     0
  0
APPID
  2
ACAD_EXEMPT_FROM_CAD_STANDARDS
 70
     0
  0
APPID
  2
ACAD_MLEADERVER
 70
     0
  0
APPID
  2
ACAD_DSTYLE_DIMARC_LENGTH_
 70
     0
  0
APPID
  2
ACAD_DSTYLE_DIM_LINETYPE
 70
     0
  0
APPID
  2
ACAD_DSTYLE_DIM_EXT1_LINETYPE
 70
     0
  0
APPID
  2
ACAD_DSTYLE_DIM_EXT2_LINETYPE
 70
     0
  0
ENDTAB
  0
TABLE
  2
DIMSTYLE
 70
    29
  0
DIMSTYLE
  2
BIGT
 70
     0
  3

  4

  5
OPEN
  6

  7

 40
1.0
 41
2.2299999999999991
 42
0.5
 43
7.0
 44
1.0
 45
0.0
 46
0.0
 47
0.0
 48
0.01
140
2.7999999999999989
141
0.0
142
0.0
143
25.399999999999999
144
1.0
145
0.0
146
1.0
147
1.0
 71
     0
 72
     0
 73
     0
 74
     0
 75
     0
 76
     0
 77
     3
 78
     9
170
     0
171
     2
172
     1
173
     0
174
     1
175
     0
176
   256
177
   256
178
    40
  0
DIMSTYLE
  2
AM_ISO
 70
     0
  3

  4
"
  5

  6

  7

 40
1.0
 41
2.5
 42
1.0
 43
10.0
 44
1.0
 45
0.0
 46
0.0
 47
0.1
 48
0.1
140
3.5
141
0.0
142
0.0
143
0.0393701
144
1.0
145
0.0
146
0.71
147
1.5
 71
     0
 72
     0
 73
     0
 74
     0
 75
     0
 76
     0
 77
     1
 78
     8
170
     0
171
     2
172
     1
173
     0
174
     0
175
     0
176
   256
177
   256
178
     2
  0
DIMSTYLE
  2
AM_ISO$3
 70
     0
  3

  4
"
  5

  6

  7

 40
1.0
 41
2.5
 42
1.0
 43
10.0
 44
1.0
 45
0.0
 46
0.0
 47
0.1
 48
0.1
140
3.5
141
0.0
142
0.0
143
0.0393701
144
1.0
145
0.0
146
0.71
147
1.5
 71
     0
 72
     0
 73
     0
 74
     1
 75
     0
 76
     0
 77
     1
 78
     8
170
     0
171
     2
172
     0
173
     0
174
     0
175
     0
176
   256
177
   256
178
     2
  0
DIMSTYLE
  2
AM_ISO$4
 70
     0
  3

  4
"
  5

  6

  7

 40
1.0
 41
2.5
 42
1.0
 43
10.0
 44
1.0
 45
0.0
 46
0.0
 47
0.1
 48
0.1
140
3.5
141
0.0
142
0.0
143
0.0393701
144
1.0
145
0.0
146
0.71
147
1.5
 71
     0
 72
     0
 73
     0
 74
     1
 75
     0
 76
     0
 77
     1
 78
     8
170
     0
171
     2
172
     0
173
     0
174
     0
175
     0
176
   256
177
   256
178
     2
  0
DIMSTYLE
  2
AM_ISO$6
 70
     0
  3

  4
"
  5

  6

  7

 40
1.0
 41
2.5
 42
1.0
 43
10.0
 44
1.0
 45
0.0
 46
0.0
 47
0.1
 48
0.1
140
3.5
141
0.0
142
0.0
143
0.0393701
144
1.0
145
0.0
146
0.71
147
1.5
 71
     0
 72
     0
 73
     0
 74
     0
 75
     0
 76
     0
 77
     0
 78
     8
170
     0
171
     2
172
     1
173
     0
174
     0
175
     0
176
   256
177
   256
178
     2
  0
DIMSTYLE
  2
AM_ISO$7
 70
     0
  3

  4
"
  5

  6

  7

 40
1.0
 41
2.5
 42
1.0
 43
10.0
 44
1.0
 45
0.0
 46
0.0
 47
0.1
 48
0.1
140
5.0
141
0.0
142
0.0
143
0.0393701
144
1.0
145
0.0
146
0.71
147
1.5
 71
     0
 72
     0
 73
     0
 74
     0
 75
     0
 76
     0
 77
     1
 78
     8
170
     0
171
     2
172
     1
173
     0
174
     0
175
     0
176
   256
177
   256
178
     2
  0
DIMSTYLE
  2
AM_ISO$SF
 70
     0
  3

  4
"
  5

  6

  7

 40
1.0
 41
2.5
 42
1.0
 43
10.0
 44
1.0
 45
0.0
 46
0.0
 47
0.1
 48
0.1
140
3.5
141
0.0
142
0.0
143
0.0393701
144
1.0
145
0.0
146
0.71
147
1.5
 71
     0
 72
     0
 73
     0
 74
     0
 75
     1
 76
     1
 77
     1
 78
     8
170
     0
171
     2
172
     1
173
     0
174
     0
175
     0
176
   256
177
   256
178
     2
  0
DIMSTYLE
  2
AM_ISO$SH
 70
     0
  3

  4
"
  5

  6
GENAXEH
  7

 40
1.0
 41
2.5
 42
1.0
 43
10.0
 44
1.0
 45
0.0
 46
0.0
 47
0.1
 48
0.1
140
3.5
141
0.0
142
0.0
143
0.0393701
144
2.0
145
0.0
146
0.71
147
1.5
 71
     0
 72
     0
 73
     0
 74
     0
 75
     1
 76
     1
 77
     1
 78
     8
170
     0
171
     2
172
     1
173
     1
174
     0
175
     0
176
   256
177
   256
178
     2
  0
DIMSTYLE
  2
BIGT$2
 70
     0
  3

  4

  5
OPEN
  6

  7

 40
1.0
 41
2.2299999999999991
 42
0.5
 43
7.0
 44
1.0
 45
0.0
 46
0.0
 47
0.0
 48
0.01
140
2.7999999999999989
141
0.0
142
0.0
143
25.399999999999999
144
1.0
145
0.0
146
1.0
147
1.0
 71
     0
 72
     0
 73
     0
 74
     0
 75
     0
 76
     0
 77
     3
 78
     9
170
     0
171
     2
172
     1
173
     0
174
     0
175
     0
176
   256
177
   256
178
    40
  0
DIMSTYLE
  2
BIGT$3
 70
     0
  3

  4

  5
OPEN
  6

  7

 40
1.0
 41
2.2299999999999991
 42
0.5
 43
2.5
 44
1.0
 45
0.0
 46
0.0
 47
0.0
 48
0.01
140
2.7999999999999989
141
0.0
142
0.0
143
25.399999999999999
144
1.0
145
0.0
146
1.0
147
1.0
 71
     0
 72
     0
 73
     0
 74
     0
 75
     0
 76
     0
 77
     3
 78
     9
170
     0
171
     2
172
     1
173
     0
174
     0
175
     0
176
   256
177
   256
178
    40
  0
DIMSTYLE
  2
BIGT$7
 70
     0
  3

  4

  5
OPEN
  6

  7

 40
0.0
 41
2.2299999999999991
 42
0.5
 43
7.0
 44
1.0
 45
0.0
 46
0.0
 47
0.0
 48
0.01
140
2.7999999999999989
141
0.0
142
0.0
143
25.399999999999999
144
1.0
145
0.0
146
1.0
147
1.0
 71
     0
 72
     0
 73
     0
 74
     0
 75
     0
 76
     0
 77
     3
 78
     9
170
     0
171
     2
172
     0
173
     0
174
     0
175
     0
176
   256
177
   256
178
    40
  0
DIMSTYLE
  2
BIGT$6
 70
     0
  3

  4

  5
OPEN
  6

  7

 40
1.0
 41
2.2299999999999991
 42
0.5
 43
2.5
 44
1.0
 45
0.0
 46
0.0
 47
0.0
 48
0.01
140
2.7999999999999989
141
0.0
142
0.0
143
25.399999999999999
144
1.0
145
0.0
146
1.0
147
1.0
 71
     0
 72
     0
 73
     0
 74
     0
 75
     0
 76
     0
 77
     3
 78
     9
170
     0
171
     2
172
     1
173
     0
174
     0
175
     0
176
   256
177
   256
178
    40
  0
DIMSTYLE
  2
BIGT$0
 70
     0
  3

  4

  5
OPEN
  6

  7

 40
1.0
 41
2.2299999999999991
 42
0.5
 43
7.0
 44
1.0
 45
0.0
 46
0.0
 47
0.0
 48
0.01
140
2.7999999999999989
141
0.0
142
0.0
143
25.399999999999999
144
1.0
145
0.0
146
1.0
147
1.0
 71
     0
 72
     0
 73
     0
 74
     0
 75
     0
 76
     0
 77
     3
 78
     9
170
     0
171
     2
172
     1
173
     0
174
     1
175
     0
176
   256
177
   256
178
    40
  0
DIMSTYLE
  2
BIGT$4
 70
     0
  3

  4

  5
OPEN
  6

  7

 40
1.0
 41
2.2299999999999991
 42
0.5
 43
2.5
 44
1.0
 45
0.0
 46
0.0
 47
0.0
 48
0.01
140
2.7999999999999989
141
0.0
142
0.0
143
25.399999999999999
144
1.0
145
0.0
146
1.0
147
1.0
 71
     0
 72
     0
 73
     0
 74
     0
 75
     0
 76
     0
 77
     3
 78
     9
170
     0
171
     2
172
     1
173
     0
174
     0
175
     0
176
   256
177
   256
178
    40
  0
DIMSTYLE
  2
BIGT$SH
 70
     0
  3

  4

  5
OPEN
  6

  7

 40
1.0
 41
2.2299999999999991
 42
0.5
 43
7.0
 44
1.0
 45
0.0
 46
0.0
 47
0.0
 48
0.0
140
2.7999999999999989
141
0.0
142
0.0
143
25.399999999999999
144
1.0
145
0.0
146
1.0
147
1.0
 71
     0
 72
     0
 73
     0
 74
     0
 75
     0
 76
     0
 77
     3
 78
     9
170
     0
171
     2
172
     1
173
     0
174
     0
175
     0
176
   256
177
   256
178
    40
  0
DIMSTYLE
  2
BIGT$SF
 70
     0
  3

  4

  5
OPEN
  6

  7

 40
1.0
 41
2.2299999999999991
 42
0.5
 43
7.0
 44
1.0
 45
0.0
 46
0.0
 47
0.0
 48
0.0
140
2.7999999999999989
141
0.0
142
0.0
143
25.399999999999999
144
1.0
145
0.0
146
1.0
147
1.0
 71
     0
 72
     0
 73
     0
 74
     0
 75
     0
 76
     0
 77
     3
 78
     9
170
     0
171
     2
172
     1
173
     0
174
     0
175
     0
176
   256
177
   256
178
    40
  0
DIMSTYLE
  2
TECHNICAL_OSAKA
 70
     0
  3

  4
"
  5
OPEN30
  6

  7

 40
1.0
 41
2.5
 42
1.0
 43
10.0
 44
1.0
 45
0.0
 46
0.0
 47
0.1
 48
0.1
140
2.7999999999999989
141
0.0
142
0.0
143
0.0393701
144
1.0
145
0.0
146
0.71
147
1.5
 71
     0
 72
     0
 73
     0
 74
     0
 75
     0
 76
     0
 77
     3
 78
     8
170
     0
171
     2
172
     1
173
     0
174
     0
175
     0
176
   256
177
   256
178
    40
  0
DIMSTYLE
  2
TECHNICAL_OSAKA$3
 70
     0
  3

  4
"
  5
OPEN30
  6

  7

 40
1.0
 41
2.5
 42
1.0
 43
10.0
 44
1.0
 45
0.0
 46
0.0
 47
0.1
 48
0.1
140
2.7999999999999989
141
0.0
142
0.0
143
0.0393701
144
1.0
145
0.0
146
0.71
147
1.5
 71
     0
 72
     0
 73
     0
 74
     1
 75
     0
 76
     0
 77
     3
 78
     8
170
     0
171
     2
172
     0
173
     0
174
     0
175
     0
176
   256
177
   256
178
    40
  0
DIMSTYLE
  2
TECHNICAL_OSAKA$4
 70
     0
  3

  4
"
  5
OPEN30
  6

  7

 40
1.0
 41
2.5
 42
1.0
 43
10.0
 44
1.0
 45
0.0
 46
0.0
 47
0.1
 48
0.1
140
2.7999999999999989
141
0.0
142
0.0
143
0.0393701
144
1.0
145
0.0
146
0.71
147
1.5
 71
     0
 72
     0
 73
     0
 74
     1
 75
     0
 76
     0
 77
     3
 78
     8
170
     0
171
     2
172
     0
173
     0
174
     0
175
     0
176
   256
177
   256
178
    40
  0
DIMSTYLE
  2
TECHNICAL_OSAKA$6
 70
     0
  3

  4
"
  5
OPEN30
  6

  7

 40
1.0
 41
2.5
 42
1.0
 43
10.0
 44
1.0
 45
0.0
 46
0.0
 47
0.1
 48
0.1
140
2.7999999999999989
141
0.0
142
0.0
143
0.0393701
144
1.0
145
0.0
146
0.71
147
1.5
 71
     0
 72
     0
 73
     0
 74
     0
 75
     0
 76
     0
 77
     0
 78
     8
170
     0
171
     2
172
     1
173
     0
174
     0
175
     0
176
   256
177
   256
178
    40
  0
DIMSTYLE
  2
TECHNICAL_OSAKA$7
 70
     0
  3

  4
"
  5
OPEN30
  6

  7

 40
1.0
 41
2.5
 42
1.0
 43
10.0
 44
1.0
 45
0.0
 46
0.0
 47
0.1
 48
0.1
140
2.7999999999999989
141
0.0
142
0.0
143
0.0393701
144
1.0
145
0.0
146
0.71
147
1.5
 71
     0
 72
     0
 73
     0
 74
     0
 75
     0
 76
     0
 77
     3
 78
     8
170
     0
171
     2
172
     1
173
     0
174
     0
175
     0
176
   256
177
   256
178
    40
  0
DIMSTYLE
  2
TECHNICAL_OSAKA$SF
 70
     0
  3

  4
"
  5
OPEN30
  6
OPEN30
  7
OPEN30
 40
1.0
 41
2.5
 42
1.0
 43
10.0
 44
1.0
 45
0.0
 46
0.0
 47
0.1
 48
0.1
140
3.5
141
0.0
142
0.0
143
0.0393701
144
1.0
145
0.0
146
0.71
147
1.5
 71
     0
 72
     0
 73
     0
 74
     0
 75
     1
 76
     1
 77
     3
 78
     8
170
     0
171
     2
172
     1
173
     0
174
     0
175
     0
176
   256
177
   256
178
    40
  0
DIMSTYLE
  2
TECHNICAL_OSAKA$SH
 70
     0
  3

  4
"
  5
OPEN30
  6
GENAXEH
  7
OPEN30
 40
1.0
 41
2.5
 42
1.0
 43
10.0
 44
1.0
 45
0.0
 46
0.0
 47
0.1
 48
0.1
140
3.5
141
0.0
142
0.0
143
0.0393701
144
2.0
145
0.0
146
0.71
147
1.5
 71
     0
 72
     0
 73
     0
 74
     0
 75
     1
 76
     1
 77
     3
 78
     8
170
     0
171
     2
172
     1
173
     1
174
     0
175
     0
176
   256
177
   256
178
    40
  0
ENDTAB
  0
ENDSEC
  0
SECTION
  2
BLOCKS
  0
BLOCK
  8
0
  2
$MODEL_SPACE
 70
     0
 10
0.0
 20
0.0
 30
0.0
  3
$MODEL_SPACE
  1

  0
ENDBLK
  5
1C
  8
0
  0
BLOCK
 67
     1
  8
0
  2
$PAPER_SPACE
 70
     0
 10
0.0
 20
0.0
 30
0.0
  3
$PAPER_SPACE
  1

  0
ENDBLK
  5
19
 67
     1
  8
0
  0
BLOCK
  8
0
  2
_OPEN
 70
     0
 10
0.0
 20
0.0
 30
0.0
  3
_OPEN
  1

  0
LINE
  5
4A32
  8
0
  6
BYBLOCK
 62
     0
 10
-1.0
 20
0.1666666666666666
 30
0.0
 11
0.0
 21
0.0
 31
0.0
  0
LINE
  5
4A33
  8
0
  6
BYBLOCK
 62
     0
 10
-1.0
 20
-0.1666666666666666
 30
0.0
 11
0.0
 21
0.0
 31
0.0
  0
LINE
  5
4A34
  8
0
  6
BYBLOCK
 62
     0
 10
0.0
 20
0.0
 30
0.0
 11
-1.0
 21
0.0
 31
0.0
  0
ENDBLK
  5
4A35
  8
0
  0
BLOCK
  8
0
  2
GENAXEH
 70
     0
 10
0.0
 20
0.0
 30
0.0
  3
GENAXEH
  1

  0
LINE
  5
4A6D
  8
0
 10
-1.0
 20
0.0
 30
0.0
 11
1.0
 21
0.0
 31
0.0
  0
ENDBLK
  5
4A6E
  8
0
  0
BLOCK
  8
0
  2
_OPEN30
 70
     0
 10
0.0
 20
0.0
 30
0.0
  3
_OPEN30
  1

  0
LINE
  5
4AA9
  8
0
  6
BYBLOCK
 62
     0
 10
-1.0
 20
0.26794919
 30
0.0
 11
0.0
 21
0.0
 31
0.0
  0
LINE
  5
4AAA
  8
0
  6
BYBLOCK
 62
     0
 10
0.0
 20
0.0
 30
0.0
 11
-1.0
 21
-0.26794919
 31
0.0
  0
LINE
  5
4AAB
  8
0
  6
BYBLOCK
 62
     0
 10
0.0
 20
0.0
 30
0.0
 11
-1.0
 21
0.0
 31
0.0
  0
ENDBLK
  5
4AAC
  8
0
  0
BLOCK
  8
0
  2
*U4
 70
     1
 10
0.0
 20
0.0
 30
0.0
  3
*U4
  1

  0
TEXT
  5
41AD
  8
250
 10
-42.666666666666153
 20
64.000000000000014
 30
0.0
 40
2.799999999999998
  1
80
  0
ENDBLK
  5
41AE
  8
0
  0
BLOCK
  8
0
  2
*U5
 70
     1
 10
0.0
 20
0.0
 30
0.0
  3
*U5
  1

  0
TEXT
  5
41B1
  8
250
 10
23.333257478231449
 20
64.000000000000014
 30
0.0
 40
2.799999999999998
  1
52
  0
ENDBLK
  5
41B2
  8
0
  0
BLOCK
  8
0
  2
*U6
 70
     1
 10
0.0
 20
0.0
 30
0.0
  3
*U6
  1

  0
TEXT
  5
41B9
  8
250
 10
82.999999999999986
 20
-3.933333333333215
 30
0.0
 40
2.799999999999998
  1
\U+220585
 50
90.0
  0
ENDBLK
  5
41BA
  8
0
  0
BLOCK
  8
0
  2
*U7
 70
     1
 10
0.0
 20
0.0
 30
0.0
  3
*U7
  1

  0
TEXT
  5
41BD
  8
250
 10
75.999999999999986
 20
-3.933333333333215
 30
0.0
 40
2.799999999999998
  1
\U+220550
 50
90.0
  0
ENDBLK
  5
41BE
  8
0
  0
BLOCK
  8
0
  2
*U8
 70
     1
 10
0.0
 20
0.0
 30
0.0
  3
*U8
  1

  0
TEXT
  5
41C1
  8
250
 10
-106.0
 20
-3.933333333333239
 30
0.0
 40
2.799999999999998
  1
\U+220542
 50
90.0
  0
ENDBLK
  5
41C2
  8
0
  0
ENDSEC
  0
SECTION
  2
ENTITIES
  0
LINE
  5
4415
  8
240
  6
CONTINUOUS
 10
51.763000000000588
 20
-18.302214071883551
 30
0.0
 11
51.763000000000588
 21
21.238097060575281
 31
0.0
  0
LINE
  5
4416
  8
241
  6
CONTINUOUS
 10
17.07106781186598
 20
47.999999999999993
 30
0.0
 11
17.07106781186598
 21
0.0
 31
0.0
  0
LINE
  5
4417
  8
241
  6
CONTINUOUS
 10
11.46446609406779
 20
44.464466094067227
 30
0.0
 11
11.46446609406779
 21
-44.464466094067227
 31
0.0
  0
LINE
  5
4418
  8
241
  6
CONTINUOUS
 10
13.535533905933329
 20
-46.535533905932759
 30
0.0
 11
13.535533905933329
 21
46.535533905932752
 31
0.0
  0
LINE
  5
4419
  8
240
  6
CONTINUOUS
 10
10.000000000000449
 20
40.928932188134347
 30
0.0
 11
10.000000000000449
 21
32.500000000000107
 31
0.0
  0
LINE
  5
441A
  8
241
  6
CONTINUOUS
 10
35.266401883245742
 20
-23.5656851794514
 30
0.0
 11
35.266401883245742
 21
24.661924089941429
 31
0.0
  0
LINE
  5
441B
  8
245
  6
CENTER2
 10
56.763000000000467
 20
0.0
 30
0.0
 11
-83.000000000000568
 21
0.0
 31
0.0
  0
ARC
  5
44A1
  8
240
  6
CONTINUOUS
 10
17.07106781186598
 20
-43.0
 30
0.0
 40
5.0000000000000204
 50
225.00000000000929
 51
270.0
  0
LINE
  5
44A2
  8
241
  6
CONTINUOUS
 10
17.07106781186598
 20
0.0
 30
0.0
 11
17.07106781186598
 21
-48.0
 31
0.0
  0
LINE
  5
44A3
  8
240
  6
CONTINUOUS
 10
17.07106781186598
 20
-48.0
 30
0.0
 11
30.4274498904411
 21
-48.0
 31
0.0
  0
LINE
  5
44A4
  8
241
  6
CONTINUOUS
 10
51.763000000000588
 20
-10.564331200464171
 30
0.0
 11
38.781670333893651
 21
-22.519943378596061
 31
0.0
  0
LINE
  5
44A5
  8
241
  6
CONTINUOUS
 10
35.266401883245742
 20
-23.5656851794514
 30
0.0
 11
26.790079018566871
 21
-23.5656851794514
 31
0.0
  0
LINE
  5
44AE
  8
240
  6
CONTINUOUS
 10
11.46446609406779
 20
-44.464466094067227
 30
0.0
 11
13.535533905933329
 21
-46.535533905932759
 31
0.0
  0
ARC
  5
44AF
  8
240
  6
CONTINUOUS
 10
15.000000000000449
 20
-40.928932188134461
 30
0.0
 40
5.0
 50
180.0
 51
225.00000000000929
  0
ARC
  5
44B0
  8
241
  6
CONTINUOUS
 10
26.452021668388511
 20
-27.255307170515159
 30
0.0
 40
3.7026256334707162
 50
85.182132236849682
 51
175.53724127919489
  0
LINE
  5
44B1
  8
241
  6
CONTINUOUS
 10
26.790079018566871
 20
-23.5656851794514
 30
0.0
 11
26.763000000000488
 21
-23.5656851794514
 31
0.0
  0
ARC
  5
44B2
  8
241
  6
CONTINUOUS
 10
35.501571560262803
 20
-17.925038945271559
 30
0.0
 40
5.6455464497385748
 50
267.61260847184212
 51
305.521360557192
  0
LINE
  5
44B5
  8
241
  6
CONTINUOUS
 10
21.792157474205421
 20
48.0
 30
0.0
 11
35.266401883245742
 21
24.661924089941412
 31
0.0
  0
LINE
  5
44B6
  8
241
  6
CONTINUOUS
 10
51.94625845130836
 20
24.164652898631971
 30
0.0
 11
40.83270537823843
 21
43.413871496848358
 31
0.0
1001
GRPNAME
1000
PASTMD02
  0
LINE
  5
44B7
  8
240
  6
CONTINUOUS
 10
51.345605421088351
 20
22.764579696889431
 30
0.0
 11
50.877758570567117
 21
23.626300124052559
 31
0.0
  0
LINE
  5
44B8
  8
241
  6
CONTINUOUS
 10
41.577026245013919
 20
20.554379086260148
 30
0.0
 11
51.763000000000588
 21
19.663221855726299
 31
0.0
  0
LINE
  5
44B9
  8
241
  6
CONTINUOUS
 10
41.006035055543236
 20
24.489964766533141
 30
0.0
 11
51.570689772394871
 21
23.565717088177351
 31
0.0
1001
GRPNAME
1000
PASTMD01
  0
ARC
  5
44BA
  8
241
  6
CONTINUOUS
 10
42.274272186995852
 20
28.523936670994662
 30
0.0
 40
8.0000000000006501
 50
209.9999999999998
 51
264.9999999999867
  0
ARC
  5
44BB
  8
240
  6
CONTINUOUS
 10
48.763000000000638
 20
21.238097060575281
 30
0.0
 40
3.0
 50
359.99999999999682
 51
30.58576464746973
  0
ARC
  5
44BC
  8
241
  6
CONTINUOUS
 10
51.599848289794622
 20
23.964652898631929
 30
0.0
 40
0.400000000000002
 50
264.99995897869439
 51
30.000000013715098
1001
GRPNAME
1000
PASTMD02
  0
ARC
  5
44BD
  8
240
  6
CONTINUOUS
 10
15.000000000000449
 20
40.928932188134567
 30
0.0
 40
5.0
 50
134.99999999999071
 51
180.0
  0
LINE
  5
44BE
  8
240
  6
CONTINUOUS
 10
13.535533905933301
 20
46.535533905932738
 30
0.0
 11
11.46446609406779
 21
44.464466094067227
 31
0.0
  0
LINE
  5
44BF
  8
241
  6
CONTINUOUS
 10
30.075781541840279
 20
44.569008056045377
 30
0.0
 11
40.447957808649193
 21
43.661536282565152
 31
0.0
1001
GRPNAME
1000
PASTMD01
  0
LINE
  5
44C0
  8
241
  6
CONTINUOUS
 10
40.616597572453387
 20
24.738063644092581
 30
0.0
 11
29.599189565452491
 21
43.820913045064451
 31
0.0
1001
GRPNAME
1000
PASTMD01
  0
ARC
  5
44C1
  8
241
  6
CONTINUOUS
 10
30.032200759804589
 20
44.070905945311203
 30
0.0
 40
0.4999999899041817
 50
85.000001132479355
 51
209.99999517889469
1001
GRPNAME
1000
PASTMD01
  0
ARC
  5
44C2
  8
241
  6
CONTINUOUS
 10
40.399692822626648
 20
43.163871243483413
 30
0.0
 40
0.4999999999999892
 50
30.000033524987138
 51
84.999999841882399
1001
GRPNAME
1000
00000003
  0
LINE
  5
44C3
  8
240
  6
CONTINUOUS
 10
-0.000000000000334
 20
21.000000000000011
 30
0.0
 11
-80.000000000000554
 21
21.000000000000011
 31
0.0
  0
LINE
  5
44C7
  8
240
  6
CONTINUOUS
 10
-80.000000000000554
 20
21.000000000000011
 30
0.0
 11
-80.000000000000554
 21
-21.000000000000039
 31
0.0
  0
LINE
  5
44CB
  8
240
  6
CONTINUOUS
 10
0.0000000000002274
 20
-21.000000000000039
 30
0.0
 11
-80.000000000000554
 21
-21.000000000000039
 31
0.0
  0
LINE
  5
45D5
  8
240
  6
CONTINUOUS
 10
37.646151809401537
 20
-44.800995356610422
 30
0.0
 11
38.810170571857597
 21
-42.438565230477018
 31
0.0
  0
ARC
  5
45D6
  8
240
  6
CONTINUOUS
 10
69.328690193019725
 20
-58.807672434058638
 30
0.0
 40
34.64086989377099
 50
142.2847738759672
 51
151.8008677353414
  0
ARC
  5
45D7
  8
240
  6
CONTINUOUS
 10
30.103088686192791
 20
-16.076322896313169
 30
0.0
 40
21.909452381429212
 50
327.3385126329419
 51
351.34422513387182
  0
LINE
  5
45D8
  8
240
  6
CONTINUOUS
 10
51.763000000000588
 20
-19.373646891933301
 30
0.0
 11
51.763000000000588
 21
-18.302214071883551
 31
0.0
  0
LINE
  5
45D9
  8
241
  6
CONTINUOUS
 10
-0.000000000000135
 20
21.000000000000011
 30
0.0
 11
0.000000000000135
 21
-21.000000000000039
 31
0.0
  0
LINE
  5
45DA
  8
240
  6
CONTINUOUS
 10
10.000000000000449
 20
32.500000000000107
 30
0.0
 11
10.000000000000449
 21
30.50000000000011
 31
0.0
  0
LINE
  5
45DB
  8
240
  6
CONTINUOUS
 10
10.000000000000449
 20
-32.500000000000028
 30
0.0
 11
10.000000000000449
 21
-40.928932188134461
 31
0.0
  0
LINE
  5
45DC
  8
240
  6
CONTINUOUS
 10
41.925649216004238
 20
-37.616560801839341
 30
0.0
 11
48.548081005164548
 21
-27.900296932447851
 31
0.0
  0
LINE
  5
45DD
  8
240
  6
CONTINUOUS
 10
39.977847094618028
 20
43.702691282037527
 30
0.0
 11
38.780241914240598
 21
45.908543146719097
 31
0.0
  0
ARC
  5
45DE
  8
241
  6
CONTINUOUS
 10
41.049611062666187
 20
24.98806227867631
 30
0.0
 40
0.5
 50
209.99981932973779
 51
265.00021444340058
1001
GRPNAME
1000
PASTMD01
1001
GENIUS_GENODEF_13
1002
{
1000
HIER
1070
     0
1002
}
1002
{
1000
MANEDIT
1070
     0
1002
}
1002
{
1000
NOSEL
1070
     0
1002
}
1002
{
1000
BEHIND
1070
     0
1002
}
1002
{
1000
OTHER
1070
     0
1002
}
1002
{
1000
REACTOR
1002
}
1001
GENIUS_GENOBJ-N-FIL_13
1002
{
1000
OWNER
1000
GEN
1002
}
  0
LINE
  5
45DF
  8
241
  6
CONTINUOUS
 10
38.781670333895683
 20
-22.519943378594188
 30
0.0
 11
38.781670333895683
 21
21.326594641069178
 31
0.0
  0
LINE
  5
45E0
  8
240
  6
CONTINUOUS
 10
35.264923570603493
 20
47.999999999999993
 30
0.0
 11
17.071067811866008
 21
47.999999999999993
 31
0.0
  0
ARC
  5
45E1
  8
240
  6
CONTINUOUS
 10
17.071067811866019
 20
42.999999999999993
 30
0.0
 40
5.0
 50
90.0
 51
134.99999999999989
1001
GENIUS_GENOBJ-N-FIL_13
1002
{
1000
OWNER
1000
GEN
1002
}
1001
GENIUS_GENODEF_13
1002
{
1000
HIER
1070
     0
1002
}
1002
{
1000
MANEDIT
1070
     0
1002
}
1002
{
1000
NOSEL
1070
     0
1002
}
1002
{
1000
BEHIND
1070
     0
1002
}
1002
{
1000
OTHER
1070
     0
1002
}
1002
{
1000
REACTOR
1002
}
  0
ARC
  5
45E2
  8
240
  6
CONTINUOUS
 10
35.264923570603493
 20
43.999999999999993
 30
0.0
 40
4.0
 50
28.498502214164581
 51
90.0
1001
GENIUS_GENOBJ-N-FIL_13
1002
{
1000
OWNER
1000
GEN
1002
}
1001
GENIUS_GENODEF_13
1002
{
1000
HIER
1070
     0
1002
}
1002
{
1000
MANEDIT
1070
     0
1002
}
1002
{
1000
NOSEL
1070
     0
1002
}
1002
{
1000
BEHIND
1070
     0
1002
}
1002
{
1000
OTHER
1070
     0
1002
}
1002
{
1000
REACTOR
1002
}
  0
TEXT
  5
45E3
  8
241
  6
CONTINUOUS
 10
-81.000151710205387
 20
77.0
 30
0.0
 40
5.0
  1
ST42-C5085C-30
  7
YOKO
  0
LINE
  5
45E4
  8
250
  6
CONTINUOUS
 10
-80.000000000000554
 20
21.5
 30
0.0
 11
-80.000000000000554
 21
63.999999999999879
 31
0.0
  0
LINE
  5
45E5
  8
250
  6
CONTINUOUS
 10
0.0000000000003908
 20
32.000000000000178
 30
0.0
 11
0.0000000000003908
 21
63.999999999999879
 31
0.0
  0
LINE
  5
45E6
  8
250
  6
CONTINUOUS
 10
-77.77000000000055
 20
62.999999999999893
 30
0.0
 11
-2.2299999999996061
 21
62.999999999999893
 31
0.0
  0
INSERT
  5
45E7
  8
250
  6
CONTINUOUS
  2
*U4
 10
-0.000000000000604
 20
-0.0000000000001137
 30
0.0
  0
LINE
  5
45E8
  8
250
  6
CONTINUOUS
 10
0.0000000000003908
 20
30.000000000000181
 30
0.0
 11
0.0000000000003908
 21
63.999999999999879
 31
0.0
  0
LINE
  5
45E9
  8
250
  6
CONTINUOUS
 10
51.99984828979462
 20
24.464652898631929
 30
0.0
 11
51.99984828979462
 21
63.999999999999879
 31
0.0
  0
LINE
  5
45EA
  8
250
  6
CONTINUOUS
 10
2.2300000000003939
 20
62.999999999999893
 30
0.0
 11
49.769848289794609
 21
62.999999999999893
 31
0.0
  0
INSERT
  5
45EB
  8
250
  6
CONTINUOUS
  2
*U5
 10
-0.000000000000604
 20
-0.0000000000001137
 30
0.0
  0
LINE
  5
45F1
  8
250
  6
CONTINUOUS
 10
41.860329880519863
 20
42.499999999999993
 30
0.0
 11
84.999999999999403
 21
42.499999999999979
 31
0.0
  0
LINE
  5
45F2
  8
250
  6
CONTINUOUS
 10
83.999999999999389
 20
40.269999999999982
 30
0.0
 11
83.999999999999389
 21
-4.5333333333333439
 31
0.0
  0
INSERT
  5
45F3
  8
250
  6
CONTINUOUS
  2
*U6
 10
-0.000000000000604
 20
-0.0000000000001137
 30
0.0
  0
LINE
  5
45F4
  8
250
  6
CONTINUOUS
 10
51.963970076945529
 20
25.000000000000011
 30
0.0
 11
77.999999999999403
 21
25.0
 31
0.0
  0
LINE
  5
45F5
  8
250
  6
CONTINUOUS
 10
76.999999999999403
 20
22.77
 30
0.0
 11
76.999999999999403
 21
-4.5333333333333421
 31
0.0
  0
INSERT
  5
45F6
  8
250
  6
CONTINUOUS
  2
*U7
 10
-0.000000000000604
 20
-0.0000000000001137
 30
0.0
  0
LINE
  5
45F7
  8
250
  6
CONTINUOUS
 10
-80.500000000000568
 20
21.0
 30
0.0
 11
-96.000151710205387
 21
21.000000000000011
 31
0.0
  0
LINE
  5
45F8
  8
250
  6
CONTINUOUS
 10
-80.500000000000568
 20
-21.000000000000028
 30
0.0
 11
-96.000151710205387
 21
-21.000000000000011
 31
0.0
  0
LINE
  5
45F9
  8
250
  6
CONTINUOUS
 10
-95.000151710205387
 20
18.77
 30
0.0
 11
-95.000151710205387
 21
-18.77000000000001
 31
0.0
  0
INSERT
  5
45FA
  8
250
  6
CONTINUOUS
  2
*U8
 10
10.180918226635381
 20
-0.3337023137584651
 30
0.0
  0
LINE
  5
45FB
  8
250
  6
CONTINUOUS
 10
-95.371818376871985
 20
18.77
 30
0.0
 11
-95.000151710205387
 21
21.000000000000011
 31
0.0
  0
LINE
  5
45FC
  8
250
  6
CONTINUOUS
 10
-94.62848504353866
 20
18.77
 30
0.0
 11
-95.000151710205387
 21
21.000000000000011
 31
0.0
  0
LINE
  5
45FD
  8
250
  6
CONTINUOUS
 10
-95.000151710205387
 20
21.000000000000011
 30
0.0
 11
-95.000151710205387
 21
18.77
 31
0.0
  0
LINE
  5
45FE
  8
250
  6
CONTINUOUS
 10
-94.62848504353866
 20
-18.77000000000001
 30
0.0
 11
-95.000151710205387
 21
-21.000000000000011
 31
0.0
  0
LINE
  5
45FF
  8
250
  6
CONTINUOUS
 10
-95.371818376871985
 20
-18.77000000000001
 30
0.0
 11
-95.000151710205387
 21
-21.000000000000011
 31
0.0
  0
LINE
  5
4600
  8
250
  6
CONTINUOUS
 10
-95.000151710205387
 20
-21.000000000000011
 30
0.0
 11
-95.000151710205387
 21
-18.77000000000001
 31
0.0
  0
LINE
  5
4601
  8
250
  6
CONTINUOUS
 10
-77.77000000000055
 20
62.628333333333217
 30
0.0
 11
-80.000000000000554
 21
62.999999999999893
 31
0.0
  0
LINE
  5
4602
  8
250
  6
CONTINUOUS
 10
-77.77000000000055
 20
63.371666666666549
 30
0.0
 11
-80.000000000000554
 21
62.999999999999893
 31
0.0
  0
LINE
  5
4603
  8
250
  6
CONTINUOUS
 10
-80.000000000000554
 20
62.999999999999893
 30
0.0
 11
-77.77000000000055
 21
62.999999999999893
 31
0.0
  0
LINE
  5
4604
  8
250
  6
CONTINUOUS
 10
-2.2299999999996061
 20
63.371666666666549
 30
0.0
 11
0.0000000000003908
 21
62.999999999999893
 31
0.0
  0
LINE
  5
4605
  8
250
  6
CONTINUOUS
 10
-2.2299999999996061
 20
62.628333333333217
 30
0.0
 11
0.0000000000003908
 21
62.999999999999893
 31
0.0
  0
LINE
  5
4606
  8
250
  6
CONTINUOUS
 10
0.0000000000003908
 20
62.999999999999893
 30
0.0
 11
-2.2299999999996061
 21
62.999999999999893
 31
0.0
  0
LINE
  5
4607
  8
250
  6
CONTINUOUS
 10
2.2300000000003939
 20
62.628333333333217
 30
0.0
 11
0.0000000000003908
 21
62.999999999999893
 31
0.0
  0
LINE
  5
4608
  8
250
  6
CONTINUOUS
 10
2.2300000000003939
 20
63.371666666666549
 30
0.0
 11
0.0000000000003908
 21
62.999999999999893
 31
0.0
  0
LINE
  5
4609
  8
250
  6
CONTINUOUS
 10
0.0000000000003908
 20
62.999999999999893
 30
0.0
 11
2.2300000000003939
 21
62.999999999999893
 31
0.0
  0
LINE
  5
460A
  8
250
  6
CONTINUOUS
 10
49.769848289794609
 20
63.371666666666549
 30
0.0
 11
51.99984828979462
 21
62.999999999999893
 31
0.0
  0
LINE
  5
460B
  8
250
  6
CONTINUOUS
 10
49.769848289794609
 20
62.628333333333217
 30
0.0
 11
51.99984828979462
 21
62.999999999999893
 31
0.0
  0
LINE
  5
460C
  8
250
  6
CONTINUOUS
 10
51.99984828979462
 20
62.999999999999893
 30
0.0
 11
49.769848289794609
 21
62.999999999999893
 31
0.0
  0
LINE
  5
460D
  8
250
  6
CONTINUOUS
 10
83.628333333332733
 20
40.269999999999982
 30
0.0
 11
83.999999999999389
 21
42.499999999999979
 31
0.0
  0
LINE
  5
460E
  8
250
  6
CONTINUOUS
 10
84.371666666666073
 20
40.269999999999982
 30
0.0
 11
83.999999999999389
 21
42.499999999999979
 31
0.0
  0
LINE
  5
460F
  8
250
  6
CONTINUOUS
 10
83.999999999999389
 20
42.499999999999979
 30
0.0
 11
83.999999999999389
 21
40.269999999999982
 31
0.0
  0
LINE
  5
4613
  8
250
  6
CONTINUOUS
 10
76.628333333332733
 20
22.77
 30
0.0
 11
76.999999999999403
 21
25.0
 31
0.0
  0
LINE
  5
4614
  8
250
  6
CONTINUOUS
 10
77.371666666666044
 20
22.77
 30
0.0
 11
76.999999999999403
 21
25.0
 31
0.0
  0
LINE
  5
4615
  8
250
  6
CONTINUOUS
 10
76.999999999999403
 20
25.0
 30
0.0
 11
76.999999999999403
 21
22.77
 31
0.0
  0
ARC
  5
48F9
  8
241
  6
CONTINUOUS
 10
48.988056862642537
 20
-29.656422250679881
 30
0.0
 40
26.36494355589803
 50
174.1456572375123
 51
207.1817169750438
  0
ARC
  5
48FA
  8
241
  6
CONTINUOUS
 10
31.788909502456089
 20
-41.862843739943919
 30
0.0
 40
6.2562213944292271
 50
178.51122302636011
 51
258.71935921969458
  0
ARC
  5
48FB
  8
240
  6
CONTINUOUS
 10
28.44127285572414
 20
-33.8542412497412
 30
0.0
 40
14.30252463265788
 50
278.53961333277141
 51
310.05985911427712
  0
LINE
  5
490B
  8
240
  6
CONTINUOUS
 10
0.0000000000005542
 20
-29.499999999999972
 30
0.0
 11
9.000000000000405
 21
-29.500000000000028
 31
0.0
  0
LINE
  5
490C
  8
240
  6
CONTINUOUS
 10
0.0000000000005542
 20
-29.499999999999972
 30
0.0
 11
0.0000000000002274
 21
-21.000000000000039
 31
0.0
  0
LINE
  5
490D
  8
240
  6
CONTINUOUS
 10
9.0000000000004619
 20
29.500000000000121
 30
0.0
 11
0.0000000000005045
 21
29.500000000000181
 31
0.0
  0
LINE
  5
490E
  8
240
  6
CONTINUOUS
 10
-0.000000000000334
 20
21.000000000000011
 30
0.0
 11
0.0000000000005045
 21
29.500000000000181
 31
0.0
  0
ARC
  5
490F
  8
240
  6
CONTINUOUS
 10
9.0000000000004619
 20
30.50000000000011
 30
0.0
 40
1.0
 50
270.0
 51
0.0
  0
ARC
  5
4912
  8
240
  6
CONTINUOUS
 10
9.000000000000405
 20
-30.500000000000028
 30
0.0
 40
1.0
 50
0.0
 51
90.0
  0
LINE
  5
4913
  8
240
  6
CONTINUOUS
 10
10.000000000000449
 20
-30.500000000000028
 30
0.0
 11
10.000000000000449
 21
-32.500000000000028
 31
0.0
  0
LINE
  5
4917
  8
241
  6
CONTINUOUS
 10
10.000000000000449
 20
-30.500000000000028
 30
0.0
 11
10.00000000000046
 21
30.500000000000121
 31
0.0
  0
LINE
  5
495A
  8
250
  6
CONTINUOUS
 10
-56.303843654941161
 20
-22.745403317215139
 30
0.0
 11
-54.866970880000558
 21
-21.0
 31
0.0
  0
LINE
  5
495B
  8
250
  6
CONTINUOUS
 10
-55.660098104766483
 20
-23.117069983832891
 30
0.0
 11
-54.866970880000558
 21
-21.0
 31
0.0
  0
LINE
  5
495C
  8
250
  6
CONTINUOUS
 10
-54.866970880000558
 20
-21.0
 30
0.0
 11
-55.981970879853833
 21
-22.931236650524021
 31
0.0
  0
LINE
  5
495D
  8
250
  6
CONTINUOUS
 10
-55.981970879853833
 20
-22.931236650524021
 30
0.0
 11
-61.943933960000571
 21
-33.257659619999998
 31
0.0
1001
ACAD
1000
DSTYLE
1002
{
1070
     6
1000
OPEN
1070
   343
1005
594
1002
}
  0
TEXT
  5
495E
  8
250
  6
CONTINUOUS
 10
-74.477267290000583
 20
-32.257659619999998
 30
0.0
 40
2.7999999999999989
  1
ST42
  7
YOKO
1001
ITEMNAME
1000
LNSP3
  0
LINE
  5
495F
  8
250
  6
CONTINUOUS
 10
-61.943933960000571
 20
-33.257659619999998
 30
0.0
 11
-76.87726729000056
 21
-33.257659619999998
 31
0.0
1001
ITEMNAME
1000
LNSP2
  0
LINE
  5
4960
  8
247
  6
CONTINUOUS
 10
-70.250000000070571
 20
-15.0
 30
0.0
 11
-63.55769230803056
 21
-15.0
 31
0.0
  0
ARC
  5
4961
  8
247
  6
CONTINUOUS
 10
-70.250000000070571
 20
-13.250000000070029
 30
0.0
 40
1.7499999999299991
 50
90.0
 51
270.0
  0
ARC
  5
4962
  8
247
  6
CONTINUOUS
 10
-63.55769230803056
 20
-13.250000000070029
 30
0.0
 40
1.7499999999299991
 50
270.0
 51
90.0
  0
LINE
  5
4963
  8
247
  6
CONTINUOUS
 10
-69.384615384720576
 20
-11.50000000014006
 30
0.0
 11
-70.244851541962561
 21
-14.500000000020011
 31
0.0
  0
LINE
  5
4964
  8
247
  6
CONTINUOUS
 10
-68.484983818336389
 20
-12.92307692315989
 30
0.0
 11
-69.792676125976385
 21
-12.92307692315989
 31
0.0
  0
ARC
  5
4965
  8
247
  6
CONTINUOUS
 10
-68.145143816090354
 20
-12.04959866770286
 30
0.0
 40
0.5538165441895349
 50
342.9978896752952
 51
82.924166218513577
  0
ARC
  5
4966
  8
247
  6
CONTINUOUS
 10
-68.566878323029357
 20
-11.93603304446583
 30
0.0
 40
0.9904354236226808
 50
274.74293685220061
 51
343.84922627326603
1001
GENIUS_GENOBJ-N-FIL_13
1002
{
1000
OWNER
1000
GEN
1002
}
1001
GENIUS_GENODEF_13
1002
{
1000
HIER
1070
     0
1002
}
1002
{
1000
MANEDIT
1070
     0
1002
}
1002
{
1000
NOSEL
1070
     0
1002
}
1002
{
1000
BEHIND
1070
     0
1002
}
1002
{
1000
OTHER
1070
     0
1002
}
1002
{
1000
REACTOR
1002
}
  0
LINE
  5
4967
  8
247
  6
CONTINUOUS
 10
-68.937159234322593
 20
-14.500000000020011
 30
0.0
 11
-70.244851541962561
 21
-14.500000000020011
 31
0.0
  0
LINE
  5
4968
  8
247
  6
CONTINUOUS
 10
-69.384615384720576
 20
-11.50000000014006
 30
0.0
 11
-68.076923077080579
 21
-11.50000000014006
 31
0.0
  0
ARC
  5
4969
  8
247
  6
CONTINUOUS
 10
-68.560919636547538
 20
-13.482024232665481
 30
0.0
 40
0.5640818586791229
 50
335.99094165252143
 51
82.263443459069066
  0
ARC
  5
496A
  8
247
  6
CONTINUOUS
 10
-69.038262685347632
 20
-13.487429039186511
 30
0.0
 40
1.0176059446230981
 50
275.70198516425808
 51
347.27733843682262
1001
GENIUS_GENOBJ-N-FIL_13
1002
{
1000
OWNER
1000
GEN
1002
}
1001
GENIUS_GENODEF_13
1002
{
1000
HIER
1070
     0
1002
}
1002
{
1000
MANEDIT
1070
     0
1002
}
1002
{
1000
NOSEL
1070
     0
1002
}
1002
{
1000
BEHIND
1070
     0
1002
}
1002
{
1000
OTHER
1070
     0
1002
}
1002
{
1000
REACTOR
1002
}
  0
LINE
  5
496B
  8
247
  6
CONTINUOUS
 10
-67.28331308054257
 20
-14.500000000020011
 30
0.0
 11
-66.423076923300556
 21
-11.50000000014006
 31
0.0
  0
LINE
  5
496C
  8
247
  6
CONTINUOUS
 10
-64.000000000320568
 20
-11.50000000014006
 30
0.0
 11
-64.565736619457169
 21
-11.50000000014006
 31
0.0
  0
LINE
  5
496D
  8
247
  6
CONTINUOUS
 10
-65.461538461800558
 20
-14.500000000020011
 30
0.0
 11
-64.846153846440544
 21
-14.500000000020011
 31
0.0
  0
ARC
  5
496E
  8
247
  6
CONTINUOUS
 10
-63.708791209123419
 20
-13.58328513597337
 30
0.0
 40
2.2526500823422122
 50
112.3594881415311
 51
164.99324854284589
  0
ARC
  5
496F
  8
247
  6
CONTINUOUS
 10
-64.374069479213802
 20
-12.308312655194641
 30
0.0
 40
0.8906723995727782
 50
4.9945893190752164
 51
65.166328957300493
1001
GENIUS_GENOBJ-N-FIL_13
1002
{
1000
OWNER
1000
GEN
1002
}
1001
GENIUS_GENODEF_13
1002
{
1000
HIER
1070
     0
1002
}
1002
{
1000
MANEDIT
1070
     0
1002
}
1002
{
1000
NOSEL
1070
     0
1002
}
1002
{
1000
BEHIND
1070
     0
1002
}
1002
{
1000
OTHER
1070
     0
1002
}
1002
{
1000
REACTOR
1002
}
  0
ARC
  5
4970
  8
247
  6
CONTINUOUS
 10
-65.226458886213152
 20
-13.160145888667779
 30
0.0
 40
1.392781735586712
 50
285.84609655578072
 51
352.32513700416268
  0
ARC
  5
4971
  8
247
  6
CONTINUOUS
 10
-64.642212725840949
 20
-13.45924343152728
 30
0.0
 40
1.324563662670287
 50
159.71360167049059
 51
231.7887456564132
1001
GENIUS_GENOBJ-N-FIL_13
1002
{
1000
OWNER
1000
GEN
1002
}
1001
GENIUS_GENODEF_13
1002
{
1000
HIER
1070
     0
1002
}
1002
{
1000
MANEDIT
1070
     0
1002
}
1002
{
1000
NOSEL
1070
     0
1002
}
1002
{
1000
BEHIND
1070
     0
1002
}
1002
{
1000
OTHER
1070
     0
1002
}
1002
{
1000
REACTOR
1002
}
  0
LINE
  5
4972
  8
247
  6
CONTINUOUS
 10
-64.538461538760572
 20
-13.34615384621997
 30
0.0
 11
-63.846153846480568
 21
-13.34615384621997
 31
0.0
  0
LINE
  5
4973
  8
247
  6
CONTINUOUS
 10
-70.2500000000706
 20
-11.50000000014006
 30
0.0
 11
-69.576923077020638
 21
-11.50000000014006
 31
0.0
  0
VIEWPORT
  5
22
 67
     1
  8
0
 10
261.51769911504419
 20
148.5
 30
0.0
 40
523.0353982300885
 41
297.0
 68
     1
 69
     1
1001
ACAD
1000
MVIEW
1002
{
1070
    16
1010
0.0
1020
0.0
1030
0.0
1010
0.0
1020
0.0
1030
1.0
1040
0.0
1040
297.0
1040
261.51769911504419
1040
148.5
1040
50.0
1040
0.0
1040
0.0
1070
     0
1070
   100
1070
     1
1070
     1
1070
     0
1070
     0
1070
     0
1070
     0
1040
0.0
1040
0.0
1040
0.0
1040
1.0
1040
1.0
1040
10.0
1040
10.0
1070
     0
1002
{
1002
}
1002
}
1001
GENIUS_GENODEF_13
1002
{
1000
HIER
1070
     0
1002
}
1002
{
1000
MANEDIT
1070
     0
1002
}
1002
{
1000
NOSEL
1070
     0
1002
}
1002
{
1000
BEHIND
1070
     0
1002
}
1002
{
1000
OTHER
1070
     0
1002
}
1002
{
1000
REACTOR
1002
}
1001
GENIUS_GENOBJ-N-SDF_13
1002
{
1000
OWNER
1000
GEN
1002
}
1001
GENIUS_GENSCREG_15
1000
PF
1040
1.0
1000
DF
1040
1.0
1000
MIN
1011
0.0
1021
0.0
1031
0.0
1021
0.0
1031
0.0
1000
MAX
1011
523.0353982300885
1021
0.0
1031
0.0
1021
297.0
1031
0.0
1000
FLAGS
1070
     4
  0
ENDSEC
  0
EOF
