  0
SECTION
  2
HEADER
  9
$ACADVER
  1
AC1009
  9
$INSBASE
 10
0.0
 20
0.0
 30
0.0
  9
$EXTMIN
 10
-102.0250704773036
 20
-47.007875251166517
 30
0.0
  9
$EXTMAX
 10
91.99998464102012
 20
81.03178145756803
 30
0.0
  9
$LIMMIN
 10
0.0
 20
0.0
  9
$LIMMAX
 10
297.0
 20
210.0
  9
$ORTHOMODE
 70
     0
  9
$REGENMODE
 70
     1
  9
$FILLMODE
 70
     1
  9
$QTEXTMODE
 70
     0
  9
$MIRRTEXT
 70
     1
  9
$DRAGMODE
 70
     2
  9
$LTSCALE
 40
10.0
  9
$OSMODE
 70
    37
  9
$ATTMODE
 70
     1
  9
$TEXTSIZE
 40
3.0
  9
$TRACEWID
 40
1.0
  9
$TEXTSTYLE
  7
YOKO
  9
$CLAYER
  8
240
  9
$CELTYPE
  6
BYLAYER
  9
$CECOLOR
 62
   256
  9
$DIMSCALE
 40
1.0
  9
$DIMASZ
 40
2.2299999999999991
  9
$DIMEXO
 40
0.5
  9
$DIMDLI
 40
7.0
  9
$DIMRND
 40
0.0
  9
$DIMDLE
 40
0.0
  9
$DIMEXE
 40
1.0
  9
$DIMTP
 40
0.0
  9
$DIMTM
 40
0.01
  9
$DIMTXT
 40
2.799999999999998
  9
$DIMCEN
 40
0.0
  9
$DIMTSZ
 40
0.0
  9
$DIMTOL
 70
     0
  9
$DIMLIM
 70
     0
  9
$DIMTIH
 70
     0
  9
$DIMTOH
 70
     0
  9
$DIMSE1
 70
     0
  9
$DIMSE2
 70
     0
  9
$DIMTAD
 70
     3
  9
$DIMZIN
 70
     9
  9
$DIMBLK
  1
OPEN
  9
$DIMASO
 70
     1
  9
$DIMSHO
 70
     1
  9
$DIMPOST
  1

  9
$DIMAPOST
  1

  9
$DIMALT
 70
     0
  9
$DIMALTD
 70
     2
  9
$DIMALTF
 40
25.399999999999999
  9
$DIMLFAC
 40
1.0
  9
$DIMTOFL
 70
     1
  9
$DIMTVP
 40
0.0
  9
$DIMTIX
 70
     1
  9
$DIMSOXD
 70
     0
  9
$DIMSAH
 70
     0
  9
$DIMBLK1
  1

  9
$DIMBLK2
  1

  9
$DIMSTYLE
  2
BIGT
  9
$DIMCLRD
 70
   256
  9
$DIMCLRE
 70
   256
  9
$DIMCLRT
 70
    40
  9
$DIMTFAC
 40
1.0
  9
$DIMGAP
 40
1.0
  9
$LUNITS
 70
     2
  9
$LUPREC
 70
     6
  9
$SKETCHINC
 40
1.0
  9
$FILLETRAD
 40
0.0
  9
$AUNITS
 70
     0
  9
$AUPREC
 70
     6
  9
$MENU
  1
.
  9
$ELEVATION
 40
0.0
  9
$PELEVATION
 40
0.0
  9
$THICKNESS
 40
0.0
  9
$LIMCHECK
 70
     0
  9
$BLIPMODE
 70
     0
  9
$CHAMFERA
 40
0.2
  9
$CHAMFERB
 40
0.2
  9
$SKPOLY
 70
     0
  9
$TDCREATE
 40
2457654.586686065
  9
$TDUPDATE
 40
2457655.4277538308
  9
$TDINDWG
 40
0.0126704745
  9
$TDUSRTIMER
 40
0.0126704282
  9
$USRTIMER
 70
     1
  9
$ANGBASE
 50
0.0
  9
$ANGDIR
 70
     0
  9
$PDMODE
 70
     1
  9
$PDSIZE
 40
0.0
  9
$PLINEWID
 40
0.0
  9
$COORDS
 70
     1
  9
$SPLFRAME
 70
     0
  9
$SPLINETYPE
 70
     6
  9
$SPLINESEGS
 70
     4
  9
$ATTDIA
 70
     1
  9
$ATTREQ
 70
     1
  9
$HANDLING
 70
     1
  9
$HANDSEED
  5
49CE
  9
$SURFTAB1
 70
     6
  9
$SURFTAB2
 70
     6
  9
$SURFTYPE
 70
     6
  9
$SURFU
 70
     6
  9
$SURFV
 70
     6
  9
$UCSNAME
  2

  9
$UCSORG
 10
0.0
 20
0.0
 30
0.0
  9
$UCSXDIR
 10
1.0
 20
0.0
 30
0.0
  9
$UCSYDIR
 10
0.0
 20
1.0
 30
0.0
  9
$PUCSNAME
  2

  9
$PUCSORG
 10
0.0
 20
0.0
 30
0.0
  9
$PUCSXDIR
 10
1.0
 20
0.0
 30
0.0
  9
$PUCSYDIR
 10
0.0
 20
1.0
 30
0.0
  9
$USERI1
 70
     1
  9
$USERI2
 70
     0
  9
$USERI3
 70
     0
  9
$USERI4
 70
     0
  9
$USERI5
 70
     0
  9
$USERR1
 40
0.0
  9
$USERR2
 40
0.0
  9
$USERR3
 40
0.0
  9
$USERR4
 40
0.0
  9
$USERR5
 40
0.0
  9
$WORLDVIEW
 70
     1
  9
$SHADEDGE
 70
     3
  9
$SHADEDIF
 70
    70
  9
$TILEMODE
 70
     1
  9
$MAXACTVP
 70
    16
  9
$PLIMCHECK
 70
     0
  9
$PEXTMIN
 10
1.0000000000000000E+020
 20
1.0000000000000000E+020
 30
1.0000000000000000E+020
  9
$PEXTMAX
 10
-1.0000000000000000E+020
 20
-1.0000000000000000E+020
 30
-1.0000000000000000E+020
  9
$PLIMMIN
 10
0.0
 20
0.0
  9
$PLIMMAX
 10
420.0
 20
297.0
  9
$UNITMODE
 70
     0
  9
$VISRETAIN
 70
     1
  9
$PLINEGEN
 70
     0
  9
$PSLTSCALE
 70
     1
  0
ENDSEC
  0
SECTION
  2
TABLES
  0
TABLE
  2
VPORT
 70
     1
  0
VPORT
  2
*ACTIVE
 70
     0
 10
0.0
 20
0.0
 11
1.0
 21
1.0
 12
-16.588480834240269
 22
17.076666449901449
 13
0.0
 23
0.0
 14
7.0
 24
7.0
 15
7.0
 25
7.0
 16
0.0
 26
0.0
 36
1.0
 17
0.0
 27
0.0
 37
0.0
 40
206.15613720427959
 41
1.5537280701754379
 42
50.0
 43
0.0
 44
0.0
 50
0.0
 51
0.0
 71
     0
 72
  2000
 73
     1
 74
     0
 75
     0
 76
     1
 77
     0
 78
     0
  0
ENDTAB
  0
TABLE
  2
LTYPE
 70
    21
  0
LTYPE
  2
CONTINUOUS
 70
     0
  3
Solid line
 72
    65
 73
     0
 40
0.0
  0
LTYPE
  2
CENTER2
 70
     0
  3
___ _ ___ _ ___ _ ___ _ ___ _ ___ _ ___ _ ___ _
 72
    65
 73
     4
 40
1.125
 49
0.75
 49
-0.125
 49
0.125
 49
-0.125
  0
LTYPE
  2
HIDDEN2
 70
     0
  3
_ _ _ _ _ _ _ _ _ _ _ _ _ _ _ _ _ _ _ _ _ _ _ _
 72
    65
 73
     2
 40
0.1875
 49
0.125
 49
-0.0625
  0
LTYPE
  2
PHANTOM2
 70
     0
  3
___ _ _ ___ _ _ ___ _ _ ___ _ _ ___ _ _ ___ _ _
 72
    65
 73
     6
 40
1.25
 49
0.625
 49
-0.125
 49
0.125
 49
-0.125
 49
0.125
 49
-0.125
  0
LTYPE
  2
AMCONSTR
 70
     0
  3
_______________________
 72
    65
 73
     2
 40
9999.0
 49
9999.0
 49
0.0
  0
LTYPE
  2
HIDDEN
 70
     0
  3
Hidden __ __ __ __ __ __ __ __ __ __ __ __ __ _
 72
    65
 73
     2
 40
0.375
 49
0.25
 49
-0.125
  0
LTYPE
  2
CENTER
 70
     0
  3
Center ____ _ ____ _ ____ _ ____ _ ____ _ ____
 72
    65
 73
     4
 40
2.0
 49
1.25
 49
-0.25
 49
0.25
 49
-0.25
  0
LTYPE
  2
AMZIGZAG2
 70
     0
  3
/\/-/\/-/\/-/\/-/\/-/\/
 72
    65
 73
     2
 40
0.4401
 49
0.0001
 49
-0.4400000000000001
  0
LTYPE
  2
ACANSTGB
 70
     0
  3
__ . . __ . .
 72
    65
 73
     6
 40
0.35433070866
 49
0.15748031496
 49
-0.03937007874
 49
0.03937007874
 49
-0.03937007874
 49
0.03937007874
 49
-0.03937007874
  0
LTYPE
  2
ACANSTGL
 70
     0
  3
_ _ _ _ _
 72
    65
 73
     2
 40
0.11811023622
 49
0.07874015748
 49
-0.03937007874
  0
ENDTAB
  0
TABLE
  2
LAYER
 70
     8
  0
LAYER
  2
0
 70
     0
 62
     7
  6
CONTINUOUS
  0
LAYER
  2
240
 70
     0
 62
     4
  6
CONTINUOUS
  0
LAYER
  2
DEFPOINTS
 70
     0
 62
     7
  6
CONTINUOUS
  0
LAYER
  2
245
 70
     0
 62
     2
  6
CENTER2
  0
LAYER
  2
241
 70
     0
 62
   211
  6
CONTINUOUS
  0
LAYER
  2
247
 70
     0
 62
    60
  6
CONTINUOUS
  0
LAYER
  2
250
 70
     0
 62
     3
  6
CONTINUOUS
  0
ENDTAB
  0
TABLE
  2
STYLE
 70
    10
  0
STYLE
  2
STANDARD
 70
     0
 40
0.0
 41
1.0
 50
0.0
 71
     0
 42
3.0
  3
romans.shx
  4
extfont.shx
  0
STYLE
  2
YOKO
 70
     0
 40
0.0
 41
1.0
 50
0.0
 71
     0
 42
3.0
  3
romans.shx
  4
extfont.shx
  0
STYLE
  2

 70
     1
 40
0.0
 41
1.0
 50
0.0
 71
     0
 42
3.0
  3
genltshp.shx
  4

  0
STYLE
  2
ACANSGDT
 70
     0
 40
0.0
 41
1.0
 50
0.0
 71
     0
 42
3.0
  3
amgdt.shx
  4

  0
ENDTAB
  0
TABLE
  2
VIEW
 70
     0
  0
ENDTAB
  0
TABLE
  2
UCS
 70
     0
  0
ENDTAB
  0
TABLE
  2
APPID
 70
    39
  0
APPID
  2
ACAD
 70
     0
  0
APPID
  2
ACADANNOTATIVE
 70
     0
  0
APPID
  2
GLOBAL
 70
     0
  0
APPID
  2
DETAIL
 70
     0
  0
APPID
  2
GRPNAME
 70
     0
  0
APPID
  2
GPARA
 70
     0
  0
APPID
  2
MCAD_NO_VIS
 70
     0
  0
APPID
  2
ACAD_TEMP_GRAPHIC
 70
     0
  0
APPID
  2
ACATTRIBSERVICES
 70
     0
  0
APPID
  2
GENIUS_GENSCREG_15
 70
     0
  0
APPID
  2
GENIUS_GENODEF_13
 70
     0
  0
APPID
  2
GENIUS_GENOBJ-N-SDF_13
 70
     0
  0
APPID
  2
GENIUS_GENREC_14
 70
     0
  0
APPID
  2
GENIUS_GENOBJ-N-REC_13
 70
     0
  0
APPID
  2
GENIUS_GENDIMSH_14
 70
     0
  0
APPID
  2
GENIUS_GENOBJ-N-DIM_13
 70
     0
  0
APPID
  2
GENIUS_GENDIM_13
 70
     0
  0
APPID
  2
GENIUS_GENDTOL_13
 70
     0
  0
APPID
  2
GENIUS_GENOLIS_13
 70
     0
  0
APPID
  2
GENIUS_GENOENT_13
 70
     0
  0
APPID
  2
GENIUS_GENOBJ-F-FEM_13
 70
     0
  0
APPID
  2
GENIUS_GENOREF_13
 70
     0
  0
APPID
  2
GENIUS_GEFFEM_13
 70
     0
  0
APPID
  2
GENIUS_GEFFEMP_13
 70
     0
  0
APPID
  2
AD_DRAW
 70
     0
  0
APPID
  2
DESIGNERASSEMBLIES
 70
     0
  0
APPID
  2
ACADM_DIM_EDIT
 70
     0
  0
APPID
  2
AMDT_DM_ADJ
 70
     0
  0
APPID
  2
ITEMNAME
 70
     0
  0
APPID
  2
GENIUS_GENOBJ-N-FIL_13
 70
     0
  0
APPID
  2
GENIUS_GENFIL_13
 70
     0
  0
APPID
  2
GENIUS_GENOBJ-N-CHA_13
 70
     0
  0
APPID
  2
ACAD_NAV_VCDISPLAY
 70
     0
  0
APPID
  2
ACAECLAYERSTANDARD
 70
     0
  0
APPID
  2
ACAD_PSEXT
 70
     0
  0
APPID
  2
ACAD_MLEADERVER
 70
     0
  0
APPID
  2
ACAD_EXEMPT_FROM_CAD_STANDARDS
 70
     0
  0
APPID
  2
ACAD_DSTYLE_DIMJAG
 70
     0
  0
APPID
  2
ACAD_DSTYLE_DIMBREAK
 70
     0
  0
ENDTAB
  0
TABLE
  2
DIMSTYLE
 70
    31
  0
DIMSTYLE
  2
STANDARD
 70
     0
  3

  4

  5

  6

  7

 40
1.0
 41
0.18
 42
0.0625
 43
0.38
 44
0.18
 45
0.0
 46
0.0
 47
0.0
 48
0.0
140
0.18
141
0.09
142
0.0
143
25.399999999999999
144
1.0
145
0.0
146
1.0
147
0.09
 71
     0
 72
     0
 73
     1
 74
     1
 75
     0
 76
     0
 77
     0
 78
     0
170
     0
171
     2
172
     0
173
     0
174
     0
175
     0
176
     0
177
     0
178
     0
  0
DIMSTYLE
  2
BIGT
 70
     0
  3

  4

  5

  6

  7

 40
1.0
 41
2.2299999999999991
 42
0.5
 43
7.0
 44
1.0
 45
0.0
 46
0.0
 47
0.0
 48
0.01
140
2.799999999999998
141
0.0
142
0.0
143
25.399999999999999
144
1.0
145
0.0
146
1.0
147
1.0
 71
     0
 72
     0
 73
     0
 74
     0
 75
     0
 76
     0
 77
     3
 78
     9
170
     0
171
     2
172
     1
173
     0
174
     1
175
     0
176
   256
177
   256
178
    40
  0
DIMSTYLE
  2
AM_ANSI
 70
     0
  3

  4
mm
  5

  6

  7

 40
1.0
 41
0.12
 42
0.05
 43
0.5
 44
0.1
 45
0.0
 46
0.0
 47
0.1
 48
0.1
140
0.12
141
0.0
142
0.0
143
25.399999999999999
144
1.0
145
0.0
146
0.71
147
0.06
 71
     0
 72
     0
 73
     1
 74
     1
 75
     0
 76
     0
 77
     0
 78
     7
170
     0
171
     2
172
     0
173
     0
174
     0
175
     0
176
   256
177
   256
178
     2
  0
DIMSTYLE
  2
AM_ANSI$3
 70
     0
  3

  4
mm
  5

  6

  7

 40
1.0
 41
0.12
 42
0.05
 43
0.5
 44
0.1
 45
0.0
 46
0.0
 47
0.1
 48
0.1
140
0.12
141
0.0
142
0.0
143
25.399999999999999
144
1.0
145
0.0
146
0.71
147
0.06
 71
     0
 72
     0
 73
     1
 74
     1
 75
     0
 76
     0
 77
     0
 78
     7
170
     0
171
     2
172
     0
173
     0
174
     0
175
     0
176
   256
177
   256
178
     2
  0
DIMSTYLE
  2
AM_ANSI$4
 70
     0
  3

  4
mm
  5

  6

  7

 40
1.0
 41
0.12
 42
0.05
 43
0.5
 44
0.1
 45
0.0
 46
0.0
 47
0.1
 48
0.1
140
0.12
141
0.0
142
0.0
143
25.399999999999999
144
1.0
145
0.0
146
0.71
147
0.06
 71
     0
 72
     0
 73
     1
 74
     1
 75
     0
 76
     0
 77
     0
 78
     7
170
     0
171
     2
172
     0
173
     0
174
     0
175
     0
176
   256
177
   256
178
     2
  0
DIMSTYLE
  2
AM_ANSI$7
 70
     0
  3

  4
mm
  5

  6

  7

 40
1.0
 41
0.12
 42
0.05
 43
0.5
 44
0.1
 45
0.0
 46
0.0
 47
0.1
 48
0.1
140
0.12
141
0.0
142
0.0
143
25.399999999999999
144
1.0
145
0.0
146
0.71
147
0.06
 71
     0
 72
     0
 73
     1
 74
     1
 75
     0
 76
     0
 77
     0
 78
     7
170
     0
171
     2
172
     0
173
     0
174
     0
175
     0
176
   256
177
   256
178
     2
  0
DIMSTYLE
  2
AM_ANSI$SF
 70
     0
  3

  4
mm
  5

  6

  7

 40
1.0
 41
0.12
 42
0.05
 43
0.5
 44
0.1
 45
0.0
 46
0.0
 47
0.1
 48
0.1
140
0.12
141
0.0
142
0.0
143
25.399999999999999
144
1.0
145
0.0
146
0.71
147
0.06
 71
     0
 72
     0
 73
     1
 74
     1
 75
     1
 76
     1
 77
     0
 78
     7
170
     0
171
     2
172
     0
173
     0
174
     0
175
     0
176
   256
177
   256
178
     2
  0
DIMSTYLE
  2
AM_ANSI$SH
 70
     0
  3

  4
mm
  5

  6
GENAXEH
  7

 40
1.0
 41
0.12
 42
0.05
 43
0.5
 44
0.1
 45
0.0
 46
0.0
 47
0.1
 48
0.1
140
0.12
141
0.0
142
0.0
143
25.399999999999999
144
1.0
145
0.0
146
0.71
147
0.06
 71
     0
 72
     0
 73
     1
 74
     1
 75
     1
 76
     1
 77
     0
 78
     7
170
     0
171
     2
172
     0
173
     1
174
     0
175
     0
176
   256
177
   256
178
     2
  0
ENDTAB
  0
ENDSEC
  0
SECTION
  2
BLOCKS
  0
BLOCK
  8
0
  2
$MODEL_SPACE
 70
     0
 10
0.0
 20
0.0
 30
0.0
  3
$MODEL_SPACE
  1

  0
ENDBLK
  5
4893
  8
0
  0
BLOCK
 67
     1
  8
0
  2
$PAPER_SPACE
 70
     0
 10
0.0
 20
0.0
 30
0.0
  3
$PAPER_SPACE
  1

  0
ENDBLK
  5
488F
 67
     1
  8
0
  0
BLOCK
  8
0
  2
_OPEN
 70
     0
 10
0.0
 20
0.0
 30
0.0
  3
_OPEN
  1

  0
LINE
  5
4727
  8
0
  6
BYBLOCK
 62
     0
 10
-1.0
 20
0.1666666666666666
 30
0.0
 11
0.0
 21
0.0
 31
0.0
  0
LINE
  5
4728
  8
0
  6
BYBLOCK
 62
     0
 10
-1.0
 20
-0.1666666666666666
 30
0.0
 11
0.0
 21
0.0
 31
0.0
  0
LINE
  5
4729
  8
0
  6
BYBLOCK
 62
     0
 10
0.0
 20
0.0
 30
0.0
 11
-1.0
 21
0.0
 31
0.0
  0
ENDBLK
  5
472A
  8
0
  0
BLOCK
  8
0
  2
GENAXEH
 70
     0
 10
0.0
 20
0.0
 30
0.0
  3
GENAXEH
  1

  0
LINE
  5
4762
  8
0
 10
-1.0
 20
0.0
 30
0.0
 11
1.0
 21
0.0
 31
0.0
  0
ENDBLK
  5
4763
  8
0
  0
BLOCK
  8
0
  2
_ACMFILLEDHALF
 70
     0
 10
0.0
 20
0.0
 30
0.0
  3
_ACMFILLEDHALF
  1

  0
TRACE
  5
4954
  8
240
 62
     0
 10
-0.8
 20
0.0
 30
0.0
 11
-1.0
 21
0.166666666
 31
0.0
 12
0.0
 22
0.0
 32
0.0
 13
0.0
 23
0.0
 33
0.0
  0
LINE
  5
4955
  8
240
 62
     0
 10
-1.0
 20
0.0
 30
0.0
 11
-0.8
 21
0.0
 31
0.0
  0
ENDBLK
  5
4953
  8
0
  0
ENDSEC
  0
SECTION
  2
ENTITIES
  0
TEXT
  5
426D
  8
241
  6
CONTINUOUS
 10
-84.000000000000028
 20
77.0
 30
0.0
 40
4.0
  1
ST42-C50100C
  7
YOKO
 11
-84.000000000000028
 21
77.0
 31
0.0
 73
     1
  0
LINE
  5
4270
  8
250
  6
CONTINUOUS
 10
44.33968091546938
 20
50.0
 30
0.0
 11
91.99998464102012
 21
50.0
 31
0.0
  0
LINE
  5
4271
  8
250
  6
CONTINUOUS
 10
90.999984641020134
 20
47.770000000000003
 30
0.0
 11
90.999984641020134
 21
-6.2142876639387508
 31
0.0
  0
LINE
  5
4272
  8
250
  6
CONTINUOUS
 10
69.339659782776863
 20
25.0
 30
0.0
 11
84.999994470766907
 21
25.0
 31
0.0
  0
LINE
  5
4273
  8
250
  6
CONTINUOUS
 10
83.999994470766936
 20
22.769999999999989
 30
0.0
 11
83.999994470766907
 21
-4.7857159276567431
 31
0.0
  0
LINE
  5
4274
  8
250
  6
CONTINUOUS
 10
-0.0000000000000568
 20
32.0
 30
0.0
 11
-0.0000000000000568
 21
64.0
 31
0.0
  0
LINE
  5
4275
  8
250
  6
CONTINUOUS
 10
69.999999999999915
 20
24.008289000000001
 30
0.0
 11
69.999999999999915
 21
64.0
 31
0.0
  0
LINE
  5
4276
  8
250
  6
CONTINUOUS
 10
2.2299999999999471
 20
63.0
 30
0.0
 11
67.769999999999953
 21
63.0
 31
0.0
  0
LINE
  5
4277
  8
250
  6
CONTINUOUS
 10
-80.000000000000028
 20
21.5
 30
0.0
 11
-80.000000000000057
 21
64.0
 31
0.0
  0
LINE
  5
4278
  8
250
  6
CONTINUOUS
 10
-0.0000000000000568
 20
30.0
 30
0.0
 11
-0.0000000000000568
 21
64.0
 31
0.0
  0
LINE
  5
4279
  8
250
  6
CONTINUOUS
 10
-77.770000000000067
 20
63.0
 30
0.0
 11
-2.230000000000059
 21
63.0
 31
0.0
  0
LINE
  5
427A
  8
250
  6
CONTINUOUS
 10
-80.499999999999886
 20
-21.0
 30
0.0
 11
-99.000000000000057
 21
-21.0
 31
0.0
  0
LINE
  5
427B
  8
250
  6
CONTINUOUS
 10
-80.499999999999886
 20
21.0
 30
0.0
 11
-99.000000000000057
 21
21.0
 31
0.0
  0
LINE
  5
427C
  8
250
  6
CONTINUOUS
 10
-98.000000000000043
 20
-18.77
 30
0.0
 11
-98.000000000000043
 21
18.77
 31
0.0
  0
TEXT
  5
427D
  8
250
  6
CONTINUOUS
 10
-99.000000000000057
 20
-4.071428571428596
 30
0.0
 40
3.0
  1
\U+2205
 50
90.0
1001
ACAD
1000
MTEXTBEGIN
1070
    73
1070
     1
1070
    44
1040
1.0
1070
    74
1070
     0
1000
MTEXTEND
  0
TEXT
  5
427E
  8
250
  6
CONTINUOUS
 10
-99.000000000000057
 20
-1.3571428571428821
 30
0.0
 40
3.0
  1
42
 50
90.0
1001
ACAD
1000
MTEXTBEGIN
1070
    73
1070
     1
1070
    44
1040
1.0
1070
    74
1070
     0
1000
MTEXTEND
  0
LINE
  5
427F
  8
250
  6
CONTINUOUS
 10
-98.371666666666712
 20
18.77
 30
0.0
 11
-98.000000000000043
 21
21.0
 31
0.0
  0
LINE
  5
4280
  8
250
  6
CONTINUOUS
 10
-97.628333333333401
 20
18.77
 30
0.0
 11
-98.000000000000043
 21
21.0
 31
0.0
  0
LINE
  5
4281
  8
250
  6
CONTINUOUS
 10
-98.000000000000043
 20
21.0
 30
0.0
 11
-98.000000000000043
 21
18.77
 31
0.0
  0
LINE
  5
4282
  8
250
  6
CONTINUOUS
 10
-97.628333333333401
 20
-18.769999999999989
 30
0.0
 11
-98.000000000000043
 21
-21.0
 31
0.0
  0
LINE
  5
4283
  8
250
  6
CONTINUOUS
 10
-98.371666666666712
 20
-18.769999999999989
 30
0.0
 11
-98.000000000000043
 21
-21.0
 31
0.0
  0
LINE
  5
4284
  8
250
  6
CONTINUOUS
 10
-98.000000000000043
 20
-21.0
 30
0.0
 11
-98.000000000000043
 21
-18.769999999999989
 31
0.0
  0
TEXT
  5
4285
  8
250
  6
CONTINUOUS
 10
-42.85714285714284
 20
64.0
 30
0.0
 40
3.0
  1
80
1001
ACAD
1000
MTEXTBEGIN
1070
    73
1070
     1
1070
    44
1040
1.0
1070
    74
1070
     0
1000
MTEXTEND
  0
LINE
  5
4286
  8
250
  6
CONTINUOUS
 10
-2.230000000000059
 20
63.37166666666667
 30
0.0
 11
-0.0000000000000568
 21
63.0
 31
0.0
  0
LINE
  5
4287
  8
250
  6
CONTINUOUS
 10
-2.230000000000059
 20
62.62833333333333
 30
0.0
 11
-0.0000000000000568
 21
63.0
 31
0.0
  0
LINE
  5
4288
  8
250
  6
CONTINUOUS
 10
-0.0000000000000568
 20
63.0
 30
0.0
 11
-2.230000000000059
 21
63.0
 31
0.0
  0
LINE
  5
4289
  8
250
  6
CONTINUOUS
 10
-77.770000000000067
 20
62.62833333333333
 30
0.0
 11
-80.000000000000057
 21
63.0
 31
0.0
  0
LINE
  5
428A
  8
250
  6
CONTINUOUS
 10
-77.770000000000067
 20
63.37166666666667
 30
0.0
 11
-80.000000000000057
 21
63.0
 31
0.0
  0
LINE
  5
428B
  8
250
  6
CONTINUOUS
 10
-80.000000000000057
 20
63.0
 30
0.0
 11
-77.770000000000067
 21
63.0
 31
0.0
  0
TEXT
  5
428C
  8
250
  6
CONTINUOUS
 10
32.142857142857082
 20
64.0
 30
0.0
 40
3.0
  1
70
1001
ACAD
1000
MTEXTBEGIN
1070
    73
1070
     1
1070
    44
1040
1.0
1070
    74
1070
     0
1000
MTEXTEND
  0
LINE
  5
428D
  8
250
  6
CONTINUOUS
 10
67.769999999999953
 20
63.37166666666667
 30
0.0
 11
69.999999999999915
 21
63.0
 31
0.0
  0
LINE
  5
428E
  8
250
  6
CONTINUOUS
 10
67.769999999999953
 20
62.62833333333333
 30
0.0
 11
69.999999999999915
 21
63.0
 31
0.0
  0
LINE
  5
428F
  8
250
  6
CONTINUOUS
 10
69.999999999999915
 20
63.0
 30
0.0
 11
67.769999999999953
 21
63.0
 31
0.0
  0
LINE
  5
4290
  8
250
  6
CONTINUOUS
 10
2.2299999999999471
 20
62.62833333333333
 30
0.0
 11
-0.0000000000000568
 21
63.0
 31
0.0
  0
LINE
  5
4291
  8
250
  6
CONTINUOUS
 10
2.2299999999999471
 20
63.37166666666667
 30
0.0
 11
-0.0000000000000568
 21
63.0
 31
0.0
  0
LINE
  5
4292
  8
250
  6
CONTINUOUS
 10
-0.0000000000000568
 20
63.0
 30
0.0
 11
2.2299999999999471
 21
63.0
 31
0.0
  0
TEXT
  5
4293
  8
250
  6
CONTINUOUS
 10
82.999994470766907
 20
-4.071430213371027
 30
0.0
 40
3.0
  1
\U+2205
 50
90.0
1001
ACAD
1000
MTEXTBEGIN
1070
    73
1070
     1
1070
    44
1040
1.0
1070
    74
1070
     0
1000
MTEXTEND
  0
TEXT
  5
4294
  8
250
  6
CONTINUOUS
 10
82.999994470766907
 20
-1.3571444990853141
 30
0.0
 40
3.0
  1
50
 50
90.0
1001
ACAD
1000
MTEXTBEGIN
1070
    73
1070
     1
1070
    44
1040
1.0
1070
    74
1070
     0
1000
MTEXTEND
  0
LINE
  5
4295
  8
250
  6
CONTINUOUS
 10
83.628327804100266
 20
22.77000000000001
 30
0.0
 11
83.999994470766936
 21
25.0
 31
0.0
  0
LINE
  5
4296
  8
250
  6
CONTINUOUS
 10
84.371661137433577
 20
22.77000000000001
 30
0.0
 11
83.999994470766936
 21
25.0
 31
0.0
  0
LINE
  5
4297
  8
250
  6
CONTINUOUS
 10
83.999994470766936
 20
25.0
 30
0.0
 11
83.999994470766936
 21
22.77000000000001
 31
0.0
  0
TEXT
  5
4298
  8
250
  6
CONTINUOUS
 10
89.999984641020092
 20
-5.5000019496530337
 30
0.0
 40
3.0
  1
\U+2205
 50
90.0
1001
ACAD
1000
MTEXTBEGIN
1070
    73
1070
     1
1070
    44
1040
1.0
1070
    74
1070
     0
1000
MTEXTEND
  0
TEXT
  5
4299
  8
250
  6
CONTINUOUS
 10
89.999984641020092
 20
-2.7857162353673202
 30
0.0
 40
3.0
  1
100
 50
90.0
1001
ACAD
1000
MTEXTBEGIN
1070
    73
1070
     1
1070
    44
1040
1.0
1070
    74
1070
     0
1000
MTEXTEND
  0
LINE
  5
429A
  8
250
  6
CONTINUOUS
 10
90.62831797435345
 20
47.77000000000001
 30
0.0
 11
90.999984641020134
 21
50.0
 31
0.0
  0
LINE
  5
429B
  8
250
  6
CONTINUOUS
 10
91.371651307686776
 20
47.77000000000001
 30
0.0
 11
90.999984641020134
 21
50.0
 31
0.0
  0
LINE
  5
429C
  8
250
  6
CONTINUOUS
 10
90.999984641020134
 20
50.0
 30
0.0
 11
90.999984641020134
 21
47.77000000000001
 31
0.0
  0
LINE
  5
42A1
  8
240
  6
CONTINUOUS
 10
-0.0000000000004974
 20
21.000000000000011
 30
0.0
 11
-79.999999999999844
 21
21.0
 31
0.0
  0
LINE
  5
42A2
  8
240
  6
CONTINUOUS
 10
0.0000000000001137
 20
-21.0
 30
0.0
 11
-79.999999999999844
 21
-21.0
 31
0.0
  0
LINE
  5
42A3
  8
245
  6
CENTER2
 10
72.865155999999985
 20
0.0000000000000036
 30
0.0
 11
-82.576170999999931
 21
0.0000000000000036
 31
0.0
  0
LINE
  5
42A5
  8
240
  6
CONTINUOUS
 10
-79.999999999999844
 20
21.0
 30
0.0
 11
-79.999999999999844
 21
-21.0
 31
0.0
  0
LINE
  5
42AC
  8
240
  6
CONTINUOUS
 10
69.799999999999983
 20
-23.075526000000011
 30
0.0
 11
69.799999999999983
 21
22.979137999999971
 31
0.0
  0
LINE
  5
42AD
  8
241
  6
CONTINUOUS
 10
-0.0000000000000284
 20
21.000000000000011
 30
0.0
 11
0.0000000000000142
 21
-20.999999999999961
 31
0.0
  0
LINE
  5
42AE
  8
241
  6
CONTINUOUS
 10
9.9999999999999716
 20
30.500000000000011
 30
0.0
 11
9.9999999999999716
 21
-30.499999999999972
 31
0.0
  0
LINE
  5
42AF
  8
241
  6
CONTINUOUS
 10
69.799999999999983
 20
-10.237035430626911
 30
0.0
 11
40.143059219615182
 21
-34.194524000000001
 31
0.0
  0
LINE
  5
42B0
  8
240
  6
CONTINUOUS
 10
69.507105999999993
 20
-23.742894
 30
0.0
 11
50.304439999999992
 21
-42.94556
 31
0.0
  0
LINE
  5
42B1
  8
240
  6
CONTINUOUS
 10
9.9999999999999716
 20
-30.499999999999972
 30
0.0
 11
9.9999999999999716
 21
-43.000000999999983
 31
0.0
  0
LINE
  5
42B2
  8
241
  6
CONTINUOUS
 10
17.999999999999972
 20
-47.0
 30
0.0
 11
17.999999999999972
 21
47.073134083077143
 31
0.0
  0
LINE
  5
42B3
  8
240
  6
CONTINUOUS
 10
18.906336999999969
 20
-47.0
 30
0.0
 11
50.304439999999992
 21
-42.94556
 31
0.0
  0
LINE
  5
42B4
  8
240
  6
CONTINUOUS
 10
13.99999899999999
 20
-47.0
 30
0.0
 11
9.9999999999999716
 21
-43.000000999999983
 31
0.0
  0
LINE
  5
42B7
  8
240
  6
CONTINUOUS
 10
18.906336999999969
 20
-47.0
 30
0.0
 11
13.99999899999999
 21
-47.0
 31
0.0
  0
LINE
  5
42B8
  8
241
  6
CONTINUOUS
 10
28.298639249613181
 20
-34.194524000000001
 30
0.0
 11
20.365755999999941
 21
-32.718887000000009
 31
0.0
  0
ARC
  5
42C0
  8
241
  6
CONTINUOUS
 10
19.999999999999972
 20
-34.685158000000001
 30
0.0
 40
2.0
 50
79.462548999999242
 51
180.0
  0
LINE
  5
42C1
  8
241
  6
CONTINUOUS
 10
28.298639249613181
 20
-34.194524000000001
 30
0.0
 11
40.143059219615182
 21
-34.194524000000001
 31
0.0
  0
ARC
  5
42C4
  8
240
  6
CONTINUOUS
 10
68.799999999999983
 20
-23.035786999999999
 30
0.0
 40
1.0
 50
315.00000000000028
 51
0.0
  0
LINE
  5
42C6
  8
241
  6
CONTINUOUS
 10
52.177112999999942
 20
19.694353
 30
0.0
 11
69.799999999999983
 21
22.801743999999989
 31
0.0
  0
LINE
  5
42C7
  8
241
  6
CONTINUOUS
 10
69.778163999999975
 20
15.5
 30
0.0
 11
53.642134999999982
 21
15.5
 31
0.0
  0
LINE
  5
42C8
  8
241
  6
CONTINUOUS
 10
69.765684999999991
 20
24.073973999999989
 30
0.0
 11
43.73968099999999
 21
50.09999999999998
 31
0.0
  0
LINE
  5
42C9
  8
240
  6
CONTINUOUS
 10
9.9999999999999716
 20
30.500000000000011
 30
0.0
 11
9.9999999999999716
 21
43.0
 31
0.0
  0
LINE
  5
42CA
  8
241
  6
CONTINUOUS
 10
46.571066999999928
 20
18.428931999999971
 30
0.0
 11
17.999999999999972
 21
46.999999000000003
 31
0.0
  0
LINE
  5
42CB
  8
241
  6
CONTINUOUS
 10
51.472508999999981
 20
19.91651399999996
 30
0.0
 11
31.838785999999949
 21
39.550237000000003
 31
0.0
  0
ARC
  5
42D1
  8
241
  6
CONTINUOUS
 10
53.642134999999982
 20
25.500000000000011
 30
0.0
 40
10.0
 50
224.9999999999996
 51
270.0
  0
ARC
  5
42D2
  8
241
  6
CONTINUOUS
 10
52.038193999999933
 20
20.482199000000008
 30
0.0
 40
0.8
 50
224.9999999999996
 51
279.99999999999852
  0
LINE
  5
42D3
  8
240
  6
CONTINUOUS
 10
18.464100999999928
 20
47.26794899999998
 30
0.0
 11
28.392306085008869
 21
53.0
 31
0.0
  0
LINE
  5
42D4
  8
240
  6
CONTINUOUS
 10
14.0
 20
47.0
 30
0.0
 11
9.9999999999999716
 21
43.0
 31
0.0
  0
ARC
  5
42D6
  8
240
  6
CONTINUOUS
 10
17.464100999999939
 20
49.0
 30
0.0
 40
2.0
 50
270.0
 51
300.0
  0
LINE
  5
42D8
  8
240
  6
CONTINUOUS
 10
17.464100999999939
 20
47.0
 30
0.0
 11
14.0
 21
47.0
 31
0.0
  0
LINE
  5
42DA
  8
240
  6
CONTINUOUS
 10
42.943912999999988
 20
50.306085999999993
 30
0.0
 11
40.249998999999917
 21
53.0
 31
0.0
  0
LINE
  5
42DB
  8
241
  6
CONTINUOUS
 10
25.873252999999959
 20
47.296067999999991
 30
0.0
 11
42.943912999999988
 21
50.306085999999993
 31
0.0
  0
LINE
  5
42DC
  8
241
  6
CONTINUOUS
 10
31.838785999999949
 20
39.550237000000003
 30
0.0
 11
25.446485999999979
 21
45.94253599999999
 31
0.0
  0
ARC
  5
42DD
  8
241
  6
CONTINUOUS
 10
26.012171999999939
 20
46.508221999999989
 30
0.0
 40
0.8
 50
99.999999999998565
 51
224.9999999999996
  0
LINE
  5
42DE
  8
240
  6
CONTINUOUS
 10
40.249998999999917
 20
53.0
 30
0.0
 11
28.392306085008869
 21
53.0
 31
0.0
  0
ARC
  5
42E0
  8
241
  6
CONTINUOUS
 10
43.173994999999962
 20
49.534313999999988
 30
0.0
 40
0.8
 50
44.999976999999667
 51
106.3935670000003
  0
ARC
  5
42E1
  8
241
  6
CONTINUOUS
 10
69.19999999999996
 20
23.508288999999991
 30
0.0
 40
0.8
 50
279.99999999999852
 51
44.999976999999667
  0
LINE
  5
42E2
  8
241
  6
CONTINUOUS
 10
46.571066999999928
 20
-29.001846708609769
 30
0.0
 11
46.571066999999928
 21
18.428931999999971
 31
0.0
  0
LINE
  5
42E3
  8
241
  6
CONTINUOUS
 10
53.642134999999982
 20
-23.289692105822631
 30
0.0
 11
53.642134999999982
 21
15.5
 31
0.0
  0
LINE
  5
42E4
  8
241
  6
CONTINUOUS
 10
14.000000000000011
 20
46.910179977054568
 30
0.0
 11
14.000000000000011
 21
-46.910179977054568
 31
0.0
  0
LINE
  5
4308
  8
250
  6
CONTINUOUS
 10
-56.303843654940451
 20
-22.745403317215139
 30
0.0
 11
-54.866970879999847
 21
-21.0
 31
0.0
  0
LINE
  5
4309
  8
250
  6
CONTINUOUS
 10
-55.66009810476578
 20
-23.117069983832891
 30
0.0
 11
-54.866970879999847
 21
-21.0
 31
0.0
  0
LINE
  5
430A
  8
250
  6
CONTINUOUS
 10
-54.866970879999847
 20
-21.0
 30
0.0
 11
-55.981970879853122
 21
-22.931236650524021
 31
0.0
  0
LINE
  5
430B
  8
250
  6
CONTINUOUS
 10
-55.981970879853122
 20
-22.931236650524021
 30
0.0
 11
-61.94393395999986
 21
-33.257659619999998
 31
0.0
1001
ACAD
1000
DSTYLE
1002
{
1070
     6
1000
OPEN
1070
   343
1005
594
1002
}
  0
TEXT
  5
430C
  8
250
  6
CONTINUOUS
 10
-74.477267289999872
 20
-32.257659619999998
 30
0.0
 40
2.799999999999998
  1
ST42
  7
YOKO
1001
ITEMNAME
1000
LNSP3
  0
LINE
  5
430D
  8
250
  6
CONTINUOUS
 10
-61.94393395999986
 20
-33.257659619999998
 30
0.0
 11
-76.87726728999985
 21
-33.257659619999998
 31
0.0
1001
ITEMNAME
1000
LNSP2
  0
LINE
  5
430E
  8
247
  6
CONTINUOUS
 10
-70.250000000069861
 20
-15.0
 30
0.0
 11
-63.557692308029857
 21
-15.0
 31
0.0
  0
ARC
  5
430F
  8
247
  6
CONTINUOUS
 10
-70.250000000069861
 20
-13.250000000070029
 30
0.0
 40
1.7499999999299991
 50
90.0
 51
270.0
  0
ARC
  5
4310
  8
247
  6
CONTINUOUS
 10
-63.557692308029857
 20
-13.250000000070029
 30
0.0
 40
1.7499999999299991
 50
270.0
 51
90.0
  0
LINE
  5
4311
  8
247
  6
CONTINUOUS
 10
-69.384615384719865
 20
-11.50000000014006
 30
0.0
 11
-70.24485154196185
 21
-14.50000000002
 31
0.0
  0
LINE
  5
4312
  8
247
  6
CONTINUOUS
 10
-68.484983818335678
 20
-12.92307692315989
 30
0.0
 11
-69.792676125975674
 21
-12.92307692315989
 31
0.0
  0
ARC
  5
4313
  8
247
  6
CONTINUOUS
 10
-68.145143816089643
 20
-12.04959866770286
 30
0.0
 40
0.5538165441895349
 50
342.9978896752952
 51
82.924166218513577
  0
ARC
  5
4314
  8
247
  6
CONTINUOUS
 10
-68.566878323028646
 20
-11.93603304446583
 30
0.0
 40
0.9904354236226808
 50
274.74293685220061
 51
343.84922627326631
1001
GENIUS_GENOBJ-N-FIL_13
1002
{
1000
OWNER
1000
GEN
1002
}
1001
GENIUS_GENODEF_13
1002
{
1000
HIER
1070
     0
1002
}
1002
{
1000
MANEDIT
1070
     0
1002
}
1002
{
1000
NOSEL
1070
     0
1002
}
1002
{
1000
BEHIND
1070
     0
1002
}
1002
{
1000
OTHER
1070
     0
1002
}
1002
{
1000
REACTOR
1002
}
  0
LINE
  5
4315
  8
247
  6
CONTINUOUS
 10
-68.937159234321882
 20
-14.50000000002
 30
0.0
 11
-70.24485154196185
 21
-14.50000000002
 31
0.0
  0
LINE
  5
4316
  8
247
  6
CONTINUOUS
 10
-69.384615384719865
 20
-11.50000000014006
 30
0.0
 11
-68.076923077079854
 21
-11.50000000014006
 31
0.0
  0
ARC
  5
4317
  8
247
  6
CONTINUOUS
 10
-68.560919636546828
 20
-13.48202423266547
 30
0.0
 40
0.5640818586791229
 50
335.99094165252171
 51
82.263443459069066
  0
ARC
  5
4318
  8
247
  6
CONTINUOUS
 10
-69.038262685346922
 20
-13.4874290391865
 30
0.0
 40
1.0176059446230981
 50
275.70198516425808
 51
347.27733843682228
1001
GENIUS_GENOBJ-N-FIL_13
1002
{
1000
OWNER
1000
GEN
1002
}
1001
GENIUS_GENODEF_13
1002
{
1000
HIER
1070
     0
1002
}
1002
{
1000
MANEDIT
1070
     0
1002
}
1002
{
1000
NOSEL
1070
     0
1002
}
1002
{
1000
BEHIND
1070
     0
1002
}
1002
{
1000
OTHER
1070
     0
1002
}
1002
{
1000
REACTOR
1002
}
  0
LINE
  5
4319
  8
247
  6
CONTINUOUS
 10
-67.283313080541859
 20
-14.50000000002
 30
0.0
 11
-66.423076923299845
 21
-11.50000000014006
 31
0.0
  0
LINE
  5
431A
  8
247
  6
CONTINUOUS
 10
-64.000000000319858
 20
-11.50000000014006
 30
0.0
 11
-64.565736619456459
 21
-11.50000000014006
 31
0.0
  0
LINE
  5
431B
  8
247
  6
CONTINUOUS
 10
-65.461538461799847
 20
-14.50000000002
 30
0.0
 11
-64.846153846439833
 21
-14.50000000002
 31
0.0
  0
ARC
  5
431C
  8
247
  6
CONTINUOUS
 10
-63.708791209122708
 20
-13.583285135973361
 30
0.0
 40
2.2526500823422122
 50
112.359488141531
 51
164.993248542846
  0
ARC
  5
431D
  8
247
  6
CONTINUOUS
 10
-64.374069479213091
 20
-12.30831265519463
 30
0.0
 40
0.8906723995727782
 50
4.9945893190753301
 51
65.166328957300493
1001
GENIUS_GENOBJ-N-FIL_13
1002
{
1000
OWNER
1000
GEN
1002
}
1001
GENIUS_GENODEF_13
1002
{
1000
HIER
1070
     0
1002
}
1002
{
1000
MANEDIT
1070
     0
1002
}
1002
{
1000
NOSEL
1070
     0
1002
}
1002
{
1000
BEHIND
1070
     0
1002
}
1002
{
1000
OTHER
1070
     0
1002
}
1002
{
1000
REACTOR
1002
}
  0
ARC
  5
431E
  8
247
  6
CONTINUOUS
 10
-65.226458886212441
 20
-13.160145888667779
 30
0.0
 40
1.392781735586712
 50
285.84609655578078
 51
352.32513700416251
  0
ARC
  5
431F
  8
247
  6
CONTINUOUS
 10
-64.642212725840238
 20
-13.45924343152728
 30
0.0
 40
1.324563662670287
 50
159.71360167049019
 51
231.7887456564132
1001
GENIUS_GENOBJ-N-FIL_13
1002
{
1000
OWNER
1000
GEN
1002
}
1001
GENIUS_GENODEF_13
1002
{
1000
HIER
1070
     0
1002
}
1002
{
1000
MANEDIT
1070
     0
1002
}
1002
{
1000
NOSEL
1070
     0
1002
}
1002
{
1000
BEHIND
1070
     0
1002
}
1002
{
1000
OTHER
1070
     0
1002
}
1002
{
1000
REACTOR
1002
}
  0
LINE
  5
4320
  8
247
  6
CONTINUOUS
 10
-64.538461538759861
 20
-13.34615384621997
 30
0.0
 11
-63.846153846479858
 21
-13.34615384621997
 31
0.0
  0
LINE
  5
4321
  8
247
  6
CONTINUOUS
 10
-70.250000000069889
 20
-11.50000000014006
 30
0.0
 11
-69.576923077019927
 21
-11.50000000014006
 31
0.0
  0
LINE
  5
4507
  8
240
  6
CONTINUOUS
 10
0.0000000000001563
 20
29.500000000000011
 30
0.0
 11
-0.0000000000004974
 21
21.000000000000011
 31
0.0
1001
GRPNAME
1000
PASTMD02
  0
LINE
  5
450A
  8
240
  6
CONTINUOUS
 10
0.0000000000001137
 20
-29.500000000000011
 30
0.0
 11
0.0000000000001137
 21
-21.0
 31
0.0
1001
GRPNAME
1000
PASTMD02
  0
LINE
  5
450B
  8
240
  6
CONTINUOUS
 10
9.0000000000000853
 20
29.500000000000011
 30
0.0
 11
0.0000000000001563
 21
29.500000000000011
 31
0.0
  0
ARC
  5
450C
  8
240
  6
CONTINUOUS
 10
9.0000000000000853
 20
30.500000000000011
 30
0.0
 40
1.0
 50
270.0
 51
0.0
  0
ARC
  5
450D
  8
240
  6
CONTINUOUS
 10
9.0000000000000853
 20
-30.499999999999972
 30
0.0
 40
1.0
 50
0.0
 51
90.0
  0
LINE
  5
450E
  8
240
  6
CONTINUOUS
 10
9.0000000000000853
 20
-29.499999999999631
 30
0.0
 11
0.0000000000001137
 21
-29.500000000000011
 31
0.0
  0
VIEWPORT
  5
22
 67
     1
  8
0
 10
261.51769911504419
 20
148.5
 30
0.0
 40
523.0353982300885
 41
297.0
 68
     1
 69
     1
1001
ACAD
1000
MVIEW
1002
{
1070
    16
1010
0.0
1020
0.0
1030
0.0
1010
0.0
1020
0.0
1030
1.0
1040
0.0
1040
297.0
1040
261.51769911504419
1040
148.5
1040
50.0
1040
0.0
1040
0.0
1070
     0
1070
   100
1070
     1
1070
     1
1070
     0
1070
     0
1070
     0
1070
     0
1040
0.0
1040
0.0
1040
0.0
1040
1.0
1040
1.0
1040
10.0
1040
10.0
1070
     0
1002
{
1002
}
1002
}
1001
GENIUS_GENODEF_13
1002
{
1000
HIER
1070
     0
1002
}
1002
{
1000
MANEDIT
1070
     0
1002
}
1002
{
1000
NOSEL
1070
     0
1002
}
1002
{
1000
BEHIND
1070
     0
1002
}
1002
{
1000
OTHER
1070
     0
1002
}
1002
{
1000
REACTOR
1002
}
1001
GENIUS_GENOBJ-N-SDF_13
1002
{
1000
OWNER
1000
GEN
1002
}
1001
GENIUS_GENSCREG_15
1000
PF
1040
1.0
1000
DF
1040
1.0
1000
MIN
1011
0.0
1021
0.0
1031
0.0
1021
0.0
1031
0.0
1000
MAX
1011
523.0353982300885
1021
0.0
1031
0.0
1021
297.0
1031
0.0
1000
FLAGS
1070
     4
  0
ENDSEC
  0
EOF
