  0
SECTION
  2
HEADER
  9
$ACADVER
  1
AC1009
  9
$INSBASE
 10
0.0
 20
0.0
 30
0.0
  9
$EXTMIN
 10
-12.41986601612764
 20
-10.91809668929028
 30
0.0
  9
$EXTMAX
 10
75.476190476186545
 20
40.0
 30
0.0
  9
$LIMMIN
 10
0.0
 20
0.0
  9
$LIMMAX
 10
297.0
 20
210.0
  9
$ORTHOMODE
 70
     1
  9
$REGENMODE
 70
     1
  9
$FILLMODE
 70
     1
  9
$QTEXTMODE
 70
     0
  9
$MIRRTEXT
 70
     1
  9
$DRAGMODE
 70
     2
  9
$LTSCALE
 40
10.0
  9
$OSMODE
 70
  3071
  9
$ATTMODE
 70
     1
  9
$TEXTSIZE
 40
3.0
  9
$TRACEWID
 40
1.0
  9
$TEXTSTYLE
  7
YOKO
  9
$CLAYER
  8
240
  9
$CELTYPE
  6
BYLAYER
  9
$CECOLOR
 62
   256
  9
$DIMSCALE
 40
1.0
  9
$DIMASZ
 40
2.0
  9
$DIMEXO
 40
0.5
  9
$DIMDLI
 40
2.5
  9
$DIMRND
 40
0.0
  9
$DIMDLE
 40
0.0
  9
$DIMEXE
 40
1.0
  9
$DIMTP
 40
0.0
  9
$DIMTM
 40
0.0
  9
$DIMTXT
 40
2.799999999999998
  9
$DIMCEN
 40
0.0
  9
$DIMTSZ
 40
0.0
  9
$DIMTOL
 70
     0
  9
$DIMLIM
 70
     0
  9
$DIMTIH
 70
     0
  9
$DIMTOH
 70
     0
  9
$DIMSE1
 70
     0
  9
$DIMSE2
 70
     0
  9
$DIMTAD
 70
     3
  9
$DIMZIN
 70
     8
  9
$DIMBLK
  1

  9
$DIMASO
 70
     1
  9
$DIMSHO
 70
     1
  9
$DIMPOST
  1

  9
$DIMAPOST
  1

  9
$DIMALT
 70
     0
  9
$DIMALTD
 70
     2
  9
$DIMALTF
 40
25.399999999999999
  9
$DIMLFAC
 40
1.0
  9
$DIMTOFL
 70
     1
  9
$DIMTVP
 40
0.0
  9
$DIMTIX
 70
     1
  9
$DIMSOXD
 70
     0
  9
$DIMSAH
 70
     1
  9
$DIMBLK1
  1
OPEN
  9
$DIMBLK2
  1
OPEN
  9
$DIMSTYLE
  2
BIGT
  9
$DIMCLRD
 70
   256
  9
$DIMCLRE
 70
   256
  9
$DIMCLRT
 70
    40
  9
$DIMTFAC
 40
1.0
  9
$DIMGAP
 40
1.0
  9
$LUNITS
 70
     2
  9
$LUPREC
 70
     3
  9
$SKETCHINC
 40
1.0
  9
$FILLETRAD
 40
0.0
  9
$AUNITS
 70
     0
  9
$AUPREC
 70
     3
  9
$MENU
  1
.
  9
$ELEVATION
 40
0.0
  9
$PELEVATION
 40
0.0
  9
$THICKNESS
 40
0.0
  9
$LIMCHECK
 70
     0
  9
$BLIPMODE
 70
     0
  9
$CHAMFERA
 40
10.0
  9
$CHAMFERB
 40
10.0
  9
$SKPOLY
 70
     0
  9
$TDCREATE
 40
2457094.5923524308
  9
$TDUPDATE
 40
2457378.6209194101
  9
$TDINDWG
 40
0.0369610301
  9
$TDUSRTIMER
 40
0.0369610185
  9
$USRTIMER
 70
     1
  9
$ANGBASE
 50
0.0
  9
$ANGDIR
 70
     0
  9
$PDMODE
 70
     1
  9
$PDSIZE
 40
-5.0
  9
$PLINEWID
 40
0.0
  9
$COORDS
 70
     1
  9
$SPLFRAME
 70
     0
  9
$SPLINETYPE
 70
     6
  9
$SPLINESEGS
 70
     8
  9
$ATTDIA
 70
     1
  9
$ATTREQ
 70
     1
  9
$HANDLING
 70
     1
  9
$HANDSEED
  5
E76
  9
$SURFTAB1
 70
     6
  9
$SURFTAB2
 70
     6
  9
$SURFTYPE
 70
     6
  9
$SURFU
 70
     6
  9
$SURFV
 70
     6
  9
$UCSNAME
  2

  9
$UCSORG
 10
0.0
 20
0.0
 30
0.0
  9
$UCSXDIR
 10
1.0
 20
0.0
 30
0.0
  9
$UCSYDIR
 10
0.0
 20
1.0
 30
0.0
  9
$PUCSNAME
  2

  9
$PUCSORG
 10
0.0
 20
0.0
 30
0.0
  9
$PUCSXDIR
 10
1.0
 20
0.0
 30
0.0
  9
$PUCSYDIR
 10
0.0
 20
1.0
 30
0.0
  9
$USERI1
 70
     1
  9
$USERI2
 70
     0
  9
$USERI3
 70
     0
  9
$USERI4
 70
     0
  9
$USERI5
 70
     0
  9
$USERR1
 40
0.0
  9
$USERR2
 40
0.0
  9
$USERR3
 40
0.0
  9
$USERR4
 40
0.0
  9
$USERR5
 40
0.0
  9
$WORLDVIEW
 70
     1
  9
$SHADEDGE
 70
     3
  9
$SHADEDIF
 70
    70
  9
$TILEMODE
 70
     1
  9
$MAXACTVP
 70
    16
  9
$PLIMCHECK
 70
     0
  9
$PEXTMIN
 10
1.0000000000000000E+020
 20
1.0000000000000000E+020
 30
1.0000000000000000E+020
  9
$PEXTMAX
 10
-1.0000000000000000E+020
 20
-1.0000000000000000E+020
 30
-1.0000000000000000E+020
  9
$PLIMMIN
 10
0.0
 20
0.0
  9
$PLIMMAX
 10
420.0
 20
297.0
  9
$UNITMODE
 70
     0
  9
$VISRETAIN
 70
     0
  9
$PLINEGEN
 70
     0
  9
$PSLTSCALE
 70
     1
  0
ENDSEC
  0
SECTION
  2
TABLES
  0
TABLE
  2
VPORT
 70
     1
  0
VPORT
  2
*ACTIVE
 70
     0
 10
0.0
 20
0.0
 11
1.0
 21
1.0
 12
32.204892203870557
 22
16.19885516952986
 13
0.0
 23
0.0
 14
7.0
 24
7.0
 15
7.0
 25
7.0
 16
0.0
 26
0.0
 36
1.0
 17
0.0
 27
0.0
 37
0.0
 40
96.889572076604495
 41
1.486725663716814
 42
50.0
 43
0.0
 44
0.0
 50
0.0
 51
0.0
 71
     0
 72
 20000
 73
     1
 74
     0
 75
     0
 76
     0
 77
     0
 78
     0
  0
ENDTAB
  0
TABLE
  2
LTYPE
 70
    13
  0
LTYPE
  2
CONTINUOUS
 70
     0
  3
Solid line
 72
    65
 73
     0
 40
0.0
  0
LTYPE
  2
CENTER2
 70
     0
  3
___ _ ___ _ ___ _ ___ _ ___ _ ___ _ ___ _ ___ _
 72
    65
 73
     4
 40
1.125
 49
0.75
 49
-0.125
 49
0.125
 49
-0.125
  0
LTYPE
  2
PHANTOM2
 70
     0
  3
___ _ _ ___ _ _ ___ _ _ ___ _ _ ___ _ _ ___ _ _
 72
    65
 73
     6
 40
1.25
 49
0.625
 49
-0.125
 49
0.125
 49
-0.125
 49
0.125
 49
-0.125
  0
LTYPE
  2
HIDDEN2
 70
     0
  3
_ _ _ _ _ _ _ _ _ _ _ _ _ _ _ _ _ _ _ _ _ _ _ _
 72
    65
 73
     2
 40
0.1875
 49
0.125
 49
-0.0625
  0
LTYPE
  2
AMCONSTR
 70
     0
  3
_______________________
 72
    65
 73
     2
 40
9999.0
 49
9999.0
 49
0.0
  0
LTYPE
  2
AM_ISO02W050
 70
     0
  3
__ __ __ __ __ __ __ __ __ __ __ __ __ __ __
 72
    65
 73
     2
 40
7.5
 49
6.0
 49
-1.5
  0
LTYPE
  2
ACJISTGB
 70
     0
  3
__ . . __ . .
 72
    65
 73
     6
 40
9.0
 49
4.0
 49
-1.0
 49
1.0
 49
-1.0
 49
1.0
 49
-1.0
  0
LTYPE
  2
ACJISTGL
 70
     0
  3
_ _ _ _ _
 72
    65
 73
     2
 40
3.0
 49
2.0
 49
-1.0
  0
LTYPE
  2
ACISOWELD
 70
     0
  3
_ _ _ _ _
 72
    65
 73
     2
 40
2.0
 49
2.0
 49
-1.0
  0
LTYPE
  2
ACISOTGB
 70
     0
  3
__ . . __ . .
 72
    65
 73
     6
 40
9.0
 49
4.0
 49
-1.0
 49
1.0
 49
-1.0
 49
1.0
 49
-1.0
  0
LTYPE
  2
ACISOTGL
 70
     0
  3
_ _ _ _ _
 72
    65
 73
     2
 40
3.0
 49
2.0
 49
-1.0
  0
ENDTAB
  0
TABLE
  2
LAYER
 70
     7
  0
LAYER
  2
0
 70
     0
 62
     7
  6
CONTINUOUS
  0
LAYER
  2
240
 70
     0
 62
     4
  6
CONTINUOUS
  0
LAYER
  2
241
 70
     0
 62
   211
  6
CONTINUOUS
  0
LAYER
  2
245
 70
     0
 62
     2
  6
CENTER2
  0
LAYER
  2
250
 70
     0
 62
     3
  6
CONTINUOUS
  0
LAYER
  2
DEFPOINTS
 70
     0
 62
     7
  6
CONTINUOUS
  0
LAYER
  2
247
 70
     0
 62
    60
  6
CONTINUOUS
  0
ENDTAB
  0
TABLE
  2
STYLE
 70
     6
  0
STYLE
  2
STANDARD
 70
     0
 40
0.0
 41
1.0
 50
0.0
 71
     0
 42
3.0
  3
romans.shx
  4
BIGFONT.SHX
  0
STYLE
  2
YOKO
 70
     0
 40
0.0
 41
1.0
 50
0.0
 71
     0
 42
3.0
  3
romans.shx
  4
extfont.shx
  0
STYLE
  2
ACJISTS
 70
     0
 40
1.0
 41
1.0
 50
0.0
 71
     0
 42
3.0
  3
amgdt.shx
  4
extfont.shx
  0
STYLE
  2
ACJISGDT
 70
     0
 40
0.0
 41
1.0
 50
0.0
 71
     0
 42
3.0
  3
amgdt.shx
  4
extfont.shx
  0
STYLE
  2
ACISOTS
 70
     0
 40
1.0
 41
1.0
 50
0.0
 71
     0
 42
3.0
  3
amgdt.shx
  4
extfont.shx
  0
STYLE
  2
ACISOGDT
 70
     0
 40
0.0
 41
1.0
 50
0.0
 71
     0
 42
3.0
  3
amgdt.shx
  4
extfont.shx
  0
ENDTAB
  0
TABLE
  2
VIEW
 70
     0
  0
ENDTAB
  0
TABLE
  2
UCS
 70
     0
  0
ENDTAB
  0
TABLE
  2
APPID
 70
    42
  0
APPID
  2
ACAD
 70
     0
  0
APPID
  2
GLOBAL
 70
     0
  0
APPID
  2
DETAIL
 70
     0
  0
APPID
  2
GRPNAME
 70
     0
  0
APPID
  2
GPARA
 70
     0
  0
APPID
  2
DCO15
 70
     0
  0
APPID
  2
ITEMNAME
 70
     0
  0
APPID
  2
GRADE_0
 70
     0
  0
APPID
  2
LAYER_SCALE
 70
     0
  0
APPID
  2
ACAD_PSEXT
 70
     0
  0
APPID
  2
ACAD_NAV_VCDISPLAY
 70
     0
  0
APPID
  2
HATCH_TYPE
 70
     0
  0
APPID
  2
HATCH_DISPLAY
 70
     0
  0
APPID
  2
HATCH_DISTANCE
 70
     0
  0
APPID
  2
ASKLEADER
 70
     0
  0
APPID
  2
ASKLEADERCHILD
 70
     0
  0
APPID
  2
MCAD_NO_VIS
 70
     0
  0
APPID
  2
ACAD_TEMP_GRAPHIC
 70
     0
  0
APPID
  2
ACATTRIBSERVICES
 70
     0
  0
APPID
  2
GENIUS_GENSCREG_15
 70
     0
  0
APPID
  2
GENIUS_GENODEF_13
 70
     0
  0
APPID
  2
GENIUS_GENOBJ-N-SDF_13
 70
     0
  0
APPID
  2
GENIUS_GENREC_14
 70
     0
  0
APPID
  2
GENIUS_GENOBJ-N-REC_13
 70
     0
  0
APPID
  2
GENIUS_GENDIMSH_14
 70
     0
  0
APPID
  2
GENIUS_GENOBJ-N-DIM_13
 70
     0
  0
APPID
  2
GENIUS_GENDIM_13
 70
     0
  0
APPID
  2
GENIUS_GENDTOL_13
 70
     0
  0
APPID
  2
GENIUS_GENOLIS_13
 70
     0
  0
APPID
  2
GENIUS_GENOENT_13
 70
     0
  0
APPID
  2
GENIUS_GENOBJ-F-FEM_13
 70
     0
  0
APPID
  2
GENIUS_GENOREF_13
 70
     0
  0
APPID
  2
GENIUS_GEFFEM_13
 70
     0
  0
APPID
  2
GENIUS_GEFFEMP_13
 70
     0
  0
APPID
  2
AD_DRAW
 70
     0
  0
APPID
  2
DESIGNERASSEMBLIES
 70
     0
  0
APPID
  2
ACADM_DIM_EDIT
 70
     0
  0
APPID
  2
AMDT_DM_ADJ
 70
     0
  0
APPID
  2
GENIUS_GENOBJ-N-FIL_13
 70
     0
  0
APPID
  2
GENIUS_GENFIL_13
 70
     0
  0
APPID
  2
GENIUS_GENOBJ-N-CHA_13
 70
     0
  0
APPID
  2
ACAD_MLEADERVER
 70
     0
  0
ENDTAB
  0
TABLE
  2
DIMSTYLE
 70
    23
  0
DIMSTYLE
  2
BIGT
 70
     0
  3

  4

  5
OPEN
  6

  7

 40
1.0
 41
2.2299999999999991
 42
0.5
 43
7.0
 44
1.0
 45
0.0
 46
0.0
 47
0.0
 48
0.01
140
2.7999999999999989
141
0.0
142
0.0
143
25.399999999999999
144
1.0
145
0.0
146
1.0
147
1.0
 71
     0
 72
     0
 73
     0
 74
     0
 75
     0
 76
     0
 77
     3
 78
     9
170
     0
171
     2
172
     1
173
     0
174
     1
175
     0
176
   256
177
   256
178
    40
  0
DIMSTYLE
  2
BIGT$0
 70
     0
  3

  4

  5
OPEN
  6

  7

 40
1.0
 41
2.2299999999999991
 42
0.5
 43
7.0
 44
1.0
 45
0.0
 46
0.0
 47
0.0
 48
0.01
140
2.7999999999999989
141
0.0
142
0.0
143
25.399999999999999
144
1.0
145
0.0
146
1.0
147
1.0
 71
     0
 72
     0
 73
     0
 74
     0
 75
     0
 76
     0
 77
     3
 78
     9
170
     0
171
     2
172
     1
173
     0
174
     1
175
     0
176
   256
177
   256
178
    40
  0
DIMSTYLE
  2
BIGT$2
 70
     0
  3

  4

  5
OPEN
  6

  7

 40
1.0
 41
2.2299999999999991
 42
0.5
 43
7.0
 44
1.0
 45
0.0
 46
0.0
 47
0.0
 48
0.01
140
2.7999999999999989
141
0.0
142
0.0
143
25.399999999999999
144
1.0
145
0.0
146
1.0
147
1.0
 71
     0
 72
     0
 73
     0
 74
     0
 75
     0
 76
     0
 77
     3
 78
     9
170
     0
171
     2
172
     1
173
     0
174
     0
175
     0
176
   256
177
   256
178
    40
  0
DIMSTYLE
  2
BIGT$3
 70
     0
  3

  4

  5
OPEN
  6

  7

 40
1.0
 41
2.2299999999999991
 42
0.5
 43
2.5
 44
1.0
 45
0.0
 46
0.0
 47
0.0
 48
0.01
140
2.7999999999999989
141
0.0
142
0.0
143
25.399999999999999
144
1.0
145
0.0
146
1.0
147
1.0
 71
     0
 72
     0
 73
     0
 74
     0
 75
     0
 76
     0
 77
     3
 78
     9
170
     0
171
     2
172
     1
173
     0
174
     0
175
     0
176
   256
177
   256
178
    40
  0
DIMSTYLE
  2
BIGT$4
 70
     0
  3

  4

  5
OPEN
  6

  7

 40
1.0
 41
2.2299999999999991
 42
0.5
 43
2.5
 44
1.0
 45
0.0
 46
0.0
 47
0.0
 48
0.01
140
2.7999999999999989
141
0.0
142
0.0
143
25.399999999999999
144
1.0
145
0.0
146
1.0
147
1.0
 71
     0
 72
     0
 73
     0
 74
     0
 75
     0
 76
     0
 77
     3
 78
     9
170
     0
171
     2
172
     1
173
     0
174
     0
175
     0
176
   256
177
   256
178
    40
  0
DIMSTYLE
  2
BIGT$6
 70
     0
  3

  4

  5
OPEN
  6

  7

 40
1.0
 41
2.2299999999999991
 42
0.5
 43
2.5
 44
1.0
 45
0.0
 46
0.0
 47
0.0
 48
0.01
140
2.7999999999999989
141
0.0
142
0.0
143
25.399999999999999
144
1.0
145
0.0
146
1.0
147
1.0
 71
     0
 72
     0
 73
     0
 74
     0
 75
     0
 76
     0
 77
     3
 78
     9
170
     0
171
     2
172
     1
173
     0
174
     0
175
     0
176
   256
177
   256
178
    40
  0
DIMSTYLE
  2
BIGT$7
 70
     0
  3

  4

  5
OPEN
  6

  7

 40
0.0
 41
2.2299999999999991
 42
0.5
 43
7.0
 44
1.0
 45
0.0
 46
0.0
 47
0.0
 48
0.01
140
2.7999999999999989
141
0.0
142
0.0
143
25.399999999999999
144
1.0
145
0.0
146
1.0
147
1.0
 71
     0
 72
     0
 73
     0
 74
     0
 75
     0
 76
     0
 77
     3
 78
     9
170
     0
171
     2
172
     0
173
     0
174
     0
175
     0
176
   256
177
   256
178
    40
  0
DIMSTYLE
  2
BIGT$SF
 70
     0
  3

  4

  5
OPEN
  6

  7

 40
1.0
 41
2.2299999999999991
 42
0.5
 43
7.0
 44
1.0
 45
0.0
 46
0.0
 47
0.0
 48
0.0
140
2.7999999999999989
141
0.0
142
0.0
143
25.399999999999999
144
1.0
145
0.0
146
1.0
147
1.0
 71
     0
 72
     0
 73
     0
 74
     0
 75
     0
 76
     0
 77
     3
 78
     9
170
     0
171
     2
172
     1
173
     0
174
     0
175
     0
176
   256
177
   256
178
    40
  0
DIMSTYLE
  2
BIGT$SH
 70
     0
  3

  4

  5
OPEN
  6

  7

 40
1.0
 41
2.2299999999999991
 42
0.5
 43
7.0
 44
1.0
 45
0.0
 46
0.0
 47
0.0
 48
0.0
140
2.7999999999999989
141
0.0
142
0.0
143
25.399999999999999
144
1.0
145
0.0
146
1.0
147
1.0
 71
     0
 72
     0
 73
     0
 74
     0
 75
     0
 76
     0
 77
     3
 78
     9
170
     0
171
     2
172
     1
173
     0
174
     0
175
     0
176
   256
177
   256
178
    40
  0
DIMSTYLE
  2
AM_ISO
 70
     0
  3

  4
"
  5

  6

  7

 40
1.0
 41
2.5
 42
1.0
 43
10.0
 44
1.0
 45
0.0
 46
0.0
 47
0.1
 48
0.1
140
3.5
141
0.0
142
0.0
143
0.0393701
144
1.0
145
0.0
146
0.71
147
1.5
 71
     0
 72
     0
 73
     0
 74
     0
 75
     0
 76
     0
 77
     1
 78
     8
170
     0
171
     2
172
     1
173
     0
174
     0
175
     0
176
   256
177
   256
178
     2
  0
DIMSTYLE
  2
AM_ISO$3
 70
     0
  3

  4
"
  5

  6

  7

 40
1.0
 41
2.5
 42
1.0
 43
10.0
 44
1.0
 45
0.0
 46
0.0
 47
0.1
 48
0.1
140
3.5
141
0.0
142
0.0
143
0.0393701
144
1.0
145
0.0
146
0.71
147
1.5
 71
     0
 72
     0
 73
     0
 74
     1
 75
     0
 76
     0
 77
     1
 78
     8
170
     0
171
     2
172
     0
173
     0
174
     0
175
     0
176
   256
177
   256
178
     2
  0
DIMSTYLE
  2
AM_ISO$4
 70
     0
  3

  4
"
  5

  6

  7

 40
1.0
 41
2.5
 42
1.0
 43
10.0
 44
1.0
 45
0.0
 46
0.0
 47
0.1
 48
0.1
140
3.5
141
0.0
142
0.0
143
0.0393701
144
1.0
145
0.0
146
0.71
147
1.5
 71
     0
 72
     0
 73
     0
 74
     1
 75
     0
 76
     0
 77
     1
 78
     8
170
     0
171
     2
172
     0
173
     0
174
     0
175
     0
176
   256
177
   256
178
     2
  0
DIMSTYLE
  2
AM_ISO$6
 70
     0
  3

  4
"
  5

  6

  7

 40
1.0
 41
2.5
 42
1.0
 43
10.0
 44
1.0
 45
0.0
 46
0.0
 47
0.1
 48
0.1
140
3.5
141
0.0
142
0.0
143
0.0393701
144
1.0
145
0.0
146
0.71
147
1.5
 71
     0
 72
     0
 73
     0
 74
     0
 75
     0
 76
     0
 77
     0
 78
     8
170
     0
171
     2
172
     1
173
     0
174
     0
175
     0
176
   256
177
   256
178
     2
  0
DIMSTYLE
  2
AM_ISO$7
 70
     0
  3

  4
"
  5

  6

  7

 40
1.0
 41
2.5
 42
1.0
 43
10.0
 44
1.0
 45
0.0
 46
0.0
 47
0.1
 48
0.1
140
5.0
141
0.0
142
0.0
143
0.0393701
144
1.0
145
0.0
146
0.71
147
1.5
 71
     0
 72
     0
 73
     0
 74
     0
 75
     0
 76
     0
 77
     1
 78
     8
170
     0
171
     2
172
     1
173
     0
174
     0
175
     0
176
   256
177
   256
178
     2
  0
DIMSTYLE
  2
AM_ISO$SF
 70
     0
  3

  4
"
  5

  6

  7

 40
1.0
 41
2.5
 42
1.0
 43
10.0
 44
1.0
 45
0.0
 46
0.0
 47
0.1
 48
0.1
140
3.5
141
0.0
142
0.0
143
0.0393701
144
1.0
145
0.0
146
0.71
147
1.5
 71
     0
 72
     0
 73
     0
 74
     0
 75
     1
 76
     1
 77
     1
 78
     8
170
     0
171
     2
172
     1
173
     0
174
     0
175
     0
176
   256
177
   256
178
     2
  0
DIMSTYLE
  2
AM_ISO$SH
 70
     0
  3

  4
"
  5

  6
GENAXEH
  7

 40
1.0
 41
2.5
 42
1.0
 43
10.0
 44
1.0
 45
0.0
 46
0.0
 47
0.1
 48
0.1
140
3.5
141
0.0
142
0.0
143
0.0393701
144
2.0
145
0.0
146
0.71
147
1.5
 71
     0
 72
     0
 73
     0
 74
     0
 75
     1
 76
     1
 77
     1
 78
     8
170
     0
171
     2
172
     1
173
     1
174
     0
175
     0
176
   256
177
   256
178
     2
  0
DIMSTYLE
  2
TECHNICAL_OSAKA
 70
     0
  3

  4
"
  5
OPEN30
  6

  7

 40
1.0
 41
2.5
 42
1.0
 43
10.0
 44
1.0
 45
0.0
 46
0.0
 47
0.1
 48
0.1
140
2.7999999999999989
141
0.0
142
0.0
143
0.0393701
144
1.0
145
0.0
146
0.71
147
1.5
 71
     0
 72
     0
 73
     0
 74
     0
 75
     0
 76
     0
 77
     3
 78
     8
170
     0
171
     2
172
     1
173
     0
174
     0
175
     0
176
   256
177
   256
178
    40
  0
DIMSTYLE
  2
TECHNICAL_OSAKA$3
 70
     0
  3

  4
"
  5
OPEN30
  6

  7

 40
1.0
 41
2.5
 42
1.0
 43
10.0
 44
1.0
 45
0.0
 46
0.0
 47
0.1
 48
0.1
140
2.7999999999999989
141
0.0
142
0.0
143
0.0393701
144
1.0
145
0.0
146
0.71
147
1.5
 71
     0
 72
     0
 73
     0
 74
     1
 75
     0
 76
     0
 77
     3
 78
     8
170
     0
171
     2
172
     0
173
     0
174
     0
175
     0
176
   256
177
   256
178
    40
  0
DIMSTYLE
  2
TECHNICAL_OSAKA$4
 70
     0
  3

  4
"
  5
OPEN30
  6

  7

 40
1.0
 41
2.5
 42
1.0
 43
10.0
 44
1.0
 45
0.0
 46
0.0
 47
0.1
 48
0.1
140
2.7999999999999989
141
0.0
142
0.0
143
0.0393701
144
1.0
145
0.0
146
0.71
147
1.5
 71
     0
 72
     0
 73
     0
 74
     1
 75
     0
 76
     0
 77
     3
 78
     8
170
     0
171
     2
172
     0
173
     0
174
     0
175
     0
176
   256
177
   256
178
    40
  0
DIMSTYLE
  2
TECHNICAL_OSAKA$6
 70
     0
  3

  4
"
  5
OPEN30
  6

  7

 40
1.0
 41
2.5
 42
1.0
 43
10.0
 44
1.0
 45
0.0
 46
0.0
 47
0.1
 48
0.1
140
2.7999999999999989
141
0.0
142
0.0
143
0.0393701
144
1.0
145
0.0
146
0.71
147
1.5
 71
     0
 72
     0
 73
     0
 74
     0
 75
     0
 76
     0
 77
     0
 78
     8
170
     0
171
     2
172
     1
173
     0
174
     0
175
     0
176
   256
177
   256
178
    40
  0
DIMSTYLE
  2
TECHNICAL_OSAKA$7
 70
     0
  3

  4
"
  5
OPEN30
  6

  7

 40
1.0
 41
2.5
 42
1.0
 43
10.0
 44
1.0
 45
0.0
 46
0.0
 47
0.1
 48
0.1
140
2.7999999999999989
141
0.0
142
0.0
143
0.0393701
144
1.0
145
0.0
146
0.71
147
1.5
 71
     0
 72
     0
 73
     0
 74
     0
 75
     0
 76
     0
 77
     3
 78
     8
170
     0
171
     2
172
     1
173
     0
174
     0
175
     0
176
   256
177
   256
178
    40
  0
DIMSTYLE
  2
TECHNICAL_OSAKA$SF
 70
     0
  3

  4
"
  5
OPEN30
  6
OPEN30
  7
OPEN30
 40
1.0
 41
2.5
 42
1.0
 43
10.0
 44
1.0
 45
0.0
 46
0.0
 47
0.1
 48
0.1
140
3.5
141
0.0
142
0.0
143
0.0393701
144
1.0
145
0.0
146
0.71
147
1.5
 71
     0
 72
     0
 73
     0
 74
     0
 75
     1
 76
     1
 77
     3
 78
     8
170
     0
171
     2
172
     1
173
     0
174
     0
175
     0
176
   256
177
   256
178
    40
  0
DIMSTYLE
  2
TECHNICAL_OSAKA$SH
 70
     0
  3

  4
"
  5
OPEN30
  6
GENAXEH
  7
OPEN30
 40
1.0
 41
2.5
 42
1.0
 43
10.0
 44
1.0
 45
0.0
 46
0.0
 47
0.1
 48
0.1
140
3.5
141
0.0
142
0.0
143
0.0393701
144
2.0
145
0.0
146
0.71
147
1.5
 71
     0
 72
     0
 73
     0
 74
     0
 75
     1
 76
     1
 77
     3
 78
     8
170
     0
171
     2
172
     1
173
     1
174
     0
175
     0
176
   256
177
   256
178
    40
  0
ENDTAB
  0
ENDSEC
  0
SECTION
  2
BLOCKS
  0
BLOCK
  8
0
  2
$MODEL_SPACE
 70
     0
 10
0.0
 20
0.0
 30
0.0
  3
$MODEL_SPACE
  1

  0
ENDBLK
  5
1C
  8
0
  0
BLOCK
 67
     1
  8
0
  2
$PAPER_SPACE
 70
     0
 10
0.0
 20
0.0
 30
0.0
  3
$PAPER_SPACE
  1

  0
ENDBLK
  5
19
 67
     1
  8
0
  0
BLOCK
  8
0
  2
_OPEN
 70
     0
 10
0.0
 20
0.0
 30
0.0
  3
_OPEN
  1

  0
LINE
  5
CCE
  8
0
  6
BYBLOCK
 62
     0
 10
-1.0
 20
0.1666666666666666
 30
0.0
 11
0.0
 21
0.0
 31
0.0
  0
LINE
  5
CCF
  8
0
  6
BYBLOCK
 62
     0
 10
-1.0
 20
-0.1666666666666666
 30
0.0
 11
0.0
 21
0.0
 31
0.0
  0
LINE
  5
CD0
  8
0
  6
BYBLOCK
 62
     0
 10
0.0
 20
0.0
 30
0.0
 11
-1.0
 21
0.0
 31
0.0
  0
ENDBLK
  5
CD1
  8
0
  0
BLOCK
  8
0
  2
矢印なし
 70
     0
 10
0.0
 20
0.0
 30
0.0
  3
矢印なし
  1

  0
ENDBLK
  5
6E5
  8
0
  0
BLOCK
  8
0
  2
GENAXEH
 70
     0
 10
0.0
 20
0.0
 30
0.0
  3
GENAXEH
  1

  0
LINE
  5
D09
  8
0
 10
-1.0
 20
0.0
 30
0.0
 11
1.0
 21
0.0
 31
0.0
  0
ENDBLK
  5
D0A
  8
0
  0
BLOCK
  8
0
  2
_OPEN30
 70
     0
 10
0.0
 20
0.0
 30
0.0
  3
_OPEN30
  1

  0
LINE
  5
D45
  8
0
  6
BYBLOCK
 62
     0
 10
-1.0
 20
0.26794919
 30
0.0
 11
0.0
 21
0.0
 31
0.0
  0
LINE
  5
D46
  8
0
  6
BYBLOCK
 62
     0
 10
0.0
 20
0.0
 30
0.0
 11
-1.0
 21
-0.26794919
 31
0.0
  0
LINE
  5
D47
  8
0
  6
BYBLOCK
 62
     0
 10
0.0
 20
0.0
 30
0.0
 11
-1.0
 21
0.0
 31
0.0
  0
ENDBLK
  5
D48
  8
0
  0
ENDSEC
  0
SECTION
  2
ENTITIES
  0
INSERT
  5
6E6
  8
245
  2
矢印なし
 10
175.62382696643769
 20
90.551235716905978
 30
0.0
  0
TEXT
  5
9C6
  8
241
  6
CONTINUOUS
 10
-0.0000000000039222
 20
35.0
 30
0.0
 40
5.0
  1
ST3W-CS3-45B-12
  7
YOKO
 11
-0.0000000000039222
 21
35.0
 31
0.0
 73
     1
  0
LINE
  5
BCD
  8
250
  6
CONTINUOUS
 10
39.999999999984141
 20
1.4500000000197539
 30
0.0
 11
50.000000000000028
 21
1.4500000000197411
 31
0.0
  0
LINE
  5
BD0
  8
250
  6
CONTINUOUS
 10
49.000000000000028
 20
1.4500000000197411
 30
0.0
 11
49.000000000000753
 21
-8.1057597905052461
 31
0.0
  0
LINE
  5
DA6
  8
250
  6
CONTINUOUS
 10
-12.41986601612764
 20
-10.91809668929028
 30
0.0
 11
0.380133983872355
 21
-10.91809668929028
 31
0.0
  0
LINE
  5
DA7
  8
250
  6
CONTINUOUS
 10
0.380133983872355
 20
-10.91809668929028
 30
0.0
 11
4.8335360789303063
 21
-3.417485694476885
 31
0.0
  0
LINE
  5
DA8
  8
250
  6
CONTINUOUS
 10
4.8335360789303063
 20
-3.417485694476885
 30
0.0
 11
5.9720213056579823
 21
-1.500000000000175
 31
0.0
  0
LINE
  5
DA9
  8
250
  6
CONTINUOUS
 10
5.0859778585699429
 20
-3.5673701173731951
 30
0.0
 11
5.9720213056579823
 21
-1.500000000000175
 31
0.0
  0
LINE
  5
DAA
  8
250
  6
CONTINUOUS
 10
5.9720213056579823
 20
-1.500000000000175
 30
0.0
 11
4.581094299290668
 21
-3.2676012715805758
 31
0.0
  0
TEXT
  5
DAB
  8
250
  6
CONTINUOUS
 10
-11.84067541122594
 20
-9.5180966892902816
 30
0.0
 40
2.7999999999999989
  1
ST3W
  7
ACJISTS
  0
LINE
  5
DAC
  8
247
  6
CONTINUOUS
 10
4.0002000800640651
 20
-1.000000000000081
 30
0.0
 11
7.7078923875280667
 21
-1.000000000000081
 31
0.0
  0
LINE
  5
DAD
  8
247
  6
CONTINUOUS
 10
4.6362852800736842
 20
0.999999999999919
 30
0.0
 11
4.15455303201818
 21
-0.6799999999328877
 31
0.0
  0
LINE
  5
DAE
  8
247
  6
CONTINUOUS
 10
5.1400789572488277
 20
0.2030769231088115
 30
0.0
 11
4.4077712649704379
 21
0.2030769231088115
 31
0.0
  0
ARC
  5
DAF
  8
247
  6
CONTINUOUS
 10
5.3303893585066131
 20
0.6922247461646393
 30
0.0
 40
0.3101372647461394
 50
342.99788967529531
 51
82.924166218513619
  0
ARC
  5
DB0
  8
247
  6
CONTINUOUS
 10
5.0942180346207566
 20
0.7558214951775071
 30
0.0
 40
0.5546438372287013
 50
274.74293685219902
 51
343.84922627326682
1001
GENIUS_GENOBJ-N-FIL_13
1002
{
1000
OWNER
1000
GEN
1002
}
1001
GENIUS_GENODEF_13
1002
{
1000
HIER
1070
     0
1002
}
1002
{
1000
MANEDIT
1070
     0
1002
}
1002
{
1000
NOSEL
1070
     0
1002
}
1002
{
1000
BEHIND
1070
     0
1002
}
1002
{
1000
OTHER
1070
     0
1002
}
1002
{
1000
REACTOR
1002
}
  0
LINE
  5
DB1
  8
247
  6
CONTINUOUS
 10
4.8868607242965707
 20
-0.6799999999328877
 30
0.0
 11
4.15455303201818
 21
-0.6799999999328877
 31
0.0
  0
LINE
  5
DB2
  8
247
  6
CONTINUOUS
 10
4.6362852800736842
 20
0.999999999999919
 30
0.0
 11
5.3685929723521211
 21
0.999999999999919
 31
0.0
  0
ARC
  5
DB3
  8
247
  6
CONTINUOUS
 10
5.0975548990505777
 20
-0.1099335702144246
 30
0.0
 40
0.3158858408603088
 50
335.9909416525216
 51
82.263443459069109
  0
ARC
  5
DB4
  8
247
  6
CONTINUOUS
 10
4.830242791722525
 20
-0.1129602618661821
 30
0.0
 40
0.5698593289889349
 50
275.70198516425643
 51
347.27733843682199
1001
GENIUS_GENOBJ-N-FIL_13
1002
{
1000
OWNER
1000
GEN
1002
}
1001
GENIUS_GENODEF_13
1002
{
1000
HIER
1070
     0
1002
}
1002
{
1000
MANEDIT
1070
     0
1002
}
1002
{
1000
NOSEL
1070
     0
1002
}
1002
{
1000
BEHIND
1070
     0
1002
}
1002
{
1000
OTHER
1070
     0
1002
}
1002
{
1000
REACTOR
1002
}
  0
LINE
  5
DB5
  8
247
  6
CONTINUOUS
 10
5.6530145704133474
 20
-0.6799999999328877
 30
0.0
 11
6.1347468184688969
 21
0.999999999999919
 31
0.0
  0
LINE
  5
DB6
  8
247
  6
CONTINUOUS
 10
7.3316698953376767
 20
0.999999999999919
 30
0.0
 11
7.014857388621226
 21
0.999999999999919
 31
0.0
  0
LINE
  5
DB7
  8
247
  6
CONTINUOUS
 10
6.5132083569088763
 20
-0.6799999999328877
 30
0.0
 11
6.8578237415105141
 21
-0.6799999999328877
 31
0.0
  0
ARC
  5
DB8
  8
247
  6
CONTINUOUS
 10
7.4947468184080881
 20
-0.166639676066815
 30
0.0
 40
1.2614840461116379
 50
112.3594881415292
 51
164.99324854284649
  0
ARC
  5
DB9
  8
247
  6
CONTINUOUS
 10
7.1221909871574791
 20
0.5473449131695006
 30
0.0
 40
0.4987765437607558
 50
4.9945893190753132
 51
65.166328957308281
1001
GENIUS_GENOBJ-N-FIL_13
1002
{
1000
OWNER
1000
GEN
1002
}
1001
GENIUS_GENODEF_13
1002
{
1000
HIER
1070
     0
1002
}
1002
{
1000
MANEDIT
1070
     0
1002
}
1002
{
1000
NOSEL
1070
     0
1002
}
1002
{
1000
BEHIND
1070
     0
1002
}
1002
{
1000
OTHER
1070
     0
1002
}
1002
{
1000
REACTOR
1002
}
  0
ARC
  5
DBA
  8
247
  6
CONTINUOUS
 10
6.6448529192378611
 20
0.0703183024244125
 30
0.0
 40
0.7799577719285588
 50
285.8460965557839
 51
352.3251370041624
  0
ARC
  5
DBB
  8
247
  6
CONTINUOUS
 10
6.9720307690462731
 20
-0.0971763215768889
 30
0.0
 40
0.7417556510953607
 50
159.71360167048971
 51
231.7887456564151
1001
GENIUS_GENOBJ-N-FIL_13
1002
{
1000
OWNER
1000
GEN
1002
}
1001
GENIUS_GENODEF_13
1002
{
1000
HIER
1070
     0
1002
}
1002
{
1000
MANEDIT
1070
     0
1002
}
1002
{
1000
NOSEL
1070
     0
1002
}
1002
{
1000
BEHIND
1070
     0
1002
}
1002
{
1000
OTHER
1070
     0
1002
}
1002
{
1000
REACTOR
1002
}
  0
LINE
  5
DBC
  8
247
  6
CONTINUOUS
 10
7.030131433811289
 20
-0.0338461538048151
 30
0.0
 11
7.4178237414880872
 21
-0.0338461538048151
 31
0.0
  0
ARC
  5
DBD
  8
247
  6
CONTINUOUS
 10
4.0002000800640651
 20
-0.0000000000000811
 30
0.0
 40
1.0
 50
90.0
 51
270.0
  0
LINE
  5
DBE
  8
247
  6
CONTINUOUS
 10
4.0002000800640651
 20
0.999999999999919
 30
0.0
 11
4.3571231569328797
 21
0.999999999999919
 31
0.0
  0
ARC
  5
DBF
  8
247
  6
CONTINUOUS
 10
7.7078923875280667
 20
-0.0000000000000811
 30
0.0
 40
1.0
 50
270.0
 51
90.0
  0
LINE
  5
DC0
  8
245
  6
CENTER2
 10
-0.9999999999999856
 20
-0.0000000000000142
 30
0.0
 11
41.000000000002238
 21
-0.0000000000000142
 31
0.0
  0
LINE
  5
DC1
  8
240
  6
CONTINUOUS
 10
27.047372055839279
 20
1.500000000000099
 30
0.0
 11
-0.0000000000058833
 21
1.499999999999867
 31
0.0
  0
LINE
  5
DC2
  8
240
  6
CONTINUOUS
 10
27.04737205583314
 20
-1.499999999999899
 30
0.0
 11
0.0000000000058833
 21
-1.4999999999999569
 31
0.0
  0
LINE
  5
DC3
  8
241
  6
CONTINUOUS
 10
39.299999999980123
 20
-1.45000000000472
 30
0.0
 11
39.299999999983427
 21
1.4500000000046911
 31
0.0
  0
LINE
  5
DC4
  8
241
  6
CONTINUOUS
 10
39.499999999984141
 20
-1.449999999995512
 30
0.0
 11
39.499999999985221
 21
1.4499999999954829
 31
0.0
  0
LINE
  5
DC5
  8
240
  6
CONTINUOUS
 10
28.000000000000512
 20
0.9500000000007702
 30
0.0
 11
38.799999999987847
 21
0.9500000000001447
 31
0.0
  0
LINE
  5
DC6
  8
240
  6
CONTINUOUS
 10
27.999999999996419
 20
-0.9499999999997186
 30
0.0
 11
38.799999999976357
 21
-0.9500000000004008
 31
0.0
  0
LINE
  5
DC7
  8
240
  6
CONTINUOUS
 10
39.299999999977281
 20
1.449999999992414
 30
0.0
 11
39.499999999982784
 21
1.4500000000197539
 31
0.0
  0
LINE
  5
DC8
  8
240
  6
CONTINUOUS
 10
39.300000000013988
 20
-1.4500000000372351
 30
0.0
 11
39.499999999976637
 21
-1.450000000004833
 31
0.0
  0
LINE
  5
DC9
  8
240
  6
CONTINUOUS
 10
39.299999999977281
 20
1.449999999992414
 30
0.0
 11
38.799999999987847
 21
0.9500000000001447
 31
0.0
  0
LINE
  5
DCA
  8
240
  6
CONTINUOUS
 10
40.00000000000324
 20
-0.9499999999749347
 30
0.0
 11
39.499999999976637
 21
-1.450000000004833
 31
0.0
  0
LINE
  5
DCB
  8
240
  6
CONTINUOUS
 10
39.300000000013988
 20
-1.4500000000372351
 30
0.0
 11
38.799999999976357
 21
-0.9500000000004008
 31
0.0
  0
LINE
  5
DCC
  8
240
  6
CONTINUOUS
 10
40.000000000003922
 20
0.9499999999998608
 30
0.0
 11
39.499999999982784
 21
1.4500000000197539
 31
0.0
  0
LINE
  5
DCD
  8
240
  6
CONTINUOUS
 10
40.00000000000324
 20
-0.9499999999749347
 30
0.0
 11
40.000000000001229
 21
0.9499999999749063
 31
0.0
  0
LINE
  5
DCE
  8
241
  6
CONTINUOUS
 10
38.799999999989438
 20
-0.9500000000004008
 30
0.0
 11
38.799999999988827
 21
0.9500000000003723
 31
0.0
  0
LINE
  5
DCF
  8
241
  6
CONTINUOUS
 10
27.99999999999574
 20
-0.9500000000000028
 30
0.0
 11
28.000000000001481
 21
0.9499999999999744
 31
0.0
  0
LINE
  5
DD0
  8
240
  6
CONTINUOUS
 10
27.99999999999574
 20
-0.9500000000000028
 30
0.0
 11
27.04737205583314
 21
-1.499999999999899
 31
0.0
  0
LINE
  5
DD1
  8
240
  6
CONTINUOUS
 10
28.000000000001759
 20
0.9500000000008269
 30
0.0
 11
27.047372055839279
 21
1.500000000000099
 31
0.0
  0
LINE
  5
DD2
  8
241
  6
CONTINUOUS
 10
27.047372055839279
 20
-1.499999999999899
 30
0.0
 11
27.04737205583864
 21
1.499999999999871
 31
0.0
  0
LINE
  5
DDD
  8
240
  6
CONTINUOUS
 10
-0.0000000000058833
 20
1.499999999999867
 30
0.0
 11
0.0000000000058833
 21
-1.4999999999999569
 31
0.0
  0
TEXT
  5
DDF
  8
250
  6
CONTINUOUS
 10
48.0
 20
-9.474956129597027
 30
0.0
 40
3.0
  1
\U+22052.9
 50
90.0
1001
ACAD
1000
MTEXTBEGIN
1070
    73
1070
     1
1070
    44
1040
1.0
1070
    74
1070
     0
1000
MTEXTEND
  0
LINE
  5
DE0
  8
250
  6
CONTINUOUS
 10
48.666666666666693
 20
-0.549999999980259
 30
0.0
 11
49.000000000000028
 21
1.4500000000197411
 31
0.0
  0
LINE
  5
DE1
  8
250
  6
CONTINUOUS
 10
49.333333333333371
 20
-0.549999999980259
 30
0.0
 11
49.000000000000028
 21
1.4500000000197411
 31
0.0
  0
LINE
  5
DE2
  8
250
  6
CONTINUOUS
 10
49.000000000000028
 20
1.4500000000197411
 30
0.0
 11
49.000000000000028
 21
-0.549999999980259
 31
0.0
  0
LINE
  5
DE3
  8
250
  6
CONTINUOUS
 10
-0.0000000000039222
 20
1.999999999999867
 30
0.0
 11
-0.0000000000039209
 21
21.999999999999989
 31
0.0
  0
LINE
  5
DE4
  8
250
  6
CONTINUOUS
 10
40.00000000000324
 20
1.449999999974906
 30
0.0
 11
40.00000000000324
 21
21.999999999999989
 31
0.0
  0
LINE
  5
DE5
  8
250
  6
CONTINUOUS
 10
1.9999999999960789
 20
20.999999999999989
 30
0.0
 11
38.00000000000324
 21
20.999999999999989
 31
0.0
  0
LINE
  5
DE9
  8
250
  6
CONTINUOUS
 10
28.000000000001759
 20
1.4500000000008271
 30
0.0
 11
28.000000000001759
 21
14.99999999999998
 31
0.0
  0
LINE
  5
DEA
  8
250
  6
CONTINUOUS
 10
40.000000000003922
 20
1.4499999999998601
 30
0.0
 11
40.000000000003922
 21
14.99999999999998
 31
0.0
  0
LINE
  5
DEB
  8
250
  6
CONTINUOUS
 10
30.000000000001759
 20
13.99999999999998
 30
0.0
 11
38.000000000003922
 21
13.99999999999998
 31
0.0
  0
TEXT
  5
DF7
  8
250
  6
CONTINUOUS
 10
17.142857142856801
 20
21.999999999999989
 30
0.0
 40
3.0
  1
40
1001
ACAD
1000
MTEXTBEGIN
1070
    73
1070
     1
1070
    44
1040
1.0
1070
    74
1070
     0
1000
MTEXTEND
  0
LINE
  5
DF8
  8
250
  6
CONTINUOUS
 10
38.00000000000324
 20
21.333333333333321
 30
0.0
 11
40.00000000000324
 21
20.999999999999989
 31
0.0
  0
LINE
  5
DF9
  8
250
  6
CONTINUOUS
 10
38.00000000000324
 20
20.666666666666661
 30
0.0
 11
40.00000000000324
 21
20.999999999999989
 31
0.0
  0
LINE
  5
DFA
  8
250
  6
CONTINUOUS
 10
40.00000000000324
 20
20.999999999999989
 30
0.0
 11
38.00000000000324
 21
20.999999999999989
 31
0.0
  0
LINE
  5
DFB
  8
250
  6
CONTINUOUS
 10
1.999999999996078
 20
20.666666666666661
 30
0.0
 11
-0.000000000003921
 21
20.999999999999989
 31
0.0
  0
LINE
  5
DFC
  8
250
  6
CONTINUOUS
 10
1.999999999996078
 20
21.333333333333321
 30
0.0
 11
-0.000000000003921
 21
20.999999999999989
 31
0.0
  0
LINE
  5
DFD
  8
250
  6
CONTINUOUS
 10
-0.000000000003921
 20
20.999999999999989
 30
0.0
 11
1.999999999996078
 21
20.999999999999989
 31
0.0
  0
TEXT
  5
DFE
  8
250
  6
CONTINUOUS
 10
30.92857142857428
 20
14.99999999999998
 30
0.0
 40
3.0
  1
12
1001
ACAD
1000
MTEXTBEGIN
1070
    73
1070
     1
1070
    44
1040
1.0
1070
    74
1070
     0
1000
MTEXTEND
  0
LINE
  5
DFF
  8
250
  6
CONTINUOUS
 10
38.000000000003922
 20
14.333333333333311
 30
0.0
 11
40.000000000003922
 21
13.99999999999998
 31
0.0
  0
LINE
  5
E00
  8
250
  6
CONTINUOUS
 10
38.000000000003922
 20
13.666666666666639
 30
0.0
 11
40.000000000003922
 21
13.99999999999998
 31
0.0
  0
LINE
  5
E01
  8
250
  6
CONTINUOUS
 10
40.000000000003922
 20
13.99999999999998
 30
0.0
 11
38.000000000003922
 21
13.99999999999998
 31
0.0
  0
LINE
  5
E02
  8
250
  6
CONTINUOUS
 10
30.000000000001759
 20
13.666666666666639
 30
0.0
 11
28.000000000001759
 21
13.99999999999998
 31
0.0
  0
LINE
  5
E03
  8
250
  6
CONTINUOUS
 10
30.000000000001759
 20
14.333333333333311
 30
0.0
 11
28.000000000001759
 21
13.99999999999998
 31
0.0
  0
LINE
  5
E04
  8
250
  6
CONTINUOUS
 10
28.000000000001759
 20
13.99999999999998
 30
0.0
 11
30.000000000001759
 21
13.99999999999998
 31
0.0
  0
VIEWPORT
  5
22
 67
     1
  8
0
 10
261.51769911504419
 20
148.5
 30
0.0
 40
523.0353982300885
 41
297.0
 68
     1
 69
     1
1001
ACAD
1000
MVIEW
1002
{
1070
    16
1010
0.0
1020
0.0
1030
0.0
1010
0.0
1020
0.0
1030
1.0
1040
0.0
1040
297.0
1040
261.51769911504419
1040
148.5
1040
50.0
1040
0.0
1040
0.0
1070
     0
1070
   100
1070
     1
1070
     1
1070
     0
1070
     0
1070
     0
1070
     0
1040
0.0
1040
0.0
1040
0.0
1040
1.0
1040
1.0
1040
10.0
1040
10.0
1070
     0
1002
{
1002
}
1002
}
1001
GENIUS_GENODEF_13
1002
{
1000
HIER
1070
     0
1002
}
1002
{
1000
MANEDIT
1070
     0
1002
}
1002
{
1000
NOSEL
1070
     0
1002
}
1002
{
1000
BEHIND
1070
     0
1002
}
1002
{
1000
OTHER
1070
     0
1002
}
1002
{
1000
REACTOR
1002
}
1001
GENIUS_GENOBJ-N-SDF_13
1002
{
1000
OWNER
1000
GEN
1002
}
1001
GENIUS_GENSCREG_15
1000
PF
1040
1.0
1000
DF
1040
1.0
1000
MIN
1011
0.0
1021
0.0
1031
0.0
1021
0.0
1031
0.0
1000
MAX
1011
523.0353982300885
1021
0.0
1031
0.0
1021
297.0
1031
0.0
1000
FLAGS
1070
     4
  0
ENDSEC
  0
EOF
