  0
SECTION
  2
HEADER
  9
$ACADVER
  1
AC1009
  9
$INSBASE
 10
0.0
 20
0.0
 30
0.0
  9
$EXTMIN
 10
-147.6409330242644
 20
-28.257659619999892
 30
0.0
  9
$EXTMAX
 10
58.688759800550429
 20
61.0
 30
0.0
  9
$LIMMIN
 10
0.0
 20
0.0
  9
$LIMMAX
 10
297.0
 20
210.0
  9
$ORTHOMODE
 70
     0
  9
$REGENMODE
 70
     1
  9
$FILLMODE
 70
     1
  9
$QTEXTMODE
 70
     0
  9
$MIRRTEXT
 70
     1
  9
$DRAGMODE
 70
     2
  9
$LTSCALE
 40
10.0
  9
$OSMODE
 70
    39
  9
$ATTMODE
 70
     1
  9
$TEXTSIZE
 40
3.0
  9
$TRACEWID
 40
1.0
  9
$TEXTSTYLE
  7
YOKO
  9
$CLAYER
  8
240
  9
$CELTYPE
  6
BYLAYER
  9
$CECOLOR
 62
   256
  9
$DIMSCALE
 40
1.0
  9
$DIMASZ
 40
2.2299999999999991
  9
$DIMEXO
 40
0.5
  9
$DIMDLI
 40
7.0
  9
$DIMRND
 40
0.0
  9
$DIMDLE
 40
0.0
  9
$DIMEXE
 40
1.0
  9
$DIMTP
 40
0.0
  9
$DIMTM
 40
0.01
  9
$DIMTXT
 40
2.7999999999999989
  9
$DIMCEN
 40
0.0
  9
$DIMTSZ
 40
0.0
  9
$DIMTOL
 70
     0
  9
$DIMLIM
 70
     0
  9
$DIMTIH
 70
     0
  9
$DIMTOH
 70
     0
  9
$DIMSE1
 70
     0
  9
$DIMSE2
 70
     0
  9
$DIMTAD
 70
     3
  9
$DIMZIN
 70
     9
  9
$DIMBLK
  1
OPEN
  9
$DIMASO
 70
     1
  9
$DIMSHO
 70
     1
  9
$DIMPOST
  1

  9
$DIMAPOST
  1

  9
$DIMALT
 70
     0
  9
$DIMALTD
 70
     2
  9
$DIMALTF
 40
25.399999999999999
  9
$DIMLFAC
 40
1.0
  9
$DIMTOFL
 70
     1
  9
$DIMTVP
 40
0.0
  9
$DIMTIX
 70
     1
  9
$DIMSOXD
 70
     0
  9
$DIMSAH
 70
     0
  9
$DIMBLK1
  1

  9
$DIMBLK2
  1

  9
$DIMSTYLE
  2
BIGT
  9
$DIMCLRD
 70
   256
  9
$DIMCLRE
 70
   256
  9
$DIMCLRT
 70
    40
  9
$DIMTFAC
 40
1.0
  9
$DIMGAP
 40
1.0
  9
$LUNITS
 70
     2
  9
$LUPREC
 70
     6
  9
$SKETCHINC
 40
1.0
  9
$FILLETRAD
 40
0.0
  9
$AUNITS
 70
     0
  9
$AUPREC
 70
     6
  9
$MENU
  1
.
  9
$ELEVATION
 40
0.0
  9
$PELEVATION
 40
0.0
  9
$THICKNESS
 40
0.0
  9
$LIMCHECK
 70
     0
  9
$BLIPMODE
 70
     0
  9
$CHAMFERA
 40
0.2
  9
$CHAMFERB
 40
0.2
  9
$SKPOLY
 70
     0
  9
$TDCREATE
 40
2457840.6580985072
  9
$TDUPDATE
 40
2457840.6762055098
  9
$TDINDWG
 40
0.0178803935
  9
$TDUSRTIMER
 40
0.0178803704
  9
$USRTIMER
 70
     1
  9
$ANGBASE
 50
0.0
  9
$ANGDIR
 70
     0
  9
$PDMODE
 70
     1
  9
$PDSIZE
 40
0.0
  9
$PLINEWID
 40
0.0
  9
$COORDS
 70
     1
  9
$SPLFRAME
 70
     0
  9
$SPLINETYPE
 70
     6
  9
$SPLINESEGS
 70
     4
  9
$ATTDIA
 70
     1
  9
$ATTREQ
 70
     1
  9
$HANDLING
 70
     1
  9
$HANDSEED
  5
4514
  9
$SURFTAB1
 70
     6
  9
$SURFTAB2
 70
     6
  9
$SURFTYPE
 70
     6
  9
$SURFU
 70
     6
  9
$SURFV
 70
     6
  9
$UCSNAME
  2

  9
$UCSORG
 10
0.0
 20
0.0
 30
0.0
  9
$UCSXDIR
 10
1.0
 20
0.0
 30
0.0
  9
$UCSYDIR
 10
0.0
 20
1.0
 30
0.0
  9
$PUCSNAME
  2

  9
$PUCSORG
 10
0.0
 20
0.0
 30
0.0
  9
$PUCSXDIR
 10
1.0
 20
0.0
 30
0.0
  9
$PUCSYDIR
 10
0.0
 20
1.0
 30
0.0
  9
$USERI1
 70
     1
  9
$USERI2
 70
     0
  9
$USERI3
 70
     0
  9
$USERI4
 70
     0
  9
$USERI5
 70
     0
  9
$USERR1
 40
0.0
  9
$USERR2
 40
0.0
  9
$USERR3
 40
0.0
  9
$USERR4
 40
0.0
  9
$USERR5
 40
0.0
  9
$WORLDVIEW
 70
     1
  9
$SHADEDGE
 70
     3
  9
$SHADEDIF
 70
    70
  9
$TILEMODE
 70
     1
  9
$MAXACTVP
 70
    16
  9
$PLIMCHECK
 70
     0
  9
$PEXTMIN
 10
1.0000000000000000E+020
 20
1.0000000000000000E+020
 30
1.0000000000000000E+020
  9
$PEXTMAX
 10
-1.0000000000000000E+020
 20
-1.0000000000000000E+020
 30
-1.0000000000000000E+020
  9
$PLIMMIN
 10
0.0
 20
0.0
  9
$PLIMMAX
 10
420.0
 20
297.0
  9
$UNITMODE
 70
     0
  9
$VISRETAIN
 70
     1
  9
$PLINEGEN
 70
     0
  9
$PSLTSCALE
 70
     1
  0
ENDSEC
  0
SECTION
  2
TABLES
  0
TABLE
  2
VPORT
 70
     1
  0
VPORT
  2
*ACTIVE
 70
     0
 10
0.0
 20
0.0
 11
1.0
 21
1.0
 12
-40.225589850481803
 22
25.947071369123211
 13
0.0
 23
0.0
 14
7.0
 24
7.0
 15
7.0
 25
7.0
 16
0.0
 26
0.0
 36
1.0
 17
0.0
 27
0.0
 37
0.0
 40
218.3234930476863
 41
1.5303030303030301
 42
50.0
 43
0.0
 44
0.0
 50
0.0
 51
0.0
 71
     0
 72
  2000
 73
     1
 74
     0
 75
     0
 76
     1
 77
     0
 78
     0
  0
ENDTAB
  0
TABLE
  2
LTYPE
 70
    21
  0
LTYPE
  2
CONTINUOUS
 70
     0
  3
Solid line
 72
    65
 73
     0
 40
0.0
  0
LTYPE
  2
CENTER2
 70
     0
  3
___ _ ___ _ ___ _ ___ _ ___ _ ___ _ ___ _ ___ _
 72
    65
 73
     4
 40
1.125
 49
0.75
 49
-0.125
 49
0.125
 49
-0.125
  0
LTYPE
  2
AM_ISO02W050
 70
     0
  3
__ __ __ __ __ __ __ __ __ __ __ __ __ __ __
 72
    65
 73
     2
 40
7.5
 49
6.0
 49
-1.5
  0
LTYPE
  2
AMCONSTR
 70
     0
  3
_______________________
 72
    65
 73
     2
 40
9999.0
 49
9999.0
 49
0.0
  0
LTYPE
  2
ACISOWELD
 70
     0
  3
_ _ _ _ _
 72
    65
 73
     2
 40
2.0
 49
2.0
 49
-1.0
  0
LTYPE
  2
ACISOTGB
 70
     0
  3
__ . . __ . .
 72
    65
 73
     6
 40
9.0
 49
4.0
 49
-1.0
 49
1.0
 49
-1.0
 49
1.0
 49
-1.0
  0
LTYPE
  2
ACISOTGL
 70
     0
  3
_ _ _ _ _
 72
    65
 73
     2
 40
3.0
 49
2.0
 49
-1.0
  0
LTYPE
  2
AM_ISO08W050
 70
     0
  3
____ . ____ . ____ . ____ . ____ . ____ . ____
 72
    65
 73
     4
 40
18.0
 49
12.0
 49
-1.5
 49
3.0
 49
-1.5
  0
LTYPE
  2
AM_ISO09W050
 70
     0
  3
_____ . . _____ . . _____ . . ____ .. ____
 72
    65
 73
     6
 40
22.5
 49
12.0
 49
-1.5
 49
3.0
 49
-1.5
 49
3.0
 49
-1.5
  0
LTYPE
  2
AM_ISO08W050X2
 70
     0
  3
__ . __ . __ . __ . __ . __
 72
    65
 73
     4
 40
9.0
 49
6.0
 49
-0.75
 49
1.5
 49
-0.75
  0
LTYPE
  2
AM_ISO02W050X2
 70
     0
  3
 _ _ _ _ _ _ _ _ _ _ _ _
 72
    65
 73
     2
 40
3.75
 49
3.0
 49
-0.75
  0
LTYPE
  2
AMZIGZAG
 70
     0
  3
/\/-/\/-/\/-/\/-/\/-/\/
 72
    65
 73
     2
 40
11.0001
 49
0.0001
 49
-11.0
  0
ENDTAB
  0
TABLE
  2
LAYER
 70
     7
  0
LAYER
  2
0
 70
     0
 62
     7
  6
CONTINUOUS
  0
LAYER
  2
DEFPOINTS
 70
     0
 62
     7
  6
CONTINUOUS
  0
LAYER
  2
245
 70
     0
 62
     2
  6
CENTER2
  0
LAYER
  2
240
 70
     0
 62
     4
  6
CONTINUOUS
  0
LAYER
  2
241
 70
     0
 62
   211
  6
CONTINUOUS
  0
LAYER
  2
247
 70
     0
 62
    60
  6
CONTINUOUS
  0
LAYER
  2
250
 70
     0
 62
     3
  6
CONTINUOUS
  0
ENDTAB
  0
TABLE
  2
STYLE
 70
     8
  0
STYLE
  2
STANDARD
 70
     0
 40
0.0
 41
1.0
 50
0.0
 71
     0
 42
3.0
  3
romans.shx
  4
extfont.shx
  0
STYLE
  2
ACISOGDT
 70
     0
 40
0.0
 41
1.0
 50
0.0
 71
     0
 42
3.0
  3
amgdt.shx
  4
extfont.shx
  0
STYLE
  2
YOKO
 70
     0
 40
0.0
 41
1.0
 50
0.0
 71
     0
 42
3.0
  3
romans.shx
  4
extfont.shx
  0
STYLE
  2

 70
     1
 40
0.0
 41
1.0
 50
0.0
 71
     0
 42
3.0
  3
genltshp.shx
  4

  0
ENDTAB
  0
TABLE
  2
VIEW
 70
     0
  0
ENDTAB
  0
TABLE
  2
UCS
 70
     0
  0
ENDTAB
  0
TABLE
  2
APPID
 70
    42
  0
APPID
  2
ACAD
 70
     0
  0
APPID
  2
GLOBAL
 70
     0
  0
APPID
  2
DETAIL
 70
     0
  0
APPID
  2
GRPNAME
 70
     0
  0
APPID
  2
GPARA
 70
     0
  0
APPID
  2
MCAD_NO_VIS
 70
     0
  0
APPID
  2
ACAD_TEMP_GRAPHIC
 70
     0
  0
APPID
  2
ACATTRIBSERVICES
 70
     0
  0
APPID
  2
GENIUS_GENSCREG_15
 70
     0
  0
APPID
  2
GENIUS_GENODEF_13
 70
     0
  0
APPID
  2
GENIUS_GENOBJ-N-SDF_13
 70
     0
  0
APPID
  2
GENIUS_GENREC_14
 70
     0
  0
APPID
  2
GENIUS_GENOBJ-N-REC_13
 70
     0
  0
APPID
  2
GENIUS_GENDIMSH_14
 70
     0
  0
APPID
  2
GENIUS_GENOBJ-N-DIM_13
 70
     0
  0
APPID
  2
GENIUS_GENDIM_13
 70
     0
  0
APPID
  2
GENIUS_GENDTOL_13
 70
     0
  0
APPID
  2
GENIUS_GENOLIS_13
 70
     0
  0
APPID
  2
GENIUS_GENOENT_13
 70
     0
  0
APPID
  2
GENIUS_GENOBJ-F-FEM_13
 70
     0
  0
APPID
  2
GENIUS_GENOREF_13
 70
     0
  0
APPID
  2
GENIUS_GEFFEM_13
 70
     0
  0
APPID
  2
GENIUS_GEFFEMP_13
 70
     0
  0
APPID
  2
AD_DRAW
 70
     0
  0
APPID
  2
DESIGNERASSEMBLIES
 70
     0
  0
APPID
  2
ACADM_DIM_EDIT
 70
     0
  0
APPID
  2
AMDT_DM_ADJ
 70
     0
  0
APPID
  2
ITEMNAME
 70
     0
  0
APPID
  2
GENIUS_GENOBJ-N-FIL_13
 70
     0
  0
APPID
  2
GENIUS_GENFIL_13
 70
     0
  0
APPID
  2
GENIUS_GENOBJ-N-CHA_13
 70
     0
  0
APPID
  2
ACAECLAYERSTANDARD
 70
     0
  0
APPID
  2
ACAD_NAV_VCDISPLAY
 70
     0
  0
APPID
  2
ACAD_DSTYLE_DIMJAG
 70
     0
  0
APPID
  2
ACAD_DSTYLE_DIMBREAK
 70
     0
  0
APPID
  2
ACAD_PSEXT
 70
     0
  0
APPID
  2
ACAD_EXEMPT_FROM_CAD_STANDARDS
 70
     0
  0
APPID
  2
ACAD_MLEADERVER
 70
     0
  0
APPID
  2
ACAD_DSTYLE_DIMARC_LENGTH_
 70
     0
  0
APPID
  2
ACAD_DSTYLE_DIM_LINETYPE
 70
     0
  0
APPID
  2
ACAD_DSTYLE_DIM_EXT1_LINETYPE
 70
     0
  0
APPID
  2
ACAD_DSTYLE_DIM_EXT2_LINETYPE
 70
     0
  0
ENDTAB
  0
TABLE
  2
DIMSTYLE
 70
    29
  0
DIMSTYLE
  2
BIGT
 70
     0
  3

  4

  5
OPEN
  6

  7

 40
1.0
 41
2.2299999999999991
 42
0.5
 43
7.0
 44
1.0
 45
0.0
 46
0.0
 47
0.0
 48
0.01
140
2.7999999999999989
141
0.0
142
0.0
143
25.399999999999999
144
1.0
145
0.0
146
1.0
147
1.0
 71
     0
 72
     0
 73
     0
 74
     0
 75
     0
 76
     0
 77
     3
 78
     9
170
     0
171
     2
172
     1
173
     0
174
     1
175
     0
176
   256
177
   256
178
    40
  0
DIMSTYLE
  2
AM_ISO
 70
     0
  3

  4
"
  5

  6

  7

 40
1.0
 41
2.5
 42
1.0
 43
10.0
 44
1.0
 45
0.0
 46
0.0
 47
0.1
 48
0.1
140
3.5
141
0.0
142
0.0
143
0.0393701
144
1.0
145
0.0
146
0.71
147
1.5
 71
     0
 72
     0
 73
     0
 74
     0
 75
     0
 76
     0
 77
     1
 78
     8
170
     0
171
     2
172
     1
173
     0
174
     0
175
     0
176
   256
177
   256
178
     2
  0
DIMSTYLE
  2
AM_ISO$3
 70
     0
  3

  4
"
  5

  6

  7

 40
1.0
 41
2.5
 42
1.0
 43
10.0
 44
1.0
 45
0.0
 46
0.0
 47
0.1
 48
0.1
140
3.5
141
0.0
142
0.0
143
0.0393701
144
1.0
145
0.0
146
0.71
147
1.5
 71
     0
 72
     0
 73
     0
 74
     1
 75
     0
 76
     0
 77
     1
 78
     8
170
     0
171
     2
172
     0
173
     0
174
     0
175
     0
176
   256
177
   256
178
     2
  0
DIMSTYLE
  2
AM_ISO$4
 70
     0
  3

  4
"
  5

  6

  7

 40
1.0
 41
2.5
 42
1.0
 43
10.0
 44
1.0
 45
0.0
 46
0.0
 47
0.1
 48
0.1
140
3.5
141
0.0
142
0.0
143
0.0393701
144
1.0
145
0.0
146
0.71
147
1.5
 71
     0
 72
     0
 73
     0
 74
     1
 75
     0
 76
     0
 77
     1
 78
     8
170
     0
171
     2
172
     0
173
     0
174
     0
175
     0
176
   256
177
   256
178
     2
  0
DIMSTYLE
  2
AM_ISO$6
 70
     0
  3

  4
"
  5

  6

  7

 40
1.0
 41
2.5
 42
1.0
 43
10.0
 44
1.0
 45
0.0
 46
0.0
 47
0.1
 48
0.1
140
3.5
141
0.0
142
0.0
143
0.0393701
144
1.0
145
0.0
146
0.71
147
1.5
 71
     0
 72
     0
 73
     0
 74
     0
 75
     0
 76
     0
 77
     0
 78
     8
170
     0
171
     2
172
     1
173
     0
174
     0
175
     0
176
   256
177
   256
178
     2
  0
DIMSTYLE
  2
AM_ISO$7
 70
     0
  3

  4
"
  5

  6

  7

 40
1.0
 41
2.5
 42
1.0
 43
10.0
 44
1.0
 45
0.0
 46
0.0
 47
0.1
 48
0.1
140
5.0
141
0.0
142
0.0
143
0.0393701
144
1.0
145
0.0
146
0.71
147
1.5
 71
     0
 72
     0
 73
     0
 74
     0
 75
     0
 76
     0
 77
     1
 78
     8
170
     0
171
     2
172
     1
173
     0
174
     0
175
     0
176
   256
177
   256
178
     2
  0
DIMSTYLE
  2
AM_ISO$SF
 70
     0
  3

  4
"
  5

  6

  7

 40
1.0
 41
2.5
 42
1.0
 43
10.0
 44
1.0
 45
0.0
 46
0.0
 47
0.1
 48
0.1
140
3.5
141
0.0
142
0.0
143
0.0393701
144
1.0
145
0.0
146
0.71
147
1.5
 71
     0
 72
     0
 73
     0
 74
     0
 75
     1
 76
     1
 77
     1
 78
     8
170
     0
171
     2
172
     1
173
     0
174
     0
175
     0
176
   256
177
   256
178
     2
  0
DIMSTYLE
  2
AM_ISO$SH
 70
     0
  3

  4
"
  5

  6
GENAXEH
  7

 40
1.0
 41
2.5
 42
1.0
 43
10.0
 44
1.0
 45
0.0
 46
0.0
 47
0.1
 48
0.1
140
3.5
141
0.0
142
0.0
143
0.0393701
144
2.0
145
0.0
146
0.71
147
1.5
 71
     0
 72
     0
 73
     0
 74
     0
 75
     1
 76
     1
 77
     1
 78
     8
170
     0
171
     2
172
     1
173
     1
174
     0
175
     0
176
   256
177
   256
178
     2
  0
ENDTAB
  0
ENDSEC
  0
SECTION
  2
BLOCKS
  0
BLOCK
  8
0
  2
$MODEL_SPACE
 70
     0
 10
0.0
 20
0.0
 30
0.0
  3
$MODEL_SPACE
  1

  0
ENDBLK
  5
1C
  8
0
  0
BLOCK
 67
     1
  8
0
  2
$PAPER_SPACE
 70
     0
 10
0.0
 20
0.0
 30
0.0
  3
$PAPER_SPACE
  1

  0
ENDBLK
  5
19
 67
     1
  8
0
  0
BLOCK
  8
0
  2
_OPEN
 70
     0
 10
0.0
 20
0.0
 30
0.0
  3
_OPEN
  1

  0
LINE
  5
3E1A
  8
0
  6
BYBLOCK
 62
     0
 10
-1.0
 20
0.1666666666666666
 30
0.0
 11
0.0
 21
0.0
 31
0.0
  0
LINE
  5
3E1B
  8
0
  6
BYBLOCK
 62
     0
 10
-1.0
 20
-0.1666666666666666
 30
0.0
 11
0.0
 21
0.0
 31
0.0
  0
LINE
  5
3E1C
  8
0
  6
BYBLOCK
 62
     0
 10
0.0
 20
0.0
 30
0.0
 11
-1.0
 21
0.0
 31
0.0
  0
ENDBLK
  5
3E1D
  8
0
  0
BLOCK
  8
0
  2
GENAXEH
 70
     0
 10
0.0
 20
0.0
 30
0.0
  3
GENAXEH
  1

  0
LINE
  5
3E45
  8
0
 10
-1.0
 20
0.0
 30
0.0
 11
1.0
 21
0.0
 31
0.0
  0
ENDBLK
  5
3E46
  8
0
  0
ENDSEC
  0
SECTION
  2
ENTITIES
  0
LINE
  5
42FC
  8
241
  6
CONTINUOUS
 10
-5.59999980032444
 20
-18.45210045576118
 30
0.0
 11
-5.59999980032444
 21
-17.63632707297824
 31
0.0
  0
LINE
  5
42FD
  8
241
  6
CONTINUOUS
 10
-7.4999998323619339
 20
-20.384553819895029
 30
0.0
 11
-9.3000000342726707
 21
-20.384553819895029
 31
0.0
  0
LINE
  5
42FE
  8
241
  6
CONTINUOUS
 10
-9.8000001162290555
 20
-19.876619800925479
 30
0.0
 11
-9.8000001162290555
 21
-19.06305365264453
 31
0.0
  0
LINE
  5
42FF
  8
240
  6
CONTINUOUS
 10
-15.03908769092839
 20
-14.97330982238077
 30
0.0
 11
-19.811522215604771
 21
-14.97330982238077
 31
0.0
  0
LINE
  5
4300
  8
240
  6
CONTINUOUS
 10
-0.3999999898951501
 20
-0.4126801430434022
 30
0.0
 11
-0.3999999898951501
 21
-11.65188528127433
 31
0.0
  0
LINE
  5
4301
  8
241
  6
CONTINUOUS
 10
-0.4911382508019991
 20
3.5999999381599541
 30
0.0
 11
0.0
 21
-0.3999999898953774
 31
0.0
  0
LINE
  5
4302
  8
241
  6
CONTINUOUS
 10
0.0
 20
-0.3999999898953774
 30
0.0
 11
-0.3600427589844912
 21
-0.3999999898953774
 31
0.0
  0
LINE
  5
4303
  8
241
  6
CONTINUOUS
 10
-0.3600427589844912
 20
-0.3999999898953774
 30
0.0
 11
-1.1163218878209591
 21
-0.6399999838324675
 31
0.0
  0
LINE
  5
4304
  8
241
  6
CONTINUOUS
 10
-1.1163218878209591
 20
-0.6399999838324672
 30
0.0
 11
-15.712819993495939
 21
-0.6399999838324675
 31
0.0
  0
LINE
  5
4305
  8
240
  6
CONTINUOUS
 10
-0.3999999898951501
 20
11.651885281274319
 30
0.0
 11
-0.3999999898951501
 21
2.8577383927087672
 31
0.0
  0
LINE
  5
4306
  8
241
  6
CONTINUOUS
 10
-0.3999999898951501
 20
11.38476569763041
 30
0.0
 11
-7.4999998323619348
 21
9.3524493277070633
 31
0.0
  0
LINE
  5
4307
  8
241
  6
CONTINUOUS
 10
-0.4911382508019992
 20
3.599999938159955
 30
0.0
 11
-16.338003799319271
 21
3.5999999381599519
 31
0.0
  0
LINE
  5
4308
  8
241
  6
CONTINUOUS
 10
-16.829140484333031
 20
-0.3999999898953774
 30
0.0
 11
-16.338003799319271
 21
3.5999999381599519
 31
0.0
  0
LINE
  5
4309
  8
241
  6
CONTINUOUS
 10
-16.469098627567291
 20
-0.3999999898953774
 30
0.0
 11
-15.712819993495939
 21
-0.6399999838324675
 31
0.0
  0
LINE
  5
430A
  8
241
  6
CONTINUOUS
 10
-16.469098627567291
 20
-0.3999999898953774
 30
0.0
 11
-16.829140484333031
 21
-0.3999999898953775
 31
0.0
  0
LINE
  5
430B
  8
241
  6
CONTINUOUS
 10
-15.03908769092885
 20
14.97330982238031
 30
0.0
 11
-17.054591327905651
 21
14.97330982238031
 31
0.0
  0
LINE
  5
430C
  8
241
  6
CONTINUOUS
 10
-20.017145201563832
 20
15.17893280833937
 30
0.0
 11
-19.837040454149239
 21
15.17893280833937
 31
0.0
  0
LINE
  5
430D
  8
241
  6
CONTINUOUS
 10
-51.000003516674042
 20
-16.000000759959448
 30
0.0
 11
-51.000003516674042
 21
16.00000075995899
 31
0.0
  0
ARC
  5
430E
  8
240
  6
CONTINUOUS
 10
-49.985786437626871
 20
-16.400000000000091
 30
0.0
 40
1.0
 50
90.0
 51
135.0
  0
ARC
  5
430F
  8
240
  6
CONTINUOUS
 10
-49.985786437626871
 20
16.39999999999986
 30
0.0
 40
1.0000000000000071
 50
225.0
 51
270.0
  0
LINE
  5
4310
  8
240
  6
CONTINUOUS
 10
-140.9999996423721
 20
-15.99999999999989
 30
0.0
 11
-140.9999996423721
 21
16.00000000000011
 31
0.0
  0
LINE
  5
4311
  8
240
  6
CONTINUOUS
 10
-51.000002756707737
 20
-15.999999999999959
 30
0.0
 11
-50.692893218813417
 21
-15.692893218813539
 31
0.0
  0
LINE
  5
4312
  8
240
  6
CONTINUOUS
 10
-49.985785782337182
 20
-15.399999916553719
 30
0.0
 11
-20.238211378455158
 21
-15.399999916553719
 31
0.0
  0
LINE
  5
4313
  8
241
  6
CONTINUOUS
 10
-50.399997287431347
 20
-15.48981904441791
 30
0.0
 11
-50.399997287431347
 21
15.48981904441791
 31
0.0
  0
LINE
  5
4314
  8
245
  6
CENTER2
 10
-147.6409330242644
 20
0.0000000000001137
 30
0.0
 11
5.500201354914223
 21
0.0
 31
0.0
  0
LINE
  5
4315
  8
240
  6
CONTINUOUS
 10
-140.9999996423721
 20
16.00000000000011
 30
0.0
 11
-51.000002756722708
 21
16.000000000000039
 31
0.0
  0
LINE
  5
4316
  8
240
  6
CONTINUOUS
 10
-140.9999996423721
 20
-15.99999999999989
 30
0.0
 11
-51.000002756707737
 21
-15.999999999999959
 31
0.0
  0
LINE
  5
4317
  8
240
  6
CONTINUOUS
 10
-49.985786437626871
 20
15.3999999999998
 30
0.0
 11
-20.238211461900281
 21
15.39999999999992
 31
0.0
  0
LINE
  5
4318
  8
250
  6
CONTINUOUS
 10
6.1155313797563613
 20
38.630023569661091
 30
0.0
 11
58.688759800550429
 21
38.630023569660871
 31
0.0
1001
ITEMNAME
1000
LNSP2
  0
ARC
  5
4319
  8
241
  6
CONTINUOUS
 10
-13.8564079389336
 20
-19.029464501581899
 30
0.0
 40
4.056546888077067
 50
359.5255722074404
 51
89.203250887719136
  0
LINE
  5
431A
  8
241
  6
CONTINUOUS
 10
-9.8000001162290555
 20
-19.876619800925479
 30
0.0
 11
-9.3000000342726707
 21
-20.384553819895029
 31
0.0
  0
LINE
  5
431B
  8
241
  6
CONTINUOUS
 10
-7.4999998323619339
 20
-20.384553819895029
 30
0.0
 11
-5.59999980032444
 21
-18.45210045576118
 31
0.0
  0
ARC
  5
431C
  8
241
  6
CONTINUOUS
 10
-1.5613513594546731
 20
-12.3616210099608
 30
0.0
 40
1.1682465091551391
 50
268.1041622801564
 51
353.7718974856507
  0
ARC
  5
431D
  8
241
  6
CONTINUOUS
 10
-1.534599247174683
 20
-17.594319562763101
 30
0.0
 40
4.0656175777444732
 50
90.921716408126315
 51
180.59201236328491
  0
LINE
  5
431E
  8
241
  6
CONTINUOUS
 10
-20.238211461900281
 20
15.39999999999992
 30
0.0
 11
-20.017145201563832
 21
15.17893280833937
 31
0.0
  0
LINE
  5
431F
  8
241
  6
CONTINUOUS
 10
-19.837040454149239
 20
15.17893280833937
 30
0.0
 11
-12.77167453219057
 21
10.59063035223644
 31
0.0
  0
ARC
  5
4320
  8
241
  6
CONTINUOUS
 10
-18.559143441735639
 20
22.49725918469332
 30
0.0
 40
7.672906298781486
 50
264.0485149616548
 51
281.30819153979752
  0
TEXT
  5
4321
  8
241
  6
CONTINUOUS
 10
-140.0
 20
56.0
 30
0.0
 40
5.0
  1
ST32-RC124B-50+RC12400
  7
YOKO
1001
ITEMNAME
1000
DI010
  0
LINE
  5
4322
  8
250
  6
CONTINUOUS
 10
-49.999999999999893
 20
15.89999999999981
 30
0.0
 11
-49.999999999999893
 21
36.0
 31
0.0
  0
LINE
  5
4323
  8
250
  6
CONTINUOUS
 10
0.0
 20
13.45363344252087
 30
0.0
 11
0.0000000000000011
 21
36.0
 31
0.0
  0
LINE
  5
4324
  8
250
  6
CONTINUOUS
 10
-47.769999999999889
 20
35.0
 30
0.0
 11
-2.2299999999999991
 21
35.0
 31
0.0
  0
LINE
  5
4325
  8
250
  6
CONTINUOUS
 10
-7.5175522354634259
 20
21.0
 30
0.0
 11
16.348892863860389
 21
20.999999999999989
 31
0.0
  0
LINE
  5
4326
  8
250
  6
CONTINUOUS
 10
15.348892863860391
 20
18.769999999999989
 30
0.0
 11
15.348892863860391
 21
-4.6095238095238109
 31
0.0
  0
LINE
  5
4327
  8
250
  6
CONTINUOUS
 10
0.0
 20
13.453633353339111
 30
0.0
 11
0.0000000000000015
 21
43.0
 31
0.0
  0
LINE
  5
4328
  8
250
  6
CONTINUOUS
 10
-140.9999996423721
 20
16.50000000000011
 30
0.0
 11
-140.9999996423721
 21
43.0
 31
0.0
  0
LINE
  5
4329
  8
250
  6
CONTINUOUS
 10
-2.2299999999999982
 20
42.0
 30
0.0
 11
-138.76999964237211
 21
42.0
 31
0.0
  0
LINE
  5
432A
  8
240
  6
CONTINUOUS
 10
-19.811522215604771
 20
-14.97330982238077
 30
0.0
 11
-20.238211378455158
 21
-15.399999916553719
 31
0.0
  0
LINE
  5
432B
  8
250
  6
CONTINUOUS
 10
-1.529107026616543
 20
25.256904608795519
 30
0.0
 11
6.1155313797563613
 21
38.630023569661091
 31
0.0
1001
ACAD
1000
DSTYLE
1002
{
1070
    40
1040
1.0
1002
}
  0
LINE
  5
432C
  8
250
  6
CONTINUOUS
 10
-1.2064396819838741
 20
25.07245435583064
 30
0.0
 11
-2.635808544405903
 21
23.320900540999499
 31
0.0
  0
LINE
  5
432D
  8
250
  6
CONTINUOUS
 10
-1.851774371249213
 20
25.441354861760409
 30
0.0
 11
-2.635808544405903
 21
23.320900540999499
 31
0.0
  0
LINE
  5
432E
  8
250
  6
CONTINUOUS
 10
-2.635808544405903
 20
23.320900540999499
 30
0.0
 11
-1.5291070266165441
 21
25.256904608795519
 31
0.0
  0
TEXT
  5
432F
  8
250
  6
CONTINUOUS
 10
-27.666666666666611
 20
36.0
 30
0.0
 40
2.799999999999998
  1
50
  0
LINE
  5
4330
  8
250
  6
CONTINUOUS
 10
-2.2299999999999991
 20
35.371666666666663
 30
0.0
 11
0.0000000000000011
 21
35.0
 31
0.0
  0
LINE
  5
4331
  8
250
  6
CONTINUOUS
 10
-2.2299999999999991
 20
34.628333333333337
 30
0.0
 11
0.0000000000000011
 21
35.0
 31
0.0
  0
LINE
  5
4332
  8
250
  6
CONTINUOUS
 10
0.0000000000000011
 20
35.0
 30
0.0
 11
-2.2299999999999991
 21
35.0
 31
0.0
  0
LINE
  5
4333
  8
250
  6
CONTINUOUS
 10
-47.769999999999889
 20
34.628333333333337
 30
0.0
 11
-49.999999999999893
 21
35.0
 31
0.0
  0
LINE
  5
4334
  8
250
  6
CONTINUOUS
 10
-47.769999999999889
 20
35.371666666666663
 30
0.0
 11
-49.999999999999893
 21
35.0
 31
0.0
  0
LINE
  5
4335
  8
250
  6
CONTINUOUS
 10
-49.999999999999893
 20
35.0
 30
0.0
 11
-47.769999999999889
 21
35.0
 31
0.0
  0
TEXT
  5
4336
  8
250
  6
CONTINUOUS
 10
14.348892863860391
 20
-3.8952380952380929
 30
0.0
 40
3.0
  1
\U+2205
 50
90.0
  0
TEXT
  5
4337
  8
250
  6
CONTINUOUS
 10
14.24889286386038
 20
-1.1809523809523801
 30
0.0
 40
2.799999999999998
  1
42
 50
90.0
  0
LINE
  5
4338
  8
250
  6
CONTINUOUS
 10
14.977226197193721
 20
18.769999999999989
 30
0.0
 11
15.348892863860391
 21
20.999999999999989
 31
0.0
  0
LINE
  5
4339
  8
250
  6
CONTINUOUS
 10
15.72055953052705
 20
18.769999999999989
 30
0.0
 11
15.348892863860391
 21
20.999999999999989
 31
0.0
  0
LINE
  5
433A
  8
250
  6
CONTINUOUS
 10
15.348892863860391
 20
20.999999999999989
 30
0.0
 11
15.348892863860391
 21
18.769999999999989
 31
0.0
  0
TEXT
  5
433B
  8
250
  6
CONTINUOUS
 10
-74.299999821186034
 20
43.0
 30
0.0
 40
2.799999999999998
  1
141
  0
LINE
  5
433C
  8
250
  6
CONTINUOUS
 10
-138.76999964237211
 20
41.62833333333333
 30
0.0
 11
-140.9999996423721
 21
42.0
 31
0.0
  0
LINE
  5
433D
  8
250
  6
CONTINUOUS
 10
-138.76999964237211
 20
42.37166666666667
 30
0.0
 11
-140.9999996423721
 21
42.0
 31
0.0
  0
LINE
  5
433E
  8
250
  6
CONTINUOUS
 10
-140.9999996423721
 20
42.0
 30
0.0
 11
-138.76999964237211
 21
42.0
 31
0.0
  0
LINE
  5
433F
  8
250
  6
CONTINUOUS
 10
-2.2299999999999982
 20
42.37166666666667
 30
0.0
 11
0.0000000000000015
 21
42.0
 31
0.0
  0
LINE
  5
4340
  8
250
  6
CONTINUOUS
 10
-2.2299999999999982
 20
41.62833333333333
 30
0.0
 11
0.0000000000000015
 21
42.0
 31
0.0
  0
LINE
  5
4341
  8
250
  6
CONTINUOUS
 10
0.0000000000000015
 20
42.0
 30
0.0
 11
-2.2299999999999982
 21
42.0
 31
0.0
  0
ARC
  5
4342
  8
241
  6
CONTINUOUS
 10
-8.4230724592056152
 20
17.263802985989141
 30
0.0
 40
7.9650222712081149
 50
236.90947882413849
 51
276.65500640810762
  0
LINE
  5
4343
  8
240
  6
CONTINUOUS
 10
-51.000002756722708
 20
16.000000000000039
 30
0.0
 11
-50.692893218827578
 21
15.69289321881336
 31
0.0
  0
TEXT
  5
4344
  8
250
  6
CONTINUOUS
 10
8.3821980464230315
 20
39.63002356966112
 30
0.0
 40
2.799999999999998
  1
INSERT MODEL:RC12400
  7
YOKO
1001
ITEMNAME
1000
LNSP3
  0
TEXT
  5
4345
  8
250
  6
CONTINUOUS
 10
7.2355313797563614
 20
34.830023569661087
 30
0.0
 40
2.799999999999998
  1
üiOPTIONüj
  7
YOKO
1001
ITEMNAME
1000
LNSP4
  0
LINE
  5
4346
  8
250
  6
CONTINUOUS
 10
-117.3038432973127
 20
-17.745403317215029
 30
0.0
 11
-115.8669705223721
 21
-15.99999999999989
 31
0.0
  0
LINE
  5
4347
  8
250
  6
CONTINUOUS
 10
-116.660097747138
 20
-18.117069983832781
 30
0.0
 11
-115.8669705223721
 21
-15.99999999999989
 31
0.0
  0
LINE
  5
4348
  8
250
  6
CONTINUOUS
 10
-115.8669705223721
 20
-15.99999999999989
 30
0.0
 11
-116.9819705222253
 21
-17.9312366505239
 31
0.0
  0
LINE
  5
4349
  8
250
  6
CONTINUOUS
 10
-116.9819705222253
 20
-17.9312366505239
 30
0.0
 11
-122.9439336023721
 21
-28.257659619999892
 31
0.0
1001
ACAD
1000
DSTYLE
1002
{
1070
     6
1000
OPEN
1070
   343
1005
594
1002
}
  0
TEXT
  5
434A
  8
250
  6
CONTINUOUS
 10
-135.47726693237209
 20
-27.257659619999892
 30
0.0
 40
2.7999999999999989
  1
ST32
  7
YOKO
1001
ITEMNAME
1000
LNSP3
  0
LINE
  5
434B
  8
250
  6
CONTINUOUS
 10
-122.9439336023721
 20
-28.257659619999892
 30
0.0
 11
-137.87726693237209
 21
-28.257659619999892
 31
0.0
1001
ITEMNAME
1000
LNSP2
  0
LINE
  5
434C
  8
247
  6
CONTINUOUS
 10
-134.24999964244211
 20
-9.9999999999998916
 30
0.0
 11
-127.5576919504021
 21
-9.9999999999998916
 31
0.0
  0
ARC
  5
434D
  8
247
  6
CONTINUOUS
 10
-134.24999964244211
 20
-8.2500000000699227
 30
0.0
 40
1.7499999999299991
 50
90.0
 51
270.0
  0
ARC
  5
434E
  8
247
  6
CONTINUOUS
 10
-127.5576919504021
 20
-8.2500000000699227
 30
0.0
 40
1.7499999999299991
 50
270.0
 51
90.0
  0
LINE
  5
434F
  8
247
  6
CONTINUOUS
 10
-133.38461502709211
 20
-6.5000000001399529
 30
0.0
 11
-134.2448511843341
 21
-9.5000000000199005
 31
0.0
  0
LINE
  5
4350
  8
247
  6
CONTINUOUS
 10
-132.48498346070789
 20
-7.9230769231597877
 30
0.0
 11
-133.79267576834789
 21
-7.9230769231597877
 31
0.0
  0
ARC
  5
4351
  8
247
  6
CONTINUOUS
 10
-132.14514345846189
 20
-7.0495986677027576
 30
0.0
 40
0.5538165441895349
 50
342.99788967529531
 51
82.924166218513548
  0
ARC
  5
4352
  8
247
  6
CONTINUOUS
 10
-132.56687796540089
 20
-6.936033044465721
 30
0.0
 40
0.9904354236226808
 50
274.74293685220061
 51
343.8492262732662
1001
GENIUS_GENOBJ-N-FIL_13
1002
{
1000
OWNER
1000
GEN
1002
}
1001
GENIUS_GENODEF_13
1002
{
1000
HIER
1070
     0
1002
}
1002
{
1000
MANEDIT
1070
     0
1002
}
1002
{
1000
NOSEL
1070
     0
1002
}
1002
{
1000
BEHIND
1070
     0
1002
}
1002
{
1000
OTHER
1070
     0
1002
}
1002
{
1000
REACTOR
1002
}
  0
LINE
  5
4353
  8
247
  6
CONTINUOUS
 10
-132.9371588766941
 20
-9.5000000000199005
 30
0.0
 11
-134.2448511843341
 21
-9.5000000000199005
 31
0.0
  0
LINE
  5
4354
  8
247
  6
CONTINUOUS
 10
-133.38461502709211
 20
-6.5000000001399529
 30
0.0
 11
-132.07692271945211
 21
-6.5000000001399529
 31
0.0
  0
ARC
  5
4355
  8
247
  6
CONTINUOUS
 10
-132.56091927891899
 20
-8.4820242326653723
 30
0.0
 40
0.5640818586791229
 50
335.9909416525216
 51
82.263443459069066
  0
ARC
  5
4356
  8
247
  6
CONTINUOUS
 10
-133.03826232771911
 20
-8.4874290391864005
 30
0.0
 40
1.0176059446230981
 50
275.70198516425808
 51
347.27733843682239
1001
GENIUS_GENOBJ-N-FIL_13
1002
{
1000
OWNER
1000
GEN
1002
}
1001
GENIUS_GENODEF_13
1002
{
1000
HIER
1070
     0
1002
}
1002
{
1000
MANEDIT
1070
     0
1002
}
1002
{
1000
NOSEL
1070
     0
1002
}
1002
{
1000
BEHIND
1070
     0
1002
}
1002
{
1000
OTHER
1070
     0
1002
}
1002
{
1000
REACTOR
1002
}
  0
LINE
  5
4357
  8
247
  6
CONTINUOUS
 10
-131.2833127229141
 20
-9.5000000000199005
 30
0.0
 11
-130.42307656567209
 21
-6.5000000001399529
 31
0.0
  0
LINE
  5
4358
  8
247
  6
CONTINUOUS
 10
-127.9999996426921
 20
-6.5000000001399529
 30
0.0
 11
-128.5657362618287
 21
-6.5000000001399529
 31
0.0
  0
LINE
  5
4359
  8
247
  6
CONTINUOUS
 10
-129.46153810417209
 20
-9.5000000000199005
 30
0.0
 11
-128.84615348881209
 21
-9.5000000000199005
 31
0.0
  0
ARC
  5
435A
  8
247
  6
CONTINUOUS
 10
-127.708790851495
 20
-8.5832851359732611
 30
0.0
 40
2.2526500823422122
 50
112.359488141531
 51
164.99324854284609
  0
ARC
  5
435B
  8
247
  6
CONTINUOUS
 10
-128.37406912158531
 20
-7.3083126551945323
 30
0.0
 40
0.8906723995727782
 50
4.994589319075307
 51
65.166328957300564
1001
GENIUS_GENOBJ-N-FIL_13
1002
{
1000
OWNER
1000
GEN
1002
}
1001
GENIUS_GENODEF_13
1002
{
1000
HIER
1070
     0
1002
}
1002
{
1000
MANEDIT
1070
     0
1002
}
1002
{
1000
NOSEL
1070
     0
1002
}
1002
{
1000
BEHIND
1070
     0
1002
}
1002
{
1000
OTHER
1070
     0
1002
}
1002
{
1000
REACTOR
1002
}
  0
ARC
  5
435C
  8
247
  6
CONTINUOUS
 10
-129.22645852858469
 20
-8.1601458886676763
 30
0.0
 40
1.392781735586712
 50
285.84609655578072
 51
352.32513700416263
  0
ARC
  5
435D
  8
247
  6
CONTINUOUS
 10
-128.64221236821251
 20
-8.4592434315271756
 30
0.0
 40
1.324563662670287
 50
159.71360167049031
 51
231.78874565641291
1001
GENIUS_GENOBJ-N-FIL_13
1002
{
1000
OWNER
1000
GEN
1002
}
1001
GENIUS_GENODEF_13
1002
{
1000
HIER
1070
     0
1002
}
1002
{
1000
MANEDIT
1070
     0
1002
}
1002
{
1000
NOSEL
1070
     0
1002
}
1002
{
1000
BEHIND
1070
     0
1002
}
1002
{
1000
OTHER
1070
     0
1002
}
1002
{
1000
REACTOR
1002
}
  0
LINE
  5
435E
  8
247
  6
CONTINUOUS
 10
-128.53846118113211
 20
-8.3461538462198686
 30
0.0
 11
-127.8461534888521
 21
-8.3461538462198686
 31
0.0
  0
LINE
  5
435F
  8
247
  6
CONTINUOUS
 10
-134.24999964244211
 20
-6.5000000001399529
 30
0.0
 11
-133.57692271939209
 21
-6.5000000001399529
 31
0.0
  0
LINE
  5
4384
  8
241
  6
CONTINUOUS
 10
-13.79999984055757
 20
-14.973309822380759
 30
0.0
 11
-15.0390876909343
 21
-14.97330982238077
 31
0.0
  0
LINE
  5
4385
  8
241
  6
CONTINUOUS
 10
-0.3999999898951503
 20
-12.488360516727189
 30
0.0
 11
-0.3999999898951501
 21
-11.651885281280171
 31
0.0
  0
LINE
  5
43C5
  8
241
  6
CONTINUOUS
 10
-0.0878679656440236
 20
13.27112408671865
 30
0.0
 11
-1.149858687382761
 21
14.333114808456211
 31
0.0
  0
ARC
  5
43C6
  8
241
  6
CONTINUOUS
 10
-0.3000000000000123
 20
13.05899205236271
 30
0.0
 40
0.3
 50
359.99999999999591
 51
44.999999999992802
  0
ARC
  5
43C7
  8
241
  6
CONTINUOUS
 10
-0.3000000000000691
 20
12.176149339888021
 30
0.0
 40
0.3
 50
314.99999999999852
 51
359.99999999999591
  0
LINE
  5
43C8
  8
241
  6
CONTINUOUS
 10
-0.0000000000000293
 20
13.05899205236269
 30
0.0
 11
-0.0000000000000862
 21
12.17614933988799
 31
0.0
  0
ARC
  5
43C9
  8
241
  6
CONTINUOUS
 10
-8.8559920523562301
 20
20.73214139224541
 30
0.0
 40
0.3
 50
89.999999999995111
 51
134.99999999999309
  0
ARC
  5
43CA
  8
241
  6
CONTINUOUS
 10
-7.9731493398815312
 20
20.73214139224536
 30
0.0
 40
0.3
 50
44.999999999999133
 51
89.999999999995111
  0
LINE
  5
43CB
  8
241
  6
CONTINUOUS
 10
-8.8559920523562141
 20
21.032141392245411
 30
0.0
 11
-7.9731493398815161
 21
21.03214139224535
 31
0.0
  0
ARC
  5
43CD
  8
241
  6
CONTINUOUS
 10
-16.52914139223887
 20
13.0589920523639
 30
0.0
 40
0.3
 50
134.99999999999821
 51
151.5270838011464
  0
LINE
  5
43D2
  8
241
  6
CONTINUOUS
 10
-5.2904698756670427
 20
18.473725996743159
 30
0.0
 11
-7.7610173055251437
 21
20.944273426601701
 31
0.0
  0
LINE
  5
43D4
  8
241
  6
CONTINUOUS
 10
-1.290469875664656
 20
14.333114808456481
 30
0.0
 11
-1.149858687382761
 21
14.333114808456211
 31
0.0
  0
LINE
  5
43D5
  8
241
  6
CONTINUOUS
 10
-5.2904698756646837
 20
18.33311480845645
 30
0.0
 11
-5.2904698756670427
 21
18.473725996743159
 31
0.0
  0
ARC
  5
43D6
  8
241
  6
CONTINUOUS
 10
-1.290469875664684
 20
18.333114808456472
 30
0.0
 40
4.0
 50
180.0
 51
270.0
  0
LINE
  5
43D7
  8
241
  6
CONTINUOUS
 10
-9.0681240867121762
 20
20.944273426601391
 30
0.0
 11
-10.130114808448271
 21
19.882282704864839
 31
0.0
  0
LINE
  5
43D8
  8
241
  6
CONTINUOUS
 10
-14.270725996734599
 20
15.741671516580279
 30
0.0
 11
-16.741273426595232
 21
13.27112408672029
 31
0.0
  0
LINE
  5
43DA
  8
241
  6
CONTINUOUS
 10
-10.130114808449999
 20
19.741671516580759
 30
0.0
 11
-10.130114808448271
 21
19.882282704864839
 31
0.0
  0
LINE
  5
43DB
  8
241
  6
CONTINUOUS
 10
-14.130114808449971
 20
15.74167151658075
 30
0.0
 11
-14.270725996734599
 21
15.741671516580279
 31
0.0
  0
ARC
  5
43DC
  8
241
  6
CONTINUOUS
 10
-14.130114808449999
 20
19.741671516580759
 30
0.0
 40
4.0
 50
270.0
 51
0.0
  0
LINE
  5
43E4
  8
241
  6
CONTINUOUS
 10
-0.7742437665852259
 20
11.277641504590299
 30
0.0
 11
-0.0878679656437394
 21
11.964017305531611
 31
0.0
  0
CIRCLE
  5
43F0
  8
241
  6
CONTINUOUS
 10
-8.4145706961194993
 20
12.617570696125959
 30
0.0
 40
3.0
  0
LINE
  5
43F1
  8
241
  6
CONTINUOUS
 10
-0.0878679656439025
 20
-13.27112408671865
 30
0.0
 11
-1.14985868738263
 21
-14.333114808456211
 31
0.0
  0
ARC
  5
43F2
  8
241
  6
CONTINUOUS
 10
-0.299999999999893
 20
-13.058992052362701
 30
0.0
 40
0.3
 50
315.00000000000767
 51
0.000000000004608
  0
ARC
  5
43F3
  8
241
  6
CONTINUOUS
 10
-0.299999999999958
 20
-12.17614933988801
 30
0.0
 40
0.3
 50
0.000000000004608
 51
45.000000000002011
  0
LINE
  5
43F4
  8
241
  6
CONTINUOUS
 10
0.0000000000000898
 20
-13.058992052362679
 30
0.0
 11
0.0000000000000249
 21
-12.17614933988799
 31
0.0
  0
ARC
  5
43F5
  8
241
  6
CONTINUOUS
 10
-8.85599205235604
 20
-20.732141392245492
 30
0.0
 40
0.3
 50
225.00000000000739
 51
270.0000000000054
  0
ARC
  5
43F6
  8
241
  6
CONTINUOUS
 10
-7.973149339881342
 20
-20.732141392245421
 30
0.0
 40
0.3
 50
270.0000000000054
 51
315.00000000000142
  0
LINE
  5
43F7
  8
241
  6
CONTINUOUS
 10
-8.855992052356024
 20
-21.032141392245489
 30
0.0
 11
-7.9731493398813251
 21
-21.032141392245421
 31
0.0
  0
LINE
  5
43F8
  8
241
  6
CONTINUOUS
 10
-5.290469875666874
 20
-18.473725996743202
 30
0.0
 11
-7.7610173055249527
 21
-20.944273426601772
 31
0.0
  0
LINE
  5
43F9
  8
241
  6
CONTINUOUS
 10
-1.290469875664525
 20
-14.333114808456489
 30
0.0
 11
-1.14985868738263
 21
-14.333114808456211
 31
0.0
  0
LINE
  5
43FA
  8
241
  6
CONTINUOUS
 10
-5.2904698756645168
 20
-18.333114808456489
 30
0.0
 11
-5.290469875666874
 21
-18.473725996743202
 31
0.0
  0
ARC
  5
43FB
  8
241
  6
CONTINUOUS
 10
-1.290469875664517
 20
-18.333114808456472
 30
0.0
 40
4.0
 50
90.000000000000554
 51
180.00000000000051
  0
LINE
  5
43FC
  8
241
  6
CONTINUOUS
 10
-9.0681240867119843
 20
-20.94427342660147
 30
0.0
 11
-10.13011480844809
 21
-19.882282704864931
 31
0.0
  0
LINE
  5
43FD
  8
241
  6
CONTINUOUS
 10
-14.27072599673445
 20
-15.7416715165804
 30
0.0
 11
-15.0390876909343
 21
-14.97330982238077
 31
0.0
  0
LINE
  5
43FE
  8
241
  6
CONTINUOUS
 10
-10.13011480844982
 20
-19.741671516580841
 30
0.0
 11
-10.13011480844809
 21
-19.882282704864931
 31
0.0
  0
LINE
  5
43FF
  8
241
  6
CONTINUOUS
 10
-14.13011480844983
 20
-15.741671516580871
 30
0.0
 11
-14.27072599673445
 21
-15.7416715165804
 31
0.0
  0
ARC
  5
4400
  8
241
  6
CONTINUOUS
 10
-14.13011480844982
 20
-19.74167151658088
 30
0.0
 40
4.0
 50
0.0000000000005229
 51
90.000000000000554
  0
LINE
  5
4401
  8
241
  6
CONTINUOUS
 10
-0.3999999898951501
 20
-11.651885281280171
 30
0.0
 11
-0.0878679656436302
 21
-11.9640173055316
 31
0.0
  0
VIEWPORT
  5
22
 67
     1
  8
0
 10
261.51769911504419
 20
148.5
 30
0.0
 40
523.0353982300885
 41
297.0
 68
     1
 69
     1
1001
ACAD
1000
MVIEW
1002
{
1070
    16
1010
0.0
1020
0.0
1030
0.0
1010
0.0
1020
0.0
1030
1.0
1040
0.0
1040
297.0
1040
261.51769911504419
1040
148.5
1040
50.0
1040
0.0
1040
0.0
1070
     0
1070
   100
1070
     1
1070
     1
1070
     0
1070
     0
1070
     0
1070
     0
1040
0.0
1040
0.0
1040
0.0
1040
1.0
1040
1.0
1040
10.0
1040
10.0
1070
     0
1002
{
1002
}
1002
}
1001
GENIUS_GENODEF_13
1002
{
1000
HIER
1070
     0
1002
}
1002
{
1000
MANEDIT
1070
     0
1002
}
1002
{
1000
NOSEL
1070
     0
1002
}
1002
{
1000
BEHIND
1070
     0
1002
}
1002
{
1000
OTHER
1070
     0
1002
}
1002
{
1000
REACTOR
1002
}
1001
GENIUS_GENOBJ-N-SDF_13
1002
{
1000
OWNER
1000
GEN
1002
}
1001
GENIUS_GENSCREG_15
1000
PF
1040
1.0
1000
DF
1040
1.0
1000
MIN
1011
0.0
1021
0.0
1031
0.0
1021
0.0
1031
0.0
1000
MAX
1011
523.0353982300885
1021
0.0
1031
0.0
1021
297.0
1031
0.0
1000
FLAGS
1070
     4
  0
ENDSEC
  0
EOF
