  0
SECTION
  2
HEADER
  9
$ACADVER
  1
AC1009
  9
$INSBASE
 10
0.0
 20
0.0
 30
0.0
  9
$EXTMIN
 10
-1.016814049559116
 20
-24.749231782331261
 30
-0.0000000349181948
  9
$EXTMAX
 10
351.01692394498173
 20
53.986490902222727
 30
0.0000000814935746
  9
$LIMMIN
 10
0.0
 20
0.0
  9
$LIMMAX
 10
297.0
 20
210.0
  9
$ORTHOMODE
 70
     1
  9
$REGENMODE
 70
     1
  9
$FILLMODE
 70
     1
  9
$QTEXTMODE
 70
     0
  9
$MIRRTEXT
 70
     1
  9
$DRAGMODE
 70
     2
  9
$LTSCALE
 40
10.0
  9
$OSMODE
 70
    37
  9
$ATTMODE
 70
     1
  9
$TEXTSIZE
 40
3.0
  9
$TRACEWID
 40
1.0
  9
$TEXTSTYLE
  7
YOKO
  9
$CLAYER
  8
240
  9
$CELTYPE
  6
BYLAYER
  9
$CECOLOR
 62
   256
  9
$DIMSCALE
 40
1.0
  9
$DIMASZ
 40
2.2299999999999991
  9
$DIMEXO
 40
0.5
  9
$DIMDLI
 40
7.0
  9
$DIMRND
 40
0.0
  9
$DIMDLE
 40
0.0
  9
$DIMEXE
 40
1.0
  9
$DIMTP
 40
0.0
  9
$DIMTM
 40
0.01
  9
$DIMTXT
 40
2.7999999999999989
  9
$DIMCEN
 40
0.0
  9
$DIMTSZ
 40
0.0
  9
$DIMTOL
 70
     0
  9
$DIMLIM
 70
     0
  9
$DIMTIH
 70
     0
  9
$DIMTOH
 70
     0
  9
$DIMSE1
 70
     0
  9
$DIMSE2
 70
     0
  9
$DIMTAD
 70
     3
  9
$DIMZIN
 70
     9
  9
$DIMBLK
  1
OPEN
  9
$DIMASO
 70
     1
  9
$DIMSHO
 70
     1
  9
$DIMPOST
  1

  9
$DIMAPOST
  1

  9
$DIMALT
 70
     0
  9
$DIMALTD
 70
     2
  9
$DIMALTF
 40
25.399999999999999
  9
$DIMLFAC
 40
1.0
  9
$DIMTOFL
 70
     1
  9
$DIMTVP
 40
0.0
  9
$DIMTIX
 70
     1
  9
$DIMSOXD
 70
     0
  9
$DIMSAH
 70
     0
  9
$DIMBLK1
  1

  9
$DIMBLK2
  1

  9
$DIMSTYLE
  2
BIGT
  9
$DIMCLRD
 70
   256
  9
$DIMCLRE
 70
   256
  9
$DIMCLRT
 70
    40
  9
$DIMTFAC
 40
1.0
  9
$DIMGAP
 40
1.0
  9
$LUNITS
 70
     2
  9
$LUPREC
 70
     6
  9
$SKETCHINC
 40
1.0
  9
$FILLETRAD
 40
0.0
  9
$AUNITS
 70
     0
  9
$AUPREC
 70
     6
  9
$MENU
  1
.
  9
$ELEVATION
 40
0.0
  9
$PELEVATION
 40
0.0
  9
$THICKNESS
 40
0.0
  9
$LIMCHECK
 70
     0
  9
$BLIPMODE
 70
     0
  9
$CHAMFERA
 40
0.2
  9
$CHAMFERB
 40
0.2
  9
$SKPOLY
 70
     0
  9
$TDCREATE
 40
2457661.667288959
  9
$TDUPDATE
 40
2457661.774009503
  9
$TDINDWG
 40
0.0156922106
  9
$TDUSRTIMER
 40
0.0156921759
  9
$USRTIMER
 70
     1
  9
$ANGBASE
 50
0.0
  9
$ANGDIR
 70
     0
  9
$PDMODE
 70
     1
  9
$PDSIZE
 40
0.0
  9
$PLINEWID
 40
0.0
  9
$COORDS
 70
     1
  9
$SPLFRAME
 70
     0
  9
$SPLINETYPE
 70
     6
  9
$SPLINESEGS
 70
     4
  9
$ATTDIA
 70
     1
  9
$ATTREQ
 70
     1
  9
$HANDLING
 70
     1
  9
$HANDSEED
  5
44F2
  9
$SURFTAB1
 70
     6
  9
$SURFTAB2
 70
     6
  9
$SURFTYPE
 70
     6
  9
$SURFU
 70
     6
  9
$SURFV
 70
     6
  9
$UCSNAME
  2

  9
$UCSORG
 10
0.0
 20
0.0
 30
0.0
  9
$UCSXDIR
 10
1.0
 20
0.0
 30
0.0
  9
$UCSYDIR
 10
0.0
 20
1.0
 30
0.0
  9
$PUCSNAME
  2

  9
$PUCSORG
 10
0.0
 20
0.0
 30
0.0
  9
$PUCSXDIR
 10
1.0
 20
0.0
 30
0.0
  9
$PUCSYDIR
 10
0.0
 20
1.0
 30
0.0
  9
$USERI1
 70
     1
  9
$USERI2
 70
     0
  9
$USERI3
 70
     0
  9
$USERI4
 70
     0
  9
$USERI5
 70
     0
  9
$USERR1
 40
0.0
  9
$USERR2
 40
0.0
  9
$USERR3
 40
0.0
  9
$USERR4
 40
0.0
  9
$USERR5
 40
0.0
  9
$WORLDVIEW
 70
     1
  9
$SHADEDGE
 70
     3
  9
$SHADEDIF
 70
    70
  9
$TILEMODE
 70
     1
  9
$MAXACTVP
 70
    16
  9
$PLIMCHECK
 70
     0
  9
$PEXTMIN
 10
1.0000000000000000E+020
 20
1.0000000000000000E+020
 30
1.0000000000000000E+020
  9
$PEXTMAX
 10
-1.0000000000000000E+020
 20
-1.0000000000000000E+020
 30
-1.0000000000000000E+020
  9
$PLIMMIN
 10
0.0
 20
0.0
  9
$PLIMMAX
 10
420.0
 20
297.0
  9
$UNITMODE
 70
     0
  9
$VISRETAIN
 70
     1
  9
$PLINEGEN
 70
     0
  9
$PSLTSCALE
 70
     1
  0
ENDSEC
  0
SECTION
  2
TABLES
  0
TABLE
  2
VPORT
 70
     1
  0
VPORT
  2
*ACTIVE
 70
     0
 10
0.0
 20
0.0
 11
1.0
 21
1.0
 12
175.00005494771131
 22
14.618629559945729
 13
0.0
 23
0.0
 14
7.0
 24
7.0
 15
7.0
 25
7.0
 16
0.0
 26
0.0
 36
1.0
 17
0.0
 27
0.0
 37
0.0
 40
222.8741999468665
 41
1.586245772266065
 42
50.0
 43
0.0
 44
0.0
 50
0.0
 51
0.0
 71
     0
 72
  2000
 73
     1
 74
     0
 75
     0
 76
     1
 77
     0
 78
     0
  0
ENDTAB
  0
TABLE
  2
LTYPE
 70
    16
  0
LTYPE
  2
CONTINUOUS
 70
     0
  3
Solid line
 72
    65
 73
     0
 40
0.0
  0
LTYPE
  2
CENTER2
 70
     0
  3
___ _ ___ _ ___ _ ___ _ ___ _ ___ _ ___ _ ___ _
 72
    65
 73
     4
 40
1.125
 49
0.75
 49
-0.125
 49
0.125
 49
-0.125
  0
LTYPE
  2
HIDDEN2
 70
     0
  3
_ _ _ _ _ _ _ _ _ _ _ _ _ _ _ _ _ _ _ _ _ _ _ _
 72
    65
 73
     2
 40
0.1875
 49
0.125
 49
-0.0625
  0
LTYPE
  2
PHANTOM2
 70
     0
  3
___ _ _ ___ _ _ ___ _ _ ___ _ _ ___ _ _ ___ _ _
 72
    65
 73
     6
 40
1.25
 49
0.625
 49
-0.125
 49
0.125
 49
-0.125
 49
0.125
 49
-0.125
  0
LTYPE
  2
AM_ISO02W050
 70
     0
  3
__ __ __ __ __ __ __ __ __ __ __ __ __ __ __
 72
    65
 73
     2
 40
7.5
 49
6.0
 49
-1.5
  0
LTYPE
  2
AMCONSTR
 70
     0
  3
_______________________
 72
    65
 73
     2
 40
9999.0
 49
9999.0
 49
0.0
  0
LTYPE
  2
ACISOWELD
 70
     0
  3
_ _ _ _ _
 72
    65
 73
     2
 40
2.0
 49
2.0
 49
-1.0
  0
LTYPE
  2
ACISOTGB
 70
     0
  3
__ . . __ . .
 72
    65
 73
     6
 40
9.0
 49
4.0
 49
-1.0
 49
1.0
 49
-1.0
 49
1.0
 49
-1.0
  0
LTYPE
  2
ACISOTGL
 70
     0
  3
_ _ _ _ _
 72
    65
 73
     2
 40
3.0
 49
2.0
 49
-1.0
  0
LTYPE
  2
ACJISTGB
 70
     0
  3
__ . . __ . .
 72
    65
 73
     6
 40
9.0
 49
4.0
 49
-1.0
 49
1.0
 49
-1.0
 49
1.0
 49
-1.0
  0
LTYPE
  2
ACJISTGL
 70
     0
  3
_ _ _ _ _
 72
    65
 73
     2
 40
3.0
 49
2.0
 49
-1.0
  0
ENDTAB
  0
TABLE
  2
LAYER
 70
     8
  0
LAYER
  2
0
 70
     0
 62
     7
  6
CONTINUOUS
  0
LAYER
  2
DEFPOINTS
 70
     0
 62
     7
  6
CONTINUOUS
  0
LAYER
  2
245
 70
     0
 62
     2
  6
CENTER2
  0
LAYER
  2
240
 70
     0
 62
     4
  6
CONTINUOUS
  0
LAYER
  2
241
 70
     0
 62
   211
  6
CONTINUOUS
  0
LAYER
  2
243
 70
     0
 62
   211
  6
HIDDEN2
  0
LAYER
  2
247
 70
     0
 62
    60
  6
CONTINUOUS
  0
LAYER
  2
250
 70
     0
 62
     3
  6
CONTINUOUS
  0
ENDTAB
  0
TABLE
  2
STYLE
 70
     7
  0
STYLE
  2
STANDARD
 70
     0
 40
0.0
 41
1.0
 50
0.0
 71
     0
 42
3.0
  3
romans.shx
  4
extfont.shx
  0
STYLE
  2
ACISOTS
 70
     0
 40
1.0
 41
1.0
 50
0.0
 71
     0
 42
3.0
  3
amgdt.shx
  4
extfont.shx
  0
STYLE
  2
ACISOGDT
 70
     0
 40
0.0
 41
1.0
 50
0.0
 71
     0
 42
3.0
  3
amgdt.shx
  4
extfont.shx
  0
STYLE
  2
ACJISTS
 70
     0
 40
1.0
 41
1.0
 50
0.0
 71
     0
 42
3.0
  3
amgdt.shx
  4
extfont.shx
  0
STYLE
  2
ACJISGDT
 70
     0
 40
0.0
 41
1.0
 50
0.0
 71
     0
 42
3.0
  3
amgdt.shx
  4
extfont.shx
  0
STYLE
  2
YOKO
 70
     0
 40
0.0
 41
1.0
 50
0.0
 71
     0
 42
3.0
  3
romans.shx
  4
extfont.shx
  0
ENDTAB
  0
TABLE
  2
VIEW
 70
     0
  0
ENDTAB
  0
TABLE
  2
UCS
 70
     0
  0
ENDTAB
  0
TABLE
  2
APPID
 70
    35
  0
APPID
  2
ACAD
 70
     0
  0
APPID
  2
GLOBAL
 70
     0
  0
APPID
  2
DETAIL
 70
     0
  0
APPID
  2
GRPNAME
 70
     0
  0
APPID
  2
GPARA
 70
     0
  0
APPID
  2
MCAD_NO_VIS
 70
     0
  0
APPID
  2
ACAD_TEMP_GRAPHIC
 70
     0
  0
APPID
  2
ACATTRIBSERVICES
 70
     0
  0
APPID
  2
GENIUS_GENSCREG_15
 70
     0
  0
APPID
  2
GENIUS_GENODEF_13
 70
     0
  0
APPID
  2
GENIUS_GENOBJ-N-SDF_13
 70
     0
  0
APPID
  2
GENIUS_GENREC_14
 70
     0
  0
APPID
  2
GENIUS_GENOBJ-N-REC_13
 70
     0
  0
APPID
  2
GENIUS_GENDIMSH_14
 70
     0
  0
APPID
  2
GENIUS_GENOBJ-N-DIM_13
 70
     0
  0
APPID
  2
GENIUS_GENDIM_13
 70
     0
  0
APPID
  2
GENIUS_GENDTOL_13
 70
     0
  0
APPID
  2
GENIUS_GENOLIS_13
 70
     0
  0
APPID
  2
GENIUS_GENOENT_13
 70
     0
  0
APPID
  2
GENIUS_GENOBJ-F-FEM_13
 70
     0
  0
APPID
  2
GENIUS_GENOREF_13
 70
     0
  0
APPID
  2
GENIUS_GEFFEM_13
 70
     0
  0
APPID
  2
GENIUS_GEFFEMP_13
 70
     0
  0
APPID
  2
AD_DRAW
 70
     0
  0
APPID
  2
DESIGNERASSEMBLIES
 70
     0
  0
APPID
  2
ACADM_DIM_EDIT
 70
     0
  0
APPID
  2
AMDT_DM_ADJ
 70
     0
  0
APPID
  2
ITEMNAME
 70
     0
  0
APPID
  2
GENIUS_GENOBJ-N-FIL_13
 70
     0
  0
APPID
  2
GENIUS_GENFIL_13
 70
     0
  0
APPID
  2
GENIUS_GENOBJ-N-CHA_13
 70
     0
  0
APPID
  2
ACAD_NAV_VCDISPLAY
 70
     0
  0
APPID
  2
ACAD_PSEXT
 70
     0
  0
APPID
  2
ACAECLAYERSTANDARD
 70
     0
  0
APPID
  2
ACAD_MLEADERVER
 70
     0
  0
ENDTAB
  0
TABLE
  2
DIMSTYLE
 70
    29
  0
DIMSTYLE
  2
BIGT
 70
     0
  3

  4

  5
OPEN
  6

  7

 40
1.0
 41
2.2299999999999991
 42
0.5
 43
7.0
 44
1.0
 45
0.0
 46
0.0
 47
0.0
 48
0.01
140
2.7999999999999989
141
0.0
142
0.0
143
25.399999999999999
144
1.0
145
0.0
146
1.0
147
1.0
 71
     0
 72
     0
 73
     0
 74
     0
 75
     0
 76
     0
 77
     3
 78
     9
170
     0
171
     2
172
     1
173
     0
174
     1
175
     0
176
   256
177
   256
178
    40
  0
DIMSTYLE
  2
AM_ISO
 70
     0
  3

  4
"
  5

  6

  7

 40
1.0
 41
2.5
 42
1.0
 43
10.0
 44
1.0
 45
0.0
 46
0.0
 47
0.1
 48
0.1
140
3.5
141
0.0
142
0.0
143
0.0393701
144
1.0
145
0.0
146
0.71
147
1.5
 71
     0
 72
     0
 73
     0
 74
     0
 75
     0
 76
     0
 77
     1
 78
     8
170
     0
171
     2
172
     1
173
     0
174
     0
175
     0
176
   256
177
   256
178
     2
  0
DIMSTYLE
  2
AM_ISO$3
 70
     0
  3

  4
"
  5

  6

  7

 40
1.0
 41
2.5
 42
1.0
 43
10.0
 44
1.0
 45
0.0
 46
0.0
 47
0.1
 48
0.1
140
3.5
141
0.0
142
0.0
143
0.0393701
144
1.0
145
0.0
146
0.71
147
1.5
 71
     0
 72
     0
 73
     0
 74
     1
 75
     0
 76
     0
 77
     1
 78
     8
170
     0
171
     2
172
     0
173
     0
174
     0
175
     0
176
   256
177
   256
178
     2
  0
DIMSTYLE
  2
AM_ISO$4
 70
     0
  3

  4
"
  5

  6

  7

 40
1.0
 41
2.5
 42
1.0
 43
10.0
 44
1.0
 45
0.0
 46
0.0
 47
0.1
 48
0.1
140
3.5
141
0.0
142
0.0
143
0.0393701
144
1.0
145
0.0
146
0.71
147
1.5
 71
     0
 72
     0
 73
     0
 74
     1
 75
     0
 76
     0
 77
     1
 78
     8
170
     0
171
     2
172
     0
173
     0
174
     0
175
     0
176
   256
177
   256
178
     2
  0
DIMSTYLE
  2
AM_ISO$6
 70
     0
  3

  4
"
  5

  6

  7

 40
1.0
 41
2.5
 42
1.0
 43
10.0
 44
1.0
 45
0.0
 46
0.0
 47
0.1
 48
0.1
140
3.5
141
0.0
142
0.0
143
0.0393701
144
1.0
145
0.0
146
0.71
147
1.5
 71
     0
 72
     0
 73
     0
 74
     0
 75
     0
 76
     0
 77
     0
 78
     8
170
     0
171
     2
172
     1
173
     0
174
     0
175
     0
176
   256
177
   256
178
     2
  0
DIMSTYLE
  2
AM_ISO$7
 70
     0
  3

  4
"
  5

  6

  7

 40
1.0
 41
2.5
 42
1.0
 43
10.0
 44
1.0
 45
0.0
 46
0.0
 47
0.1
 48
0.1
140
5.0
141
0.0
142
0.0
143
0.0393701
144
1.0
145
0.0
146
0.71
147
1.5
 71
     0
 72
     0
 73
     0
 74
     0
 75
     0
 76
     0
 77
     1
 78
     8
170
     0
171
     2
172
     1
173
     0
174
     0
175
     0
176
   256
177
   256
178
     2
  0
DIMSTYLE
  2
AM_ISO$SF
 70
     0
  3

  4
"
  5

  6

  7

 40
1.0
 41
2.5
 42
1.0
 43
10.0
 44
1.0
 45
0.0
 46
0.0
 47
0.1
 48
0.1
140
3.5
141
0.0
142
0.0
143
0.0393701
144
1.0
145
0.0
146
0.71
147
1.5
 71
     0
 72
     0
 73
     0
 74
     0
 75
     1
 76
     1
 77
     1
 78
     8
170
     0
171
     2
172
     1
173
     0
174
     0
175
     0
176
   256
177
   256
178
     2
  0
DIMSTYLE
  2
AM_ISO$SH
 70
     0
  3

  4
"
  5

  6
GENAXEH
  7

 40
1.0
 41
2.5
 42
1.0
 43
10.0
 44
1.0
 45
0.0
 46
0.0
 47
0.1
 48
0.1
140
3.5
141
0.0
142
0.0
143
0.0393701
144
2.0
145
0.0
146
0.71
147
1.5
 71
     0
 72
     0
 73
     0
 74
     0
 75
     1
 76
     1
 77
     1
 78
     8
170
     0
171
     2
172
     1
173
     1
174
     0
175
     0
176
   256
177
   256
178
     2
  0
DIMSTYLE
  2
BIGT$2
 70
     0
  3

  4

  5
OPEN
  6

  7

 40
1.0
 41
2.2299999999999991
 42
0.5
 43
7.0
 44
1.0
 45
0.0
 46
0.0
 47
0.0
 48
0.01
140
2.7999999999999989
141
0.0
142
0.0
143
25.399999999999999
144
1.0
145
0.0
146
1.0
147
1.0
 71
     0
 72
     0
 73
     0
 74
     0
 75
     0
 76
     0
 77
     3
 78
     9
170
     0
171
     2
172
     1
173
     0
174
     0
175
     0
176
   256
177
   256
178
    40
  0
DIMSTYLE
  2
BIGT$3
 70
     0
  3

  4

  5
OPEN
  6

  7

 40
1.0
 41
2.2299999999999991
 42
0.5
 43
2.5
 44
1.0
 45
0.0
 46
0.0
 47
0.0
 48
0.01
140
2.7999999999999989
141
0.0
142
0.0
143
25.399999999999999
144
1.0
145
0.0
146
1.0
147
1.0
 71
     0
 72
     0
 73
     0
 74
     0
 75
     0
 76
     0
 77
     3
 78
     9
170
     0
171
     2
172
     1
173
     0
174
     0
175
     0
176
   256
177
   256
178
    40
  0
DIMSTYLE
  2
BIGT$7
 70
     0
  3

  4

  5
OPEN
  6

  7

 40
0.0
 41
2.2299999999999991
 42
0.5
 43
7.0
 44
1.0
 45
0.0
 46
0.0
 47
0.0
 48
0.01
140
2.7999999999999989
141
0.0
142
0.0
143
25.399999999999999
144
1.0
145
0.0
146
1.0
147
1.0
 71
     0
 72
     0
 73
     0
 74
     0
 75
     0
 76
     0
 77
     3
 78
     9
170
     0
171
     2
172
     0
173
     0
174
     0
175
     0
176
   256
177
   256
178
    40
  0
DIMSTYLE
  2
BIGT$6
 70
     0
  3

  4

  5
OPEN
  6

  7

 40
1.0
 41
2.2299999999999991
 42
0.5
 43
2.5
 44
1.0
 45
0.0
 46
0.0
 47
0.0
 48
0.01
140
2.7999999999999989
141
0.0
142
0.0
143
25.399999999999999
144
1.0
145
0.0
146
1.0
147
1.0
 71
     0
 72
     0
 73
     0
 74
     0
 75
     0
 76
     0
 77
     3
 78
     9
170
     0
171
     2
172
     1
173
     0
174
     0
175
     0
176
   256
177
   256
178
    40
  0
DIMSTYLE
  2
BIGT$0
 70
     0
  3

  4

  5
OPEN
  6

  7

 40
1.0
 41
2.2299999999999991
 42
0.5
 43
7.0
 44
1.0
 45
0.0
 46
0.0
 47
0.0
 48
0.01
140
2.7999999999999989
141
0.0
142
0.0
143
25.399999999999999
144
1.0
145
0.0
146
1.0
147
1.0
 71
     0
 72
     0
 73
     0
 74
     0
 75
     0
 76
     0
 77
     3
 78
     9
170
     0
171
     2
172
     1
173
     0
174
     1
175
     0
176
   256
177
   256
178
    40
  0
DIMSTYLE
  2
BIGT$4
 70
     0
  3

  4

  5
OPEN
  6

  7

 40
1.0
 41
2.2299999999999991
 42
0.5
 43
2.5
 44
1.0
 45
0.0
 46
0.0
 47
0.0
 48
0.01
140
2.7999999999999989
141
0.0
142
0.0
143
25.399999999999999
144
1.0
145
0.0
146
1.0
147
1.0
 71
     0
 72
     0
 73
     0
 74
     0
 75
     0
 76
     0
 77
     3
 78
     9
170
     0
171
     2
172
     1
173
     0
174
     0
175
     0
176
   256
177
   256
178
    40
  0
DIMSTYLE
  2
BIGT$SH
 70
     0
  3

  4

  5
OPEN
  6

  7

 40
1.0
 41
2.2299999999999991
 42
0.5
 43
7.0
 44
1.0
 45
0.0
 46
0.0
 47
0.0
 48
0.0
140
2.7999999999999989
141
0.0
142
0.0
143
25.399999999999999
144
1.0
145
0.0
146
1.0
147
1.0
 71
     0
 72
     0
 73
     0
 74
     0
 75
     0
 76
     0
 77
     3
 78
     9
170
     0
171
     2
172
     1
173
     0
174
     0
175
     0
176
   256
177
   256
178
    40
  0
DIMSTYLE
  2
BIGT$SF
 70
     0
  3

  4

  5
OPEN
  6

  7

 40
1.0
 41
2.2299999999999991
 42
0.5
 43
7.0
 44
1.0
 45
0.0
 46
0.0
 47
0.0
 48
0.0
140
2.7999999999999989
141
0.0
142
0.0
143
25.399999999999999
144
1.0
145
0.0
146
1.0
147
1.0
 71
     0
 72
     0
 73
     0
 74
     0
 75
     0
 76
     0
 77
     3
 78
     9
170
     0
171
     2
172
     1
173
     0
174
     0
175
     0
176
   256
177
   256
178
    40
  0
DIMSTYLE
  2
TECHNICAL_OSAKA
 70
     0
  3

  4
"
  5
OPEN30
  6

  7

 40
1.0
 41
2.5
 42
1.0
 43
10.0
 44
1.0
 45
0.0
 46
0.0
 47
0.1
 48
0.1
140
2.7999999999999989
141
0.0
142
0.0
143
0.0393701
144
1.0
145
0.0
146
0.71
147
1.5
 71
     0
 72
     0
 73
     0
 74
     0
 75
     0
 76
     0
 77
     3
 78
     8
170
     0
171
     2
172
     1
173
     0
174
     0
175
     0
176
   256
177
   256
178
    40
  0
DIMSTYLE
  2
TECHNICAL_OSAKA$3
 70
     0
  3

  4
"
  5
OPEN30
  6

  7

 40
1.0
 41
2.5
 42
1.0
 43
10.0
 44
1.0
 45
0.0
 46
0.0
 47
0.1
 48
0.1
140
2.7999999999999989
141
0.0
142
0.0
143
0.0393701
144
1.0
145
0.0
146
0.71
147
1.5
 71
     0
 72
     0
 73
     0
 74
     1
 75
     0
 76
     0
 77
     3
 78
     8
170
     0
171
     2
172
     0
173
     0
174
     0
175
     0
176
   256
177
   256
178
    40
  0
DIMSTYLE
  2
TECHNICAL_OSAKA$4
 70
     0
  3

  4
"
  5
OPEN30
  6

  7

 40
1.0
 41
2.5
 42
1.0
 43
10.0
 44
1.0
 45
0.0
 46
0.0
 47
0.1
 48
0.1
140
2.7999999999999989
141
0.0
142
0.0
143
0.0393701
144
1.0
145
0.0
146
0.71
147
1.5
 71
     0
 72
     0
 73
     0
 74
     1
 75
     0
 76
     0
 77
     3
 78
     8
170
     0
171
     2
172
     0
173
     0
174
     0
175
     0
176
   256
177
   256
178
    40
  0
DIMSTYLE
  2
TECHNICAL_OSAKA$6
 70
     0
  3

  4
"
  5
OPEN30
  6

  7

 40
1.0
 41
2.5
 42
1.0
 43
10.0
 44
1.0
 45
0.0
 46
0.0
 47
0.1
 48
0.1
140
2.7999999999999989
141
0.0
142
0.0
143
0.0393701
144
1.0
145
0.0
146
0.71
147
1.5
 71
     0
 72
     0
 73
     0
 74
     0
 75
     0
 76
     0
 77
     0
 78
     8
170
     0
171
     2
172
     1
173
     0
174
     0
175
     0
176
   256
177
   256
178
    40
  0
DIMSTYLE
  2
TECHNICAL_OSAKA$7
 70
     0
  3

  4
"
  5
OPEN30
  6

  7

 40
1.0
 41
2.5
 42
1.0
 43
10.0
 44
1.0
 45
0.0
 46
0.0
 47
0.1
 48
0.1
140
2.7999999999999989
141
0.0
142
0.0
143
0.0393701
144
1.0
145
0.0
146
0.71
147
1.5
 71
     0
 72
     0
 73
     0
 74
     0
 75
     0
 76
     0
 77
     3
 78
     8
170
     0
171
     2
172
     1
173
     0
174
     0
175
     0
176
   256
177
   256
178
    40
  0
DIMSTYLE
  2
TECHNICAL_OSAKA$SF
 70
     0
  3

  4
"
  5
OPEN30
  6
OPEN30
  7
OPEN30
 40
1.0
 41
2.5
 42
1.0
 43
10.0
 44
1.0
 45
0.0
 46
0.0
 47
0.1
 48
0.1
140
3.5
141
0.0
142
0.0
143
0.0393701
144
1.0
145
0.0
146
0.71
147
1.5
 71
     0
 72
     0
 73
     0
 74
     0
 75
     1
 76
     1
 77
     3
 78
     8
170
     0
171
     2
172
     1
173
     0
174
     0
175
     0
176
   256
177
   256
178
    40
  0
DIMSTYLE
  2
TECHNICAL_OSAKA$SH
 70
     0
  3

  4
"
  5
OPEN30
  6
GENAXEH
  7
OPEN30
 40
1.0
 41
2.5
 42
1.0
 43
10.0
 44
1.0
 45
0.0
 46
0.0
 47
0.1
 48
0.1
140
3.5
141
0.0
142
0.0
143
0.0393701
144
2.0
145
0.0
146
0.71
147
1.5
 71
     0
 72
     0
 73
     0
 74
     0
 75
     1
 76
     1
 77
     3
 78
     8
170
     0
171
     2
172
     1
173
     1
174
     0
175
     0
176
   256
177
   256
178
    40
  0
ENDTAB
  0
ENDSEC
  0
SECTION
  2
BLOCKS
  0
BLOCK
  8
0
  2
$MODEL_SPACE
 70
     0
 10
0.0
 20
0.0
 30
0.0
  3
$MODEL_SPACE
  1

  0
ENDBLK
  5
1C
  8
0
  0
BLOCK
 67
     1
  8
0
  2
$PAPER_SPACE
 70
     0
 10
0.0
 20
0.0
 30
0.0
  3
$PAPER_SPACE
  1

  0
ENDBLK
  5
19
 67
     1
  8
0
  0
BLOCK
  8
0
  2
_OPEN
 70
     0
 10
0.0
 20
0.0
 30
0.0
  3
_OPEN
  1

  0
LINE
  5
43F9
  8
0
  6
BYBLOCK
 62
     0
 10
-1.0
 20
0.1666666666666666
 30
0.0
 11
0.0
 21
0.0
 31
0.0
  0
LINE
  5
43FA
  8
0
  6
BYBLOCK
 62
     0
 10
-1.0
 20
-0.1666666666666666
 30
0.0
 11
0.0
 21
0.0
 31
0.0
  0
LINE
  5
43FB
  8
0
  6
BYBLOCK
 62
     0
 10
0.0
 20
0.0
 30
0.0
 11
-1.0
 21
0.0
 31
0.0
  0
ENDBLK
  5
43FC
  8
0
  0
BLOCK
  8
0
  2
GENAXEH
 70
     0
 10
0.0
 20
0.0
 30
0.0
  3
GENAXEH
  1

  0
LINE
  5
4434
  8
0
 10
-1.0
 20
0.0
 30
0.0
 11
1.0
 21
0.0
 31
0.0
  0
ENDBLK
  5
4435
  8
0
  0
BLOCK
  8
0
  2
_OPEN30
 70
     0
 10
0.0
 20
0.0
 30
0.0
  3
_OPEN30
  1

  0
LINE
  5
4470
  8
0
  6
BYBLOCK
 62
     0
 10
-1.0
 20
0.26794919
 30
0.0
 11
0.0
 21
0.0
 31
0.0
  0
LINE
  5
4471
  8
0
  6
BYBLOCK
 62
     0
 10
0.0
 20
0.0
 30
0.0
 11
-1.0
 21
-0.26794919
 31
0.0
  0
LINE
  5
4472
  8
0
  6
BYBLOCK
 62
     0
 10
0.0
 20
0.0
 30
0.0
 11
-1.0
 21
0.0
 31
0.0
  0
ENDBLK
  5
4473
  8
0
  0
ENDSEC
  0
SECTION
  2
ENTITIES
  0
LINE
  5
4215
  8
245
  6
CENTER2
 10
-1.0
 20
0.0
 30
0.0
 11
336.65252311203119
 21
0.0
 31
0.0
  0
LINE
  5
4216
  8
240
  6
CONTINUOUS
 10
0.0
 20
16.000000000000028
 30
0.0
 11
0.0
 21
-16.00000000000006
 31
0.0
  0
LINE
  5
4217
  8
247
  6
CONTINUOUS
 10
6.7499999999299964
 20
-10.0
 30
0.0
 11
13.442307691970001
 21
-10.0
 31
0.0
  0
ARC
  5
4218
  8
247
  6
CONTINUOUS
 10
6.7499999999299964
 20
-8.2500000000700311
 30
0.0
 40
1.7499999999299991
 50
90.0
 51
270.0
  0
ARC
  5
4219
  8
247
  6
CONTINUOUS
 10
13.442307691970001
 20
-8.2500000000700311
 30
0.0
 40
1.7499999999299991
 50
270.0
 51
90.0
  0
LINE
  5
421A
  8
247
  6
CONTINUOUS
 10
7.6153846152799902
 20
-6.5000000001400622
 30
0.0
 11
6.7551484580379908
 21
-9.5000000000200089
 31
0.0
  0
LINE
  5
421B
  8
247
  6
CONTINUOUS
 10
8.5150161816641798
 20
-7.9230769231598961
 30
0.0
 11
7.2073238740241798
 21
-7.9230769231598961
 31
0.0
  0
ARC
  5
421C
  8
247
  6
CONTINUOUS
 10
8.8548561839102131
 20
-7.049598667702865
 30
0.0
 40
0.5538165441895349
 50
342.99788967529543
 51
82.924166218512752
  0
ARC
  5
421D
  8
247
  6
CONTINUOUS
 10
8.4331216769712114
 20
-6.9360330444658302
 30
0.0
 40
0.9904354236226808
 50
274.74293685220141
 51
343.84922627326642
1001
GENIUS_GENOBJ-N-FIL_13
1002
{
1000
OWNER
1000
GEN
1002
}
1001
GENIUS_GENODEF_13
1002
{
1000
HIER
1070
     0
1002
}
1002
{
1000
MANEDIT
1070
     0
1002
}
1002
{
1000
NOSEL
1070
     0
1002
}
1002
{
1000
BEHIND
1070
     0
1002
}
1002
{
1000
OTHER
1070
     0
1002
}
1002
{
1000
REACTOR
1002
}
  0
LINE
  5
421E
  8
247
  6
CONTINUOUS
 10
8.0628407656779864
 20
-9.5000000000200089
 30
0.0
 11
6.7551484580379908
 21
-9.5000000000200089
 31
0.0
  0
LINE
  5
421F
  8
247
  6
CONTINUOUS
 10
7.6153846152799902
 20
-6.5000000001400622
 30
0.0
 11
8.9230769229200035
 21
-6.5000000001400622
 31
0.0
  0
ARC
  5
4220
  8
247
  6
CONTINUOUS
 10
8.43908036345303
 20
-8.4820242326654807
 30
0.0
 40
0.5640818586791229
 50
335.99094165252171
 51
82.263443459069123
  0
ARC
  5
4221
  8
247
  6
CONTINUOUS
 10
7.9617373146529342
 20
-8.4874290391865088
 30
0.0
 40
1.0176059446230981
 50
275.70198516425808
 51
347.27733843682228
1001
GENIUS_GENOBJ-N-FIL_13
1002
{
1000
OWNER
1000
GEN
1002
}
1001
GENIUS_GENODEF_13
1002
{
1000
HIER
1070
     0
1002
}
1002
{
1000
MANEDIT
1070
     0
1002
}
1002
{
1000
NOSEL
1070
     0
1002
}
1002
{
1000
BEHIND
1070
     0
1002
}
1002
{
1000
OTHER
1070
     0
1002
}
1002
{
1000
REACTOR
1002
}
  0
LINE
  5
4222
  8
247
  6
CONTINUOUS
 10
9.7166869194580006
 20
-9.5000000000200089
 30
0.0
 11
10.576923076699989
 21
-6.5000000001400622
 31
0.0
  0
LINE
  5
4223
  8
247
  6
CONTINUOUS
 10
12.99999999968
 20
-6.5000000001400622
 30
0.0
 11
12.434263380543401
 21
-6.5000000001400622
 31
0.0
  0
LINE
  5
4224
  8
247
  6
CONTINUOUS
 10
11.538461538200011
 20
-9.5000000000200089
 30
0.0
 11
12.153846153559989
 21
-9.5000000000200089
 31
0.0
  0
ARC
  5
4225
  8
247
  6
CONTINUOUS
 10
13.29120879087713
 20
-8.5832851359733695
 30
0.0
 40
2.2526500823422122
 50
112.35948814153041
 51
164.99324854284609
  0
ARC
  5
4226
  8
247
  6
CONTINUOUS
 10
12.62593052078677
 20
-7.3083126551946389
 30
0.0
 40
0.8906723995727782
 50
4.9945893190753647
 51
65.166328957300863
1001
GENIUS_GENOBJ-N-FIL_13
1002
{
1000
OWNER
1000
GEN
1002
}
1001
GENIUS_GENODEF_13
1002
{
1000
HIER
1070
     0
1002
}
1002
{
1000
MANEDIT
1070
     0
1002
}
1002
{
1000
NOSEL
1070
     0
1002
}
1002
{
1000
BEHIND
1070
     0
1002
}
1002
{
1000
OTHER
1070
     0
1002
}
1002
{
1000
REACTOR
1002
}
  0
ARC
  5
4227
  8
247
  6
CONTINUOUS
 10
11.77354111378742
 20
-8.1601458886677847
 30
0.0
 40
1.392781735586712
 50
285.84609655578078
 51
352.32513700416251
  0
ARC
  5
4228
  8
247
  6
CONTINUOUS
 10
12.35778727415963
 20
-8.4592434315272822
 30
0.0
 40
1.324563662670287
 50
159.71360167049011
 51
231.7887456564128
1001
GENIUS_GENOBJ-N-FIL_13
1002
{
1000
OWNER
1000
GEN
1002
}
1001
GENIUS_GENODEF_13
1002
{
1000
HIER
1070
     0
1002
}
1002
{
1000
MANEDIT
1070
     0
1002
}
1002
{
1000
NOSEL
1070
     0
1002
}
1002
{
1000
BEHIND
1070
     0
1002
}
1002
{
1000
OTHER
1070
     0
1002
}
1002
{
1000
REACTOR
1002
}
  0
LINE
  5
4229
  8
247
  6
CONTINUOUS
 10
12.46153846124
 20
-8.3461538462199751
 30
0.0
 11
13.153846153519989
 21
-8.3461538462199751
 31
0.0
  0
LINE
  5
422A
  8
247
  6
CONTINUOUS
 10
6.749999999929968
 20
-6.5000000001400622
 30
0.0
 11
7.4230769229799289
 21
-6.5000000001400622
 31
0.0
  0
LINE
  5
422B
  8
250
  6
CONTINUOUS
 10
18.282194485645121
 20
-17.74540331769732
 30
0.0
 11
19.719067259999999
 21
-16.0
 31
0.0
  0
LINE
  5
422C
  8
250
  6
CONTINUOUS
 10
18.92594003594451
 20
-18.117069984099039
 30
0.0
 11
19.719067259999999
 21
-16.0
 31
0.0
  0
LINE
  5
422D
  8
250
  6
CONTINUOUS
 10
19.719067259999999
 20
-16.0
 30
0.0
 11
18.604067260794821
 21
-17.931236650898182
 31
0.0
  0
LINE
  5
422E
  8
250
  6
CONTINUOUS
 10
18.604067260794821
 20
-17.931236650898182
 30
0.0
 11
14.668990429999999
 21
-24.746989660000001
 31
0.0
1001
ACAD
1000
DSTYLE
1002
{
1070
     6
1000
OPEN
1070
   343
1005
0
1002
}
  0
TEXT
  5
422F
  8
250
  6
CONTINUOUS
 10
2.13565709
 20
-23.746989660000001
 30
0.0
 40
2.799999999999998
  1
ST32
  7
YOKO
1001
ITEMNAME
1000
LNSP3
  0
LINE
  5
4230
  8
250
  6
CONTINUOUS
 10
14.668990429999999
 20
-24.746989660000001
 30
0.0
 11
-0.2643429099999999
 21
-24.746989660000001
 31
0.0
1001
ITEMNAME
1000
LNSP2
  0
LINE
  5
4240
  8
240
  6
CONTINUOUS
 10
313.5
 20
20.749999999999972
 30
0.0
 11
300.00037104403822
 21
20.74999999999994
 31
0.0
  0
LINE
  5
4241
  8
240
  6
CONTINUOUS
 10
313.5
 20
-20.750000000000028
 30
0.0
 11
300.00037104403822
 21
-20.750000000000028
 31
0.0
  0
LINE
  5
4242
  8
240
  6
CONTINUOUS
 10
300.00037104403822
 20
20.74999999999994
 30
0.0
 11
300.00037104403822
 21
16.000000000000028
 31
0.0
  0
LINE
  5
4243
  8
240
  6
CONTINUOUS
 10
300.00037104403822
 20
-20.750000000000028
 30
0.0
 11
300.00037104403822
 21
-16.00000000000006
 31
0.0
  0
LINE
  5
4244
  8
240
  6
CONTINUOUS
 10
300.00037104403822
 20
16.000000000000028
 30
0.0
 11
0.0
 21
16.000000000000028
 31
0.0
  0
LINE
  5
4245
  8
240
  6
CONTINUOUS
 10
300.00037104403822
 20
-16.00000000000006
 30
0.0
 11
0.0
 21
-16.00000000000006
 31
0.0
  0
LINE
  5
4251
  8
243
  6
HIDDEN2
 10
302.5003710440381
 20
18.249999999999972
 30
0.0
 11
313.5003710440381
 21
18.249999999999972
 31
0.0
  0
LINE
  5
4252
  8
243
  6
HIDDEN2
 10
302.5003710440381
 20
20.749999999999972
 30
0.0
 11
302.5003710440381
 21
18.249999999999972
 31
0.0
  0
LINE
  5
4253
  8
243
  6
HIDDEN2
 10
302.5003710440381
 20
-18.250000000000028
 30
0.0
 11
313.5003710440381
 21
-18.250000000000028
 31
0.0
  0
LINE
  5
4254
  8
243
  6
HIDDEN2
 10
302.5003710440381
 20
-20.750000000000028
 30
0.0
 11
302.5003710440381
 21
-18.250000000000028
 31
0.0
  0
LINE
  5
425B
  8
241
  6
CONTINUOUS
 10
300.00037104403822
 20
-16.00000000000006
 30
0.0
 11
300.00037104403822
 21
16.000000000000028
 31
0.0
  0
LINE
  5
42BF
  8
250
  6
CONTINUOUS
 10
334.5
 20
-21.000000000000028
 30
0.0
 11
351.00000000000023
 21
-21.000000000000028
 31
0.0
  0
LINE
  5
42C0
  8
250
  6
CONTINUOUS
 10
334.5
 20
20.99999999999994
 30
0.0
 11
351.00000000000023
 21
20.99999999999994
 31
0.0
  0
LINE
  5
42C1
  8
250
  6
CONTINUOUS
 10
350.00000000000023
 20
-19.000000000000021
 30
0.0
 11
350.00000000000023
 21
18.999999999999918
 31
0.0
  0
LINE
  5
42C2
  8
250
  6
CONTINUOUS
 10
350.33333333333348
 20
-19.000000000000021
 30
0.0
 11
350.00000000000023
 21
-21.000000000000028
 31
0.0
  0
LINE
  5
42C3
  8
250
  6
CONTINUOUS
 10
349.66666666666691
 20
-19.000000000000021
 30
0.0
 11
350.00000000000023
 21
-21.000000000000028
 31
0.0
  0
LINE
  5
42C4
  8
250
  6
CONTINUOUS
 10
350.00000000000023
 20
-21.000000000000028
 30
0.0
 11
350.00000000000023
 21
-19.000000000000021
 31
0.0
  0
LINE
  5
42C5
  8
250
  6
CONTINUOUS
 10
349.66666666666691
 20
18.99999999999994
 30
0.0
 11
350.00000000000023
 21
20.99999999999994
 31
0.0
  0
LINE
  5
42C6
  8
250
  6
CONTINUOUS
 10
350.33333333333348
 20
18.99999999999994
 30
0.0
 11
350.00000000000023
 21
20.99999999999994
 31
0.0
  0
LINE
  5
42C7
  8
250
  6
CONTINUOUS
 10
350.00000000000023
 20
20.99999999999994
 30
0.0
 11
350.00000000000023
 21
18.99999999999994
 31
0.0
  0
TEXT
  5
42C8
  8
250
  6
CONTINUOUS
 10
349.00000000000023
 20
-3.8704966633333862
 30
0.0
 40
2.799999999999998
  1
\U+2205
 50
90.0
1001
ACAD
1000
MTEXTBEGIN
1070
    73
1070
     1
1070
    44
1040
1.0
1070
    74
1070
     0
1000
MTEXTEND
  0
TEXT
  5
42C9
  8
250
  6
CONTINUOUS
 10
349.00000000000023
 20
-1.3371633300000541
 30
0.0
 40
2.799999999999998
  1
42
 50
90.0
1001
ACAD
1000
MTEXTBEGIN
1070
    73
1070
     1
1070
    44
1040
1.0
1070
    74
1070
     0
1000
MTEXTEND
  0
LINE
  5
42CA
  8
250
  6
CONTINUOUS
 10
334.50000000000023
 20
7.9999999999999423
 30
0.0
 11
344.0535521000001
 21
7.9999999999999387
 31
0.0
  0
LINE
  5
42CB
  8
250
  6
CONTINUOUS
 10
343.05355210000022
 20
-6.000000000000056
 30
0.0
 11
343.05355210000022
 21
5.9999999999999387
 31
0.0
  0
LINE
  5
42CC
  8
250
  6
CONTINUOUS
 10
342.72021876666679
 20
5.9999999999999387
 30
0.0
 11
343.05355210000022
 21
7.9999999999999387
 31
0.0
  0
LINE
  5
42CD
  8
250
  6
CONTINUOUS
 10
343.38688543333348
 20
5.9999999999999387
 30
0.0
 11
343.05355210000022
 21
7.9999999999999387
 31
0.0
  0
LINE
  5
42CE
  8
250
  6
CONTINUOUS
 10
343.05355210000022
 20
7.9999999999999387
 30
0.0
 11
343.05355210000022
 21
5.9999999999999387
 31
0.0
  0
TEXT
  5
42CF
  8
250
  6
CONTINUOUS
 10
341.58688543333352
 20
-11.61587575000005
 30
0.0
 40
2.799999999999998
  1
max.\U+03C616
 50
90.0
1001
ACAD
1000
MTEXTBEGIN
1070
    73
1070
     1
1070
    44
1040
1.0
1070
    74
1070
     0
1000
MTEXTEND
  0
LINE
  5
42D0
  8
240
  6
CONTINUOUS
 10
318.00000000000011
 20
-16.000000000000082
 30
0.0
 11
313.5
 21
-16.000000000000121
 31
0.0
  0
LINE
  5
42D1
  8
240
  6
CONTINUOUS
 10
313.5
 20
20.749999999999972
 30
0.0
 11
313.5
 21
15.99999999999987
 31
0.0
  0
LINE
  5
42D2
  8
240
  6
CONTINUOUS
 10
313.5
 20
-20.750000000000028
 30
0.0
 11
313.5
 21
-16.000000000000121
 31
0.0
  0
LINE
  5
42D3
  8
241
  6
CONTINUOUS
 10
313.5
 20
15.99999999999987
 30
0.0
 11
313.5
 21
-16.000000000000121
 31
0.0
  0
LINE
  5
42D4
  8
243
  6
HIDDEN2
 10
328.39999999999998
 20
12.752250164637459
 30
0.0
 11
328.39999999999998
 21
10.99999999999986
 31
0.0
  0
LINE
  5
42D5
  8
243
  6
HIDDEN2
 10
328.39999999999998
 20
10.99999999999986
 30
0.0
 11
330.80000000000013
 21
10.99999999999986
 31
0.0
  0
LINE
  5
42D6
  8
243
  6
HIDDEN2
 10
330.80000000000013
 20
10.99999999999986
 30
0.0
 11
330.80000000000013
 21
12.865470053837919
 31
0.0
  0
LINE
  5
42D7
  8
243
  6
HIDDEN2
 10
330.80000000000013
 20
12.865470053837919
 30
0.0
 11
334.0
 21
11.017949192431161
 31
0.0
  0
LINE
  5
42D8
  8
243
  6
HIDDEN2
 10
328.39999999999998
 20
12.752250164637459
 30
0.0
 11
299.0
 21
9.662185647826611
 31
0.0
  0
LINE
  5
42D9
  8
240
  6
CONTINUOUS
 10
313.5
 20
15.99999999999987
 30
0.0
 11
318.00000000000011
 21
15.99999999999992
 31
0.0
  0
LINE
  5
42DA
  8
243
  6
HIDDEN2
 10
299.0
 20
7.9999999999999423
 30
0.0
 11
334.00000000000011
 21
7.9999999999999423
 31
0.0
  0
LINE
  5
42DB
  8
240
  6
CONTINUOUS
 10
334.0
 20
-21.000000000000028
 30
0.0
 11
334.0
 21
21.000000000000028
 31
0.0
1001
GRPNAME
1000
PASTMD09
  0
LINE
  5
42DC
  8
240
  6
CONTINUOUS
 10
318.00000000000011
 20
-21.000000000000082
 30
0.0
 11
334.0
 21
-21.000000000000028
 31
0.0
1001
GRPNAME
1000
PASTMD09
  0
LINE
  5
42DD
  8
240
  6
CONTINUOUS
 10
318.00000000000011
 20
-21.000000000000082
 30
0.0
 11
318.00000000000011
 21
-16.000000000000082
 31
0.0
1001
GRPNAME
1000
PASTMD09
  0
LINE
  5
42DE
  8
241
  6
CONTINUOUS
 10
318.0
 20
15.99999999999992
 30
0.0
 11
318.00000000000011
 21
-16.000000000000011
 31
0.0
1001
GRPNAME
1000
PASTMD09
  0
LINE
  5
42DF
  8
240
  6
CONTINUOUS
 10
318.00000000000011
 20
21.000000000000082
 30
0.0
 11
334.0
 21
21.000000000000028
 31
0.0
1001
GRPNAME
1000
PASTMD09
  0
LINE
  5
42E0
  8
240
  6
CONTINUOUS
 10
318.00000000000011
 20
21.000000000000082
 30
0.0
 11
318.00000000000011
 21
15.999999999999931
 31
0.0
1001
GRPNAME
1000
PASTMD09
  0
LINE
  5
42E1
  8
250
  6
CONTINUOUS
 10
334.50000000000023
 20
-7.9999999999999369
 30
0.0
 11
344.0535521000001
 21
-7.9999999999998259
 31
0.0
  0
LINE
  5
42E2
  8
250
  6
CONTINUOUS
 10
342.7202187666669
 20
-5.9999999999998419
 30
0.0
 11
343.05355210000022
 21
-7.9999999999998401
 31
0.0
  0
LINE
  5
42E3
  8
250
  6
CONTINUOUS
 10
343.38688543333359
 20
-5.9999999999998348
 30
0.0
 11
343.05355210000022
 21
-7.9999999999998401
 31
0.0
  0
LINE
  5
42E4
  8
250
  6
CONTINUOUS
 10
343.05355210000022
 20
-7.9999999999998401
 30
0.0
 11
343.05355210000022
 21
-5.9999999999998401
 31
0.0
  0
LINE
  5
42E5
  8
243
  6
HIDDEN2
 10
299.0
 20
-9.662185647826611
 30
0.0
 11
299.0
 21
9.6621856478266075
 31
0.0
  0
LINE
  5
42E6
  8
243
  6
HIDDEN2
 10
328.39999999999998
 20
-12.752250164637459
 30
0.0
 11
328.39999999999998
 21
-10.99999999999986
 31
0.0
  0
LINE
  5
42E7
  8
243
  6
HIDDEN2
 10
328.39999999999998
 20
-10.99999999999986
 30
0.0
 11
330.80000000000013
 21
-10.99999999999986
 31
0.0
  0
LINE
  5
42E8
  8
243
  6
HIDDEN2
 10
330.80000000000013
 20
-10.99999999999986
 30
0.0
 11
330.80000000000013
 21
-12.865470053837919
 31
0.0
  0
LINE
  5
42E9
  8
243
  6
HIDDEN2
 10
330.80000000000013
 20
-12.865470053837919
 30
0.0
 11
334.0
 21
-11.017949192431161
 31
0.0
  0
LINE
  5
42EA
  8
243
  6
HIDDEN2
 10
328.39999999999998
 20
-12.752250164637459
 30
0.0
 11
299.0
 21
-9.662185647826611
 31
0.0
  0
LINE
  5
42EB
  8
243
  6
HIDDEN2
 10
299.0
 20
-7.9999999999999423
 30
0.0
 11
334.00000000000011
 21
-7.9999999999999423
 31
0.0
  0
LINE
  5
42EC
  8
241
  6
CONTINUOUS
 10
327.5
 20
19.10386699023169
 30
0.0
 11
318.00000000000011
 21
19.10386699023169
 31
0.0
  0
LINE
  5
42ED
  8
241
  6
CONTINUOUS
 10
327.5
 20
19.10386699023169
 30
0.0
 11
327.5
 21
17.10386699023169
 31
0.0
  0
LINE
  5
42EE
  8
241
  6
CONTINUOUS
 10
327.5
 20
17.10386699023169
 30
0.0
 11
318.00000000000011
 21
17.10386699023169
 31
0.0
  0
LINE
  5
42EF
  8
241
  6
CONTINUOUS
 10
327.5
 20
2.0
 30
0.0
 11
318.0
 21
2.0
 31
0.0
  0
LINE
  5
42F0
  8
241
  6
CONTINUOUS
 10
327.5
 20
-2.0000000000000271
 30
0.0
 11
327.5
 21
2.0
 31
0.0
  0
LINE
  5
42F1
  8
241
  6
CONTINUOUS
 10
327.5
 20
-2.0000000000000271
 30
0.0
 11
318.00000000000011
 21
-2.0000000000000271
 31
0.0
  0
LINE
  5
42F2
  8
241
  6
CONTINUOUS
 10
327.5
 20
-17.103866990231719
 30
0.0
 11
318.00000000000011
 21
-17.103866990231719
 31
0.0
  0
LINE
  5
42F3
  8
241
  6
CONTINUOUS
 10
327.5
 20
-19.103866990231701
 30
0.0
 11
327.5
 21
-17.103866990231719
 31
0.0
  0
LINE
  5
42F4
  8
241
  6
CONTINUOUS
 10
327.5
 20
-19.103866990231701
 30
0.0
 11
318.00000000000011
 21
-19.103866990231701
 31
0.0
  0
LINE
  5
431B
  8
250
  6
CONTINUOUS
 10
0.0
 20
16.500000000000028
 30
0.0
 11
0.0
 21
35.972000000000001
 31
0.0
  0
LINE
  5
431C
  8
250
  6
CONTINUOUS
 10
300.0
 20
21.24999999999994
 30
0.0
 11
300.0
 21
35.972000000000001
 31
0.0
  0
LINE
  5
431D
  8
250
  6
CONTINUOUS
 10
2.2299999999999991
 20
34.972000000000001
 30
0.0
 11
297.76999999999998
 21
34.972000000000001
 31
0.0
  0
LINE
  5
431E
  8
250
  6
CONTINUOUS
 10
2.2299999999999991
 20
34.600333333333332
 30
0.0
 11
0.0
 21
34.972000000000001
 31
0.0
  0
LINE
  5
431F
  8
250
  6
CONTINUOUS
 10
2.2299999999999991
 20
35.343666666666671
 30
0.0
 11
0.0
 21
34.972000000000001
 31
0.0
  0
LINE
  5
4320
  8
250
  6
CONTINUOUS
 10
0.0
 20
34.972000000000001
 30
0.0
 11
2.2299999999999991
 21
34.972000000000001
 31
0.0
  0
LINE
  5
4321
  8
250
  6
CONTINUOUS
 10
297.76999999999998
 20
35.343666666666671
 30
0.0
 11
300.0
 21
34.972000000000001
 31
0.0
  0
LINE
  5
4322
  8
250
  6
CONTINUOUS
 10
297.76999999999998
 20
34.600333333333332
 30
0.0
 11
300.0
 21
34.972000000000001
 31
0.0
  0
LINE
  5
4323
  8
250
  6
CONTINUOUS
 10
300.0
 20
34.972000000000001
 30
0.0
 11
297.76999999999998
 21
34.972000000000001
 31
0.0
  0
TEXT
  5
4324
  8
250
  6
CONTINUOUS
 10
157.81199634428569
 20
35.972000000000001
 30
0.0
 40
3.0
  1
300
1001
ACAD
1000
MTEXTBEGIN
1070
    73
1070
     1
1070
    44
1040
1.0
1070
    74
1070
     0
1000
MTEXTEND
1000
MTEXTBEGIN
1070
    73
1070
     1
1070
    44
1040
1.0
1070
    74
1070
     0
1000
MTEXTEND
  0
TEXT
  5
4325
  8
241
  6
CONTINUOUS
 10
0.6230000000000001
 20
48.972000000000001
 30
0.0
 40
5.0
  1
ST32-NBS16-300
  7
YOKO
 11
0.6230000000000001
 21
48.972000000000001
 31
0.0
 73
     1
  0
LINE
  5
4326
  8
250
  6
CONTINUOUS
 10
300.0
 20
21.24999999999994
 30
0.0
 11
300.0
 21
35.972000000000001
 31
0.0
  0
LINE
  5
4327
  8
250
  6
CONTINUOUS
 10
334.0
 20
21.500000000000028
 30
0.0
 11
334.0
 21
35.972000000000001
 31
0.0
  0
LINE
  5
4328
  8
250
  6
CONTINUOUS
 10
302.23000000000002
 20
34.972000000000001
 30
0.0
 11
331.76999999999998
 21
34.972000000000001
 31
0.0
  0
LINE
  5
4329
  8
250
  6
CONTINUOUS
 10
302.23000000000002
 20
34.600333333333332
 30
0.0
 11
300.0
 21
34.972000000000001
 31
0.0
  0
LINE
  5
432A
  8
250
  6
CONTINUOUS
 10
302.23000000000002
 20
35.343666666666671
 30
0.0
 11
300.0
 21
34.972000000000001
 31
0.0
  0
LINE
  5
432B
  8
250
  6
CONTINUOUS
 10
300.0
 20
34.972000000000001
 30
0.0
 11
302.23000000000002
 21
34.972000000000001
 31
0.0
  0
LINE
  5
432C
  8
250
  6
CONTINUOUS
 10
331.76999999999998
 20
35.343666666666671
 30
0.0
 11
334.0
 21
34.972000000000001
 31
0.0
  0
LINE
  5
432D
  8
250
  6
CONTINUOUS
 10
331.76999999999998
 20
34.600333333333332
 30
0.0
 11
334.0
 21
34.972000000000001
 31
0.0
  0
LINE
  5
432E
  8
250
  6
CONTINUOUS
 10
334.0
 20
34.972000000000001
 30
0.0
 11
331.76999999999998
 21
34.972000000000001
 31
0.0
  0
TEXT
  5
432F
  8
250
  6
CONTINUOUS
 10
314.07142857142861
 20
35.972000000000001
 30
0.0
 40
3.0
  1
34
1001
ACAD
1000
MTEXTBEGIN
1070
    73
1070
     1
1070
    44
1040
1.0
1070
    74
1070
     0
1000
MTEXTEND
1000
MTEXTBEGIN
1070
    73
1070
     1
1070
    44
1040
1.0
1070
    74
1070
     0
1000
MTEXTEND
  0
LINE
  5
4330
  8
250
  6
CONTINUOUS
 10
226.0
 20
9.1500000000000004
 30
0.0
 11
226.0
 21
29.0
 31
0.0
  0
LINE
  5
4331
  8
250
  6
CONTINUOUS
 10
334.0
 20
21.500000000000028
 30
0.0
 11
334.0
 21
29.0
 31
0.0
  0
LINE
  5
4332
  8
250
  6
CONTINUOUS
 10
228.22999999999999
 20
28.0
 30
0.0
 11
331.76999999999998
 21
28.0
 31
0.0
  0
LINE
  5
4333
  8
250
  6
CONTINUOUS
 10
228.22999999999999
 20
27.62833333333333
 30
0.0
 11
226.0
 21
28.0
 31
0.0
  0
LINE
  5
4334
  8
250
  6
CONTINUOUS
 10
228.22999999999999
 20
28.371666666666659
 30
0.0
 11
226.0
 21
28.0
 31
0.0
  0
LINE
  5
4335
  8
250
  6
CONTINUOUS
 10
226.0
 20
28.0
 30
0.0
 11
228.22999999999999
 21
28.0
 31
0.0
  0
LINE
  5
4336
  8
250
  6
CONTINUOUS
 10
331.76999999999998
 20
28.371666666666659
 30
0.0
 11
334.0
 21
28.0
 31
0.0
  0
LINE
  5
4337
  8
250
  6
CONTINUOUS
 10
331.76999999999998
 20
27.62833333333333
 30
0.0
 11
334.0
 21
28.0
 31
0.0
  0
LINE
  5
4338
  8
250
  6
CONTINUOUS
 10
334.0
 20
28.0
 30
0.0
 11
331.76999999999998
 21
28.0
 31
0.0
  0
TEXT
  5
4339
  8
250
  6
CONTINUOUS
 10
266.91263909571433
 20
29.0
 30
0.0
 40
3.0
  1
üimax.108üj
1001
ACAD
1000
MTEXTBEGIN
1070
    73
1070
     1
1070
    44
1040
1.0
1070
    74
1070
     0
1000
MTEXTEND
1000
MTEXTBEGIN
1070
    73
1070
     1
1070
    44
1040
1.0
1070
    74
1070
     0
1000
MTEXTEND
  0
VIEWPORT
  5
22
 67
     1
  8
0
 10
261.51769911504419
 20
148.5
 30
0.0
 40
523.0353982300885
 41
297.0
 68
     1
 69
     1
1001
ACAD
1000
MVIEW
1002
{
1070
    16
1010
0.0
1020
0.0
1030
0.0
1010
0.0
1020
0.0
1030
1.0
1040
0.0
1040
297.0
1040
261.51769911504419
1040
148.5
1040
50.0
1040
0.0
1040
0.0
1070
     0
1070
   100
1070
     1
1070
     1
1070
     0
1070
     0
1070
     0
1070
     0
1040
0.0
1040
0.0
1040
0.0
1040
1.0
1040
1.0
1040
10.0
1040
10.0
1070
     0
1002
{
1002
}
1002
}
1001
GENIUS_GENODEF_13
1002
{
1000
HIER
1070
     0
1002
}
1002
{
1000
MANEDIT
1070
     0
1002
}
1002
{
1000
NOSEL
1070
     0
1002
}
1002
{
1000
BEHIND
1070
     0
1002
}
1002
{
1000
OTHER
1070
     0
1002
}
1002
{
1000
REACTOR
1002
}
1001
GENIUS_GENOBJ-N-SDF_13
1002
{
1000
OWNER
1000
GEN
1002
}
1001
GENIUS_GENSCREG_15
1000
PF
1040
1.0
1000
DF
1040
1.0
1000
MIN
1011
0.0
1021
0.0
1031
0.0
1021
0.0
1031
0.0
1000
MAX
1011
523.0353982300885
1021
0.0
1031
0.0
1021
297.0
1031
0.0
1000
FLAGS
1070
     4
  0
ENDSEC
  0
EOF
