  0
SECTION
  2
HEADER
  9
$ACADVER
  1
AC1009
  9
$INSBASE
 10
0.0
 20
0.0
 30
0.0
  9
$EXTMIN
 10
-57.0
 20
-28.257659619999998
 30
0.0
  9
$EXTMAX
 10
110.5048772799874
 20
145.22937460257489
 30
0.0
  9
$LIMMIN
 10
0.0
 20
0.0
  9
$LIMMAX
 10
297.0
 20
210.0
  9
$ORTHOMODE
 70
     0
  9
$REGENMODE
 70
     1
  9
$FILLMODE
 70
     1
  9
$QTEXTMODE
 70
     0
  9
$MIRRTEXT
 70
     1
  9
$DRAGMODE
 70
     2
  9
$LTSCALE
 40
10.0
  9
$OSMODE
 70
    35
  9
$ATTMODE
 70
     1
  9
$TEXTSIZE
 40
3.0
  9
$TRACEWID
 40
1.0
  9
$TEXTSTYLE
  7
YOKO
  9
$CLAYER
  8
240
  9
$CELTYPE
  6
BYLAYER
  9
$CECOLOR
 62
   256
  9
$DIMSCALE
 40
1.0
  9
$DIMASZ
 40
2.2299999999999991
  9
$DIMEXO
 40
0.5
  9
$DIMDLI
 40
7.0
  9
$DIMRND
 40
0.0
  9
$DIMDLE
 40
0.0
  9
$DIMEXE
 40
1.0
  9
$DIMTP
 40
0.0
  9
$DIMTM
 40
0.01
  9
$DIMTXT
 40
2.7999999999999989
  9
$DIMCEN
 40
0.0
  9
$DIMTSZ
 40
0.0
  9
$DIMTOL
 70
     0
  9
$DIMLIM
 70
     0
  9
$DIMTIH
 70
     0
  9
$DIMTOH
 70
     0
  9
$DIMSE1
 70
     0
  9
$DIMSE2
 70
     0
  9
$DIMTAD
 70
     3
  9
$DIMZIN
 70
     9
  9
$DIMBLK
  1
OPEN
  9
$DIMASO
 70
     1
  9
$DIMSHO
 70
     1
  9
$DIMPOST
  1

  9
$DIMAPOST
  1

  9
$DIMALT
 70
     0
  9
$DIMALTD
 70
     2
  9
$DIMALTF
 40
25.399999999999999
  9
$DIMLFAC
 40
1.0
  9
$DIMTOFL
 70
     1
  9
$DIMTVP
 40
0.0
  9
$DIMTIX
 70
     1
  9
$DIMSOXD
 70
     0
  9
$DIMSAH
 70
     0
  9
$DIMBLK1
  1

  9
$DIMBLK2
  1

  9
$DIMSTYLE
  2
BIGT
  9
$DIMCLRD
 70
   256
  9
$DIMCLRE
 70
   256
  9
$DIMCLRT
 70
    40
  9
$DIMTFAC
 40
1.0
  9
$DIMGAP
 40
1.0
  9
$LUNITS
 70
     2
  9
$LUPREC
 70
     6
  9
$SKETCHINC
 40
1.0
  9
$FILLETRAD
 40
0.0
  9
$AUNITS
 70
     0
  9
$AUPREC
 70
     6
  9
$MENU
  1
.
  9
$ELEVATION
 40
0.0
  9
$PELEVATION
 40
0.0
  9
$THICKNESS
 40
0.0
  9
$LIMCHECK
 70
     0
  9
$BLIPMODE
 70
     0
  9
$CHAMFERA
 40
0.2
  9
$CHAMFERB
 40
0.2
  9
$SKPOLY
 70
     0
  9
$TDCREATE
 40
2457736.718425266
  9
$TDUPDATE
 40
2457738.5687104859
  9
$TDINDWG
 40
0.0298695718
  9
$TDUSRTIMER
 40
0.029869537
  9
$USRTIMER
 70
     1
  9
$ANGBASE
 50
0.0
  9
$ANGDIR
 70
     0
  9
$PDMODE
 70
     1
  9
$PDSIZE
 40
0.0
  9
$PLINEWID
 40
0.0
  9
$COORDS
 70
     1
  9
$SPLFRAME
 70
     0
  9
$SPLINETYPE
 70
     6
  9
$SPLINESEGS
 70
     4
  9
$ATTDIA
 70
     1
  9
$ATTREQ
 70
     1
  9
$HANDLING
 70
     1
  9
$HANDSEED
  5
49C0
  9
$SURFTAB1
 70
     6
  9
$SURFTAB2
 70
     6
  9
$SURFTYPE
 70
     6
  9
$SURFU
 70
     6
  9
$SURFV
 70
     6
  9
$UCSNAME
  2

  9
$UCSORG
 10
0.0
 20
0.0
 30
0.0
  9
$UCSXDIR
 10
1.0
 20
0.0
 30
0.0
  9
$UCSYDIR
 10
0.0
 20
1.0
 30
0.0
  9
$PUCSNAME
  2

  9
$PUCSORG
 10
0.0
 20
0.0
 30
0.0
  9
$PUCSXDIR
 10
1.0
 20
0.0
 30
0.0
  9
$PUCSYDIR
 10
0.0
 20
1.0
 30
0.0
  9
$USERI1
 70
     1
  9
$USERI2
 70
     0
  9
$USERI3
 70
     0
  9
$USERI4
 70
     0
  9
$USERI5
 70
     0
  9
$USERR1
 40
0.0
  9
$USERR2
 40
0.0
  9
$USERR3
 40
0.0
  9
$USERR4
 40
0.0
  9
$USERR5
 40
0.0
  9
$WORLDVIEW
 70
     1
  9
$SHADEDGE
 70
     3
  9
$SHADEDIF
 70
    70
  9
$TILEMODE
 70
     1
  9
$MAXACTVP
 70
    16
  9
$PLIMCHECK
 70
     0
  9
$PEXTMIN
 10
1.0000000000000000E+020
 20
1.0000000000000000E+020
 30
1.0000000000000000E+020
  9
$PEXTMAX
 10
-1.0000000000000000E+020
 20
-1.0000000000000000E+020
 30
-1.0000000000000000E+020
  9
$PLIMMIN
 10
0.0
 20
0.0
  9
$PLIMMAX
 10
420.0
 20
297.0
  9
$UNITMODE
 70
     0
  9
$VISRETAIN
 70
     1
  9
$PLINEGEN
 70
     0
  9
$PSLTSCALE
 70
     1
  0
ENDSEC
  0
SECTION
  2
TABLES
  0
TABLE
  2
VPORT
 70
     1
  0
VPORT
  2
*ACTIVE
 70
     0
 10
0.0
 20
0.0
 11
1.0
 21
1.0
 12
26.7546851639108
 22
25.069950489075779
 13
0.0
 23
0.0
 14
7.0
 24
7.0
 15
7.0
 25
7.0
 16
0.0
 26
0.0
 36
1.0
 17
0.0
 27
0.0
 37
0.0
 40
109.3269699981351
 41
1.5388026607538801
 42
50.0
 43
0.0
 44
0.0
 50
0.0
 51
0.0
 71
     0
 72
  2000
 73
     1
 74
     0
 75
     1
 76
     1
 77
     0
 78
     0
  0
ENDTAB
  0
TABLE
  2
LTYPE
 70
    13
  0
LTYPE
  2
CONTINUOUS
 70
     0
  3
Solid line
 72
    65
 73
     0
 40
0.0
  0
LTYPE
  2
CENTER2
 70
     0
  3
___ _ ___ _ ___ _ ___ _ ___ _ ___ _ ___ _ ___ _
 72
    65
 73
     4
 40
1.125
 49
0.75
 49
-0.125
 49
0.125
 49
-0.125
  0
LTYPE
  2
HIDDEN2
 70
     0
  3
_ _ _ _ _ _ _ _ _ _ _ _ _ _ _ _ _ _ _ _ _ _ _ _
 72
    65
 73
     2
 40
0.1875
 49
0.125
 49
-0.0625
  0
LTYPE
  2
PHANTOM2
 70
     0
  3
___ _ _ ___ _ _ ___ _ _ ___ _ _ ___ _ _ ___ _ _
 72
    65
 73
     6
 40
1.25
 49
0.625
 49
-0.125
 49
0.125
 49
-0.125
 49
0.125
 49
-0.125
  0
LTYPE
  2
AM_ISO02W050
 70
     0
  3
__ __ __ __ __ __ __ __ __ __ __ __ __ __ __
 72
    65
 73
     2
 40
7.5
 49
6.0
 49
-1.5
  0
LTYPE
  2
AMCONSTR
 70
     0
  3
_______________________
 72
    65
 73
     2
 40
9999.0
 49
9999.0
 49
0.0
  0
LTYPE
  2
ACISOWELD
 70
     0
  3
_ _ _ _ _
 72
    65
 73
     2
 40
2.0
 49
2.0
 49
-1.0
  0
LTYPE
  2
ACISOTGB
 70
     0
  3
__ . . __ . .
 72
    65
 73
     6
 40
9.0
 49
4.0
 49
-1.0
 49
1.0
 49
-1.0
 49
1.0
 49
-1.0
  0
LTYPE
  2
ACISOTGL
 70
     0
  3
_ _ _ _ _
 72
    65
 73
     2
 40
3.0
 49
2.0
 49
-1.0
  0
LTYPE
  2
ACJISTGB
 70
     0
  3
__ . . __ . .
 72
    65
 73
     6
 40
9.0
 49
4.0
 49
-1.0
 49
1.0
 49
-1.0
 49
1.0
 49
-1.0
  0
LTYPE
  2
ACJISTGL
 70
     0
  3
_ _ _ _ _
 72
    65
 73
     2
 40
3.0
 49
2.0
 49
-1.0
  0
ENDTAB
  0
TABLE
  2
LAYER
 70
    10
  0
LAYER
  2
0
 70
     0
 62
     7
  6
CONTINUOUS
  0
LAYER
  2
DEFPOINTS
 70
     0
 62
     7
  6
CONTINUOUS
  0
LAYER
  2
245
 70
     0
 62
     2
  6
CENTER2
  0
LAYER
  2
240
 70
     0
 62
     4
  6
CONTINUOUS
  0
LAYER
  2
241
 70
     0
 62
   211
  6
CONTINUOUS
  0
LAYER
  2
243
 70
     0
 62
   211
  6
HIDDEN2
  0
LAYER
  2
246
 70
     0
 62
     3
  6
PHANTOM2
  0
LAYER
  2
247
 70
     0
 62
    60
  6
CONTINUOUS
  0
LAYER
  2
250
 70
     0
 62
     3
  6
CONTINUOUS
  0
ENDTAB
  0
TABLE
  2
STYLE
 70
     6
  0
STYLE
  2
STANDARD
 70
     0
 40
0.0
 41
1.0
 50
0.0
 71
     0
 42
3.0
  3
romans.shx
  4
extfont.shx
  0
STYLE
  2
ACISOTS
 70
     0
 40
1.0
 41
1.0
 50
0.0
 71
     0
 42
3.0
  3
amgdt.shx
  4
extfont.shx
  0
STYLE
  2
ACISOGDT
 70
     0
 40
0.0
 41
1.0
 50
0.0
 71
     0
 42
3.0
  3
amgdt.shx
  4
extfont.shx
  0
STYLE
  2
ACJISTS
 70
     0
 40
1.0
 41
1.0
 50
0.0
 71
     0
 42
3.0
  3
amgdt.shx
  4
extfont.shx
  0
STYLE
  2
ACJISGDT
 70
     0
 40
0.0
 41
1.0
 50
0.0
 71
     0
 42
3.0
  3
amgdt.shx
  4
extfont.shx
  0
STYLE
  2
YOKO
 70
     0
 40
0.0
 41
1.0
 50
0.0
 71
     0
 42
3.0
  3
romans.shx
  4
extfont.shx
  0
ENDTAB
  0
TABLE
  2
VIEW
 70
     0
  0
ENDTAB
  0
TABLE
  2
UCS
 70
     0
  0
ENDTAB
  0
TABLE
  2
APPID
 70
    44
  0
APPID
  2
ACAD
 70
     0
  0
APPID
  2
GLOBAL
 70
     0
  0
APPID
  2
DETAIL
 70
     0
  0
APPID
  2
GRPNAME
 70
     0
  0
APPID
  2
GPARA
 70
     0
  0
APPID
  2
MCAD_NO_VIS
 70
     0
  0
APPID
  2
ACAD_TEMP_GRAPHIC
 70
     0
  0
APPID
  2
ACATTRIBSERVICES
 70
     0
  0
APPID
  2
GENIUS_GENSCREG_15
 70
     0
  0
APPID
  2
GENIUS_GENODEF_13
 70
     0
  0
APPID
  2
GENIUS_GENOBJ-N-SDF_13
 70
     0
  0
APPID
  2
GENIUS_GENREC_14
 70
     0
  0
APPID
  2
GENIUS_GENOBJ-N-REC_13
 70
     0
  0
APPID
  2
GENIUS_GENDIMSH_14
 70
     0
  0
APPID
  2
GENIUS_GENOBJ-N-DIM_13
 70
     0
  0
APPID
  2
GENIUS_GENDIM_13
 70
     0
  0
APPID
  2
GENIUS_GENDTOL_13
 70
     0
  0
APPID
  2
GENIUS_GENOLIS_13
 70
     0
  0
APPID
  2
GENIUS_GENOENT_13
 70
     0
  0
APPID
  2
GENIUS_GENOBJ-F-FEM_13
 70
     0
  0
APPID
  2
GENIUS_GENOREF_13
 70
     0
  0
APPID
  2
GENIUS_GEFFEM_13
 70
     0
  0
APPID
  2
GENIUS_GEFFEMP_13
 70
     0
  0
APPID
  2
AD_DRAW
 70
     0
  0
APPID
  2
DESIGNERASSEMBLIES
 70
     0
  0
APPID
  2
ACADM_DIM_EDIT
 70
     0
  0
APPID
  2
AMDT_DM_ADJ
 70
     0
  0
APPID
  2
ITEMNAME
 70
     0
  0
APPID
  2
GENIUS_GENOBJ-N-FIL_13
 70
     0
  0
APPID
  2
GENIUS_GENFIL_13
 70
     0
  0
APPID
  2
GENIUS_GENOBJ-N-CHA_13
 70
     0
  0
APPID
  2
ACAD_NAV_VCDISPLAY
 70
     0
  0
APPID
  2
ACAD_PSEXT
 70
     0
  0
APPID
  2
GENIUS_GENOBJ-N-HTC_13
 70
     0
  0
APPID
  2
GENIUS_GENHATCH_13
 70
     0
  0
APPID
  2
ACAD_EXEMPT_FROM_CAD_STANDARDS
 70
     0
  0
APPID
  2
ACAD_DSTYLE_DIMJAG
 70
     0
  0
APPID
  2
ACAD_DSTYLE_DIMBREAK
 70
     0
  0
APPID
  2
ACAD_MLEADERVER
 70
     0
  0
APPID
  2
ACAD_DSTYLE_DIMARC_LENGTH_
 70
     0
  0
APPID
  2
ACAD_DSTYLE_DIM_LINETYPE
 70
     0
  0
APPID
  2
ACAD_DSTYLE_DIM_EXT1_LINETYPE
 70
     0
  0
APPID
  2
ACAD_DSTYLE_DIM_EXT2_LINETYPE
 70
     0
  0
APPID
  2
ACAECLAYERSTANDARD
 70
     0
  0
ENDTAB
  0
TABLE
  2
DIMSTYLE
 70
    23
  0
DIMSTYLE
  2
BIGT
 70
     0
  3

  4

  5
OPEN
  6

  7

 40
1.0
 41
2.2299999999999991
 42
0.5
 43
7.0
 44
1.0
 45
0.0
 46
0.0
 47
0.0
 48
0.01
140
2.7999999999999989
141
0.0
142
0.0
143
25.399999999999999
144
1.0
145
0.0
146
1.0
147
1.0
 71
     0
 72
     0
 73
     0
 74
     0
 75
     0
 76
     0
 77
     3
 78
     9
170
     0
171
     2
172
     1
173
     0
174
     1
175
     0
176
   256
177
   256
178
    40
  0
DIMSTYLE
  2
AM_ISO
 70
     0
  3

  4
"
  5

  6

  7

 40
1.0
 41
2.5
 42
1.0
 43
10.0
 44
1.0
 45
0.0
 46
0.0
 47
0.1
 48
0.1
140
3.5
141
0.0
142
0.0
143
0.0393701
144
1.0
145
0.0
146
0.71
147
1.5
 71
     0
 72
     0
 73
     0
 74
     0
 75
     0
 76
     0
 77
     1
 78
     8
170
     0
171
     2
172
     1
173
     0
174
     0
175
     0
176
   256
177
   256
178
     2
  0
DIMSTYLE
  2
AM_ISO$3
 70
     0
  3

  4
"
  5

  6

  7

 40
1.0
 41
2.5
 42
1.0
 43
10.0
 44
1.0
 45
0.0
 46
0.0
 47
0.1
 48
0.1
140
3.5
141
0.0
142
0.0
143
0.0393701
144
1.0
145
0.0
146
0.71
147
1.5
 71
     0
 72
     0
 73
     0
 74
     1
 75
     0
 76
     0
 77
     1
 78
     8
170
     0
171
     2
172
     0
173
     0
174
     0
175
     0
176
   256
177
   256
178
     2
  0
DIMSTYLE
  2
AM_ISO$4
 70
     0
  3

  4
"
  5

  6

  7

 40
1.0
 41
2.5
 42
1.0
 43
10.0
 44
1.0
 45
0.0
 46
0.0
 47
0.1
 48
0.1
140
3.5
141
0.0
142
0.0
143
0.0393701
144
1.0
145
0.0
146
0.71
147
1.5
 71
     0
 72
     0
 73
     0
 74
     1
 75
     0
 76
     0
 77
     1
 78
     8
170
     0
171
     2
172
     0
173
     0
174
     0
175
     0
176
   256
177
   256
178
     2
  0
DIMSTYLE
  2
AM_ISO$6
 70
     0
  3

  4
"
  5

  6

  7

 40
1.0
 41
2.5
 42
1.0
 43
10.0
 44
1.0
 45
0.0
 46
0.0
 47
0.1
 48
0.1
140
3.5
141
0.0
142
0.0
143
0.0393701
144
1.0
145
0.0
146
0.71
147
1.5
 71
     0
 72
     0
 73
     0
 74
     0
 75
     0
 76
     0
 77
     0
 78
     8
170
     0
171
     2
172
     1
173
     0
174
     0
175
     0
176
   256
177
   256
178
     2
  0
DIMSTYLE
  2
AM_ISO$7
 70
     0
  3

  4
"
  5

  6

  7

 40
1.0
 41
2.5
 42
1.0
 43
10.0
 44
1.0
 45
0.0
 46
0.0
 47
0.1
 48
0.1
140
5.0
141
0.0
142
0.0
143
0.0393701
144
1.0
145
0.0
146
0.71
147
1.5
 71
     0
 72
     0
 73
     0
 74
     0
 75
     0
 76
     0
 77
     1
 78
     8
170
     0
171
     2
172
     1
173
     0
174
     0
175
     0
176
   256
177
   256
178
     2
  0
DIMSTYLE
  2
AM_ISO$SF
 70
     0
  3

  4
"
  5

  6

  7

 40
1.0
 41
2.5
 42
1.0
 43
10.0
 44
1.0
 45
0.0
 46
0.0
 47
0.1
 48
0.1
140
3.5
141
0.0
142
0.0
143
0.0393701
144
1.0
145
0.0
146
0.71
147
1.5
 71
     0
 72
     0
 73
     0
 74
     0
 75
     1
 76
     1
 77
     1
 78
     8
170
     0
171
     2
172
     1
173
     0
174
     0
175
     0
176
   256
177
   256
178
     2
  0
DIMSTYLE
  2
AM_ISO$SH
 70
     0
  3

  4
"
  5

  6
GENAXEH
  7

 40
1.0
 41
2.5
 42
1.0
 43
10.0
 44
1.0
 45
0.0
 46
0.0
 47
0.1
 48
0.1
140
3.5
141
0.0
142
0.0
143
0.0393701
144
2.0
145
0.0
146
0.71
147
1.5
 71
     0
 72
     0
 73
     0
 74
     0
 75
     1
 76
     1
 77
     1
 78
     8
170
     0
171
     2
172
     1
173
     1
174
     0
175
     0
176
   256
177
   256
178
     2
  0
DIMSTYLE
  2
BIGT$2
 70
     0
  3

  4

  5
OPEN
  6

  7

 40
1.0
 41
2.2299999999999991
 42
0.5
 43
7.0
 44
1.0
 45
0.0
 46
0.0
 47
0.0
 48
0.01
140
2.7999999999999989
141
0.0
142
0.0
143
25.399999999999999
144
1.0
145
0.0
146
1.0
147
1.0
 71
     0
 72
     0
 73
     0
 74
     0
 75
     0
 76
     0
 77
     3
 78
     9
170
     0
171
     2
172
     1
173
     0
174
     0
175
     0
176
   256
177
   256
178
    40
  0
DIMSTYLE
  2
BIGT$3
 70
     0
  3

  4

  5
OPEN
  6

  7

 40
1.0
 41
2.2299999999999991
 42
0.5
 43
2.5
 44
1.0
 45
0.0
 46
0.0
 47
0.0
 48
0.01
140
2.7999999999999989
141
0.0
142
0.0
143
25.399999999999999
144
1.0
145
0.0
146
1.0
147
1.0
 71
     0
 72
     0
 73
     0
 74
     0
 75
     0
 76
     0
 77
     3
 78
     9
170
     0
171
     2
172
     1
173
     0
174
     0
175
     0
176
   256
177
   256
178
    40
  0
DIMSTYLE
  2
BIGT$7
 70
     0
  3

  4

  5
OPEN
  6

  7

 40
0.0
 41
2.2299999999999991
 42
0.5
 43
7.0
 44
1.0
 45
0.0
 46
0.0
 47
0.0
 48
0.01
140
2.7999999999999989
141
0.0
142
0.0
143
25.399999999999999
144
1.0
145
0.0
146
1.0
147
1.0
 71
     0
 72
     0
 73
     0
 74
     0
 75
     0
 76
     0
 77
     3
 78
     9
170
     0
171
     2
172
     0
173
     0
174
     0
175
     0
176
   256
177
   256
178
    40
  0
DIMSTYLE
  2
BIGT$6
 70
     0
  3

  4

  5
OPEN
  6

  7

 40
1.0
 41
2.2299999999999991
 42
0.5
 43
2.5
 44
1.0
 45
0.0
 46
0.0
 47
0.0
 48
0.01
140
2.7999999999999989
141
0.0
142
0.0
143
25.399999999999999
144
1.0
145
0.0
146
1.0
147
1.0
 71
     0
 72
     0
 73
     0
 74
     0
 75
     0
 76
     0
 77
     3
 78
     9
170
     0
171
     2
172
     1
173
     0
174
     0
175
     0
176
   256
177
   256
178
    40
  0
DIMSTYLE
  2
BIGT$0
 70
     0
  3

  4

  5
OPEN
  6

  7

 40
1.0
 41
2.2299999999999991
 42
0.5
 43
7.0
 44
1.0
 45
0.0
 46
0.0
 47
0.0
 48
0.01
140
2.7999999999999989
141
0.0
142
0.0
143
25.399999999999999
144
1.0
145
0.0
146
1.0
147
1.0
 71
     0
 72
     0
 73
     0
 74
     0
 75
     0
 76
     0
 77
     3
 78
     9
170
     0
171
     2
172
     1
173
     0
174
     1
175
     0
176
   256
177
   256
178
    40
  0
DIMSTYLE
  2
BIGT$4
 70
     0
  3

  4

  5
OPEN
  6

  7

 40
1.0
 41
2.2299999999999991
 42
0.5
 43
2.5
 44
1.0
 45
0.0
 46
0.0
 47
0.0
 48
0.01
140
2.7999999999999989
141
0.0
142
0.0
143
25.399999999999999
144
1.0
145
0.0
146
1.0
147
1.0
 71
     0
 72
     0
 73
     0
 74
     0
 75
     0
 76
     0
 77
     3
 78
     9
170
     0
171
     2
172
     1
173
     0
174
     0
175
     0
176
   256
177
   256
178
    40
  0
DIMSTYLE
  2
BIGT$SH
 70
     0
  3

  4

  5
OPEN
  6

  7

 40
1.0
 41
2.2299999999999991
 42
0.5
 43
7.0
 44
1.0
 45
0.0
 46
0.0
 47
0.0
 48
0.0
140
2.7999999999999989
141
0.0
142
0.0
143
25.399999999999999
144
1.0
145
0.0
146
1.0
147
1.0
 71
     0
 72
     0
 73
     0
 74
     0
 75
     0
 76
     0
 77
     3
 78
     9
170
     0
171
     2
172
     1
173
     0
174
     0
175
     0
176
   256
177
   256
178
    40
  0
DIMSTYLE
  2
BIGT$SF
 70
     0
  3

  4

  5
OPEN
  6

  7

 40
1.0
 41
2.2299999999999991
 42
0.5
 43
7.0
 44
1.0
 45
0.0
 46
0.0
 47
0.0
 48
0.0
140
2.7999999999999989
141
0.0
142
0.0
143
25.399999999999999
144
1.0
145
0.0
146
1.0
147
1.0
 71
     0
 72
     0
 73
     0
 74
     0
 75
     0
 76
     0
 77
     3
 78
     9
170
     0
171
     2
172
     1
173
     0
174
     0
175
     0
176
   256
177
   256
178
    40
  0
DIMSTYLE
  2
TECHNICAL_OSAKA
 70
     0
  3

  4
"
  5
OPEN30
  6

  7

 40
1.0
 41
2.5
 42
1.0
 43
10.0
 44
1.0
 45
0.0
 46
0.0
 47
0.1
 48
0.1
140
2.7999999999999989
141
0.0
142
0.0
143
0.0393701
144
1.0
145
0.0
146
0.71
147
1.5
 71
     0
 72
     0
 73
     0
 74
     0
 75
     0
 76
     0
 77
     3
 78
     8
170
     0
171
     2
172
     1
173
     0
174
     0
175
     0
176
   256
177
   256
178
    40
  0
DIMSTYLE
  2
TECHNICAL_OSAKA$3
 70
     0
  3

  4
"
  5
OPEN30
  6

  7

 40
1.0
 41
2.5
 42
1.0
 43
10.0
 44
1.0
 45
0.0
 46
0.0
 47
0.1
 48
0.1
140
2.7999999999999989
141
0.0
142
0.0
143
0.0393701
144
1.0
145
0.0
146
0.71
147
1.5
 71
     0
 72
     0
 73
     0
 74
     1
 75
     0
 76
     0
 77
     3
 78
     8
170
     0
171
     2
172
     0
173
     0
174
     0
175
     0
176
   256
177
   256
178
    40
  0
DIMSTYLE
  2
TECHNICAL_OSAKA$4
 70
     0
  3

  4
"
  5
OPEN30
  6

  7

 40
1.0
 41
2.5
 42
1.0
 43
10.0
 44
1.0
 45
0.0
 46
0.0
 47
0.1
 48
0.1
140
2.7999999999999989
141
0.0
142
0.0
143
0.0393701
144
1.0
145
0.0
146
0.71
147
1.5
 71
     0
 72
     0
 73
     0
 74
     1
 75
     0
 76
     0
 77
     3
 78
     8
170
     0
171
     2
172
     0
173
     0
174
     0
175
     0
176
   256
177
   256
178
    40
  0
DIMSTYLE
  2
TECHNICAL_OSAKA$6
 70
     0
  3

  4
"
  5
OPEN30
  6

  7

 40
1.0
 41
2.5
 42
1.0
 43
10.0
 44
1.0
 45
0.0
 46
0.0
 47
0.1
 48
0.1
140
2.7999999999999989
141
0.0
142
0.0
143
0.0393701
144
1.0
145
0.0
146
0.71
147
1.5
 71
     0
 72
     0
 73
     0
 74
     0
 75
     0
 76
     0
 77
     0
 78
     8
170
     0
171
     2
172
     1
173
     0
174
     0
175
     0
176
   256
177
   256
178
    40
  0
DIMSTYLE
  2
TECHNICAL_OSAKA$7
 70
     0
  3

  4
"
  5
OPEN30
  6

  7

 40
1.0
 41
2.5
 42
1.0
 43
10.0
 44
1.0
 45
0.0
 46
0.0
 47
0.1
 48
0.1
140
2.7999999999999989
141
0.0
142
0.0
143
0.0393701
144
1.0
145
0.0
146
0.71
147
1.5
 71
     0
 72
     0
 73
     0
 74
     0
 75
     0
 76
     0
 77
     3
 78
     8
170
     0
171
     2
172
     1
173
     0
174
     0
175
     0
176
   256
177
   256
178
    40
  0
DIMSTYLE
  2
TECHNICAL_OSAKA$SF
 70
     0
  3

  4
"
  5
OPEN30
  6
OPEN30
  7
OPEN30
 40
1.0
 41
2.5
 42
1.0
 43
10.0
 44
1.0
 45
0.0
 46
0.0
 47
0.1
 48
0.1
140
3.5
141
0.0
142
0.0
143
0.0393701
144
1.0
145
0.0
146
0.71
147
1.5
 71
     0
 72
     0
 73
     0
 74
     0
 75
     1
 76
     1
 77
     3
 78
     8
170
     0
171
     2
172
     1
173
     0
174
     0
175
     0
176
   256
177
   256
178
    40
  0
DIMSTYLE
  2
TECHNICAL_OSAKA$SH
 70
     0
  3

  4
"
  5
OPEN30
  6
GENAXEH
  7
OPEN30
 40
1.0
 41
2.5
 42
1.0
 43
10.0
 44
1.0
 45
0.0
 46
0.0
 47
0.1
 48
0.1
140
3.5
141
0.0
142
0.0
143
0.0393701
144
2.0
145
0.0
146
0.71
147
1.5
 71
     0
 72
     0
 73
     0
 74
     0
 75
     1
 76
     1
 77
     3
 78
     8
170
     0
171
     2
172
     1
173
     1
174
     0
175
     0
176
   256
177
   256
178
    40
  0
ENDTAB
  0
ENDSEC
  0
SECTION
  2
BLOCKS
  0
BLOCK
  8
0
  2
$MODEL_SPACE
 70
     0
 10
0.0
 20
0.0
 30
0.0
  3
$MODEL_SPACE
  1

  0
ENDBLK
  5
1C
  8
0
  0
BLOCK
 67
     1
  8
0
  2
$PAPER_SPACE
 70
     0
 10
0.0
 20
0.0
 30
0.0
  3
$PAPER_SPACE
  1

  0
ENDBLK
  5
19
 67
     1
  8
0
  0
BLOCK
  8
0
  2
_OPEN
 70
     0
 10
0.0
 20
0.0
 30
0.0
  3
_OPEN
  1

  0
LINE
  5
48C7
  8
0
  6
BYBLOCK
 62
     0
 10
-1.0
 20
0.1666666666666666
 30
0.0
 11
0.0
 21
0.0
 31
0.0
  0
LINE
  5
48C8
  8
0
  6
BYBLOCK
 62
     0
 10
-1.0
 20
-0.1666666666666666
 30
0.0
 11
0.0
 21
0.0
 31
0.0
  0
LINE
  5
48C9
  8
0
  6
BYBLOCK
 62
     0
 10
0.0
 20
0.0
 30
0.0
 11
-1.0
 21
0.0
 31
0.0
  0
ENDBLK
  5
48CA
  8
0
  0
BLOCK
  8
0
  2
GENAXEH
 70
     0
 10
0.0
 20
0.0
 30
0.0
  3
GENAXEH
  1

  0
LINE
  5
4902
  8
0
 10
-1.0
 20
0.0
 30
0.0
 11
1.0
 21
0.0
 31
0.0
  0
ENDBLK
  5
4903
  8
0
  0
BLOCK
  8
0
  2
_OPEN30
 70
     0
 10
0.0
 20
0.0
 30
0.0
  3
_OPEN30
  1

  0
LINE
  5
493E
  8
0
  6
BYBLOCK
 62
     0
 10
-1.0
 20
0.26794919
 30
0.0
 11
0.0
 21
0.0
 31
0.0
  0
LINE
  5
493F
  8
0
  6
BYBLOCK
 62
     0
 10
0.0
 20
0.0
 30
0.0
 11
-1.0
 21
-0.26794919
 31
0.0
  0
LINE
  5
4940
  8
0
  6
BYBLOCK
 62
     0
 10
0.0
 20
0.0
 30
0.0
 11
-1.0
 21
0.0
 31
0.0
  0
ENDBLK
  5
4941
  8
0
  0
ENDSEC
  0
SECTION
  2
ENTITIES
  0
LINE
  5
4356
  8
245
  6
CENTER2
 10
-57.0
 20
0.0
 30
0.0
 11
92.489151116272524
 21
0.0
 31
0.0
  0
LINE
  5
4358
  8
241
  6
CONTINUOUS
 10
54.199999999992258
 20
-27.0
 30
0.0
 11
54.199999999992258
 21
26.99999999999325
 31
0.0
  0
LINE
  5
4359
  8
241
  6
CONTINUOUS
 10
55.799999999999898
 20
-26.999999999996358
 30
0.0
 11
55.799999999999912
 21
26.999999999993278
 31
0.0
  0
LINE
  5
435A
  8
241
  6
CONTINUOUS
 10
57.200000000001353
 20
-26.999999999996358
 30
0.0
 11
57.200000000001353
 21
26.9999999999933
 31
0.0
  0
LINE
  5
435B
  8
241
  6
CONTINUOUS
 10
58.800000000003543
 20
-27.0
 30
0.0
 11
58.800000000003543
 21
26.99999999999331
 31
0.0
  0
LINE
  5
4360
  8
240
  6
CONTINUOUS
 10
0.0
 20
-26.999999999992578
 30
0.0
 11
0.0
 21
-15.999999999989139
 31
0.0
  0
LINE
  5
4361
  8
240
  6
CONTINUOUS
 10
0.0
 20
-15.999999999989139
 30
0.0
 11
-53.000000000002842
 21
-15.999999999989139
 31
0.0
  0
LINE
  5
4369
  8
240
  6
CONTINUOUS
 10
-49.461849329367411
 20
16.000000000010861
 30
0.0
 11
-52.999999999999467
 21
16.000000000010861
 31
0.0
  0
LINE
  5
436B
  8
240
  6
CONTINUOUS
 10
-53.000000000002842
 20
-15.999999999989139
 30
0.0
 11
-55.000000000000007
 21
-14.84529946161048
 31
0.0
  0
LINE
  5
4371
  8
240
  6
CONTINUOUS
 10
-52.999999999999467
 20
16.000000000010861
 30
0.0
 11
-55.000000000000007
 21
14.84529946163247
 31
0.0
  0
LINE
  5
4372
  8
240
  6
CONTINUOUS
 10
-49.000000000000021
 20
15.20000000000976
 30
0.0
 11
-49.461849329367411
 21
16.000000000010861
 31
0.0
  0
LINE
  5
4373
  8
240
  6
CONTINUOUS
 10
-5.0
 20
13.66348910206756
 30
0.0
 11
-3.6510148041052162
 21
16.000000000010861
 31
0.0
  0
LINE
  5
4374
  8
240
  6
CONTINUOUS
 10
-5.0
 20
13.66348910206756
 30
0.0
 11
-48.99983054258702
 21
15.19999704212017
 31
0.0
  0
LINE
  5
4376
  8
240
  6
CONTINUOUS
 10
0.0
 20
16.000000000010861
 30
0.0
 11
-3.6510148041088542
 21
16.000000000010861
 31
0.0
  0
LINE
  5
4377
  8
240
  6
CONTINUOUS
 10
-55.000000000000007
 20
14.84529946163247
 30
0.0
 11
-55.000000000000007
 21
-14.84529946161048
 31
0.0
  0
LINE
  5
437C
  8
240
  6
CONTINUOUS
 10
0.0
 20
26.999999999992461
 30
0.0
 11
0.0
 21
16.000000000010861
 31
0.0
  0
LINE
  5
43D5
  8
240
  6
CONTINUOUS
 10
80.000000000004675
 20
26.999999999993619
 30
0.0
 11
89.999999999988034
 21
24.32050807568346
 31
0.0
  0
LINE
  5
43D6
  8
240
  6
CONTINUOUS
 10
89.999999999988034
 20
24.32050807568346
 30
0.0
 11
89.999999999987395
 21
-0.0000000000000568
 31
0.0
  0
LINE
  5
43D8
  8
240
  6
CONTINUOUS
 10
0.0
 20
26.999999999992461
 30
0.0
 11
80.000000000004675
 21
26.999999999993619
 31
0.0
  0
LINE
  5
43EB
  8
240
  6
CONTINUOUS
 10
0.0
 20
-26.999999999992578
 30
0.0
 11
80.000000000004718
 21
-26.99999999999374
 31
0.0
  0
LINE
  5
43ED
  8
240
  6
CONTINUOUS
 10
89.999999999987992
 20
-24.32050807568357
 30
0.0
 11
89.999999999987395
 21
-0.0000000000000568
 31
0.0
  0
LINE
  5
43EE
  8
240
  6
CONTINUOUS
 10
80.000000000004718
 20
-26.99999999999374
 30
0.0
 11
89.999999999987992
 21
-24.32050807568357
 31
0.0
  0
LINE
  5
442C
  8
241
  6
CONTINUOUS
 10
-53.000000000002842
 20
-15.999999999989139
 30
0.0
 11
-52.999999999999467
 21
16.000000000010861
 31
0.0
  0
LINE
  5
442D
  8
241
  6
CONTINUOUS
 10
0.0
 20
16.000000000010861
 30
0.0
 11
0.0
 21
-15.999999999989139
 31
0.0
  0
LINE
  5
442E
  8
241
  6
CONTINUOUS
 10
80.000000000004675
 20
26.999999999993619
 30
0.0
 11
80.000000000004718
 21
-26.99999999999374
 31
0.0
  0
LINE
  5
448A
  8
250
  6
CONTINUOUS
 10
92.371543949987412
 20
35.182555209999997
 30
0.0
 11
110.5048772799874
 21
35.182555209999997
 31
0.0
1001
ITEMNAME
1000
LNSP2
  0
LINE
  5
448B
  8
243
  6
HIDDEN2
 10
19.999999999987409
 20
15.0
 30
0.0
 11
82.499999999987395
 21
15.0
 31
0.0
  0
LINE
  5
448C
  8
245
  6
CENTER2
 10
43.999999999987402
 20
28.000000000000011
 30
0.0
 11
43.999999999987402
 21
14.0
 31
0.0
  0
LINE
  5
448D
  8
243
  6
HIDDEN2
 10
82.499999999987395
 20
19.699999999999999
 30
0.0
 11
89.999999999987395
 21
19.699999999999999
 31
0.0
  0
TEXT
  5
448E
  8
250
  6
CONTINUOUS
 10
94.638210616654092
 20
36.182555209999997
 30
0.0
 40
2.799999999999998
  1
MGT20
  7
YOKO
1001
ITEMNAME
1000
LNSP3
1001
ACAD
1000
MTEXTBEGIN
1070
    73
1070
     1
1070
    44
1040
1.0
1070
    74
1070
     0
1000
MTEXTEND
  0
LINE
  5
448F
  8
250
  6
CONTINUOUS
 10
87.622793739516055
 20
26.957478567841019
 30
0.0
 11
92.371543949987412
 21
35.182555209999997
 31
0.0
1001
ACAD
1000
DSTYLE
1002
{
1070
     6
1000
OPEN
1070
    41
1040
2.0
1070
    42
1040
2.0
1070
    44
1040
2.0
1070
    79
1070
     2
1070
   140
1040
4.0
1070
   179
1070
     3
1070
   371
1070
    -1
1070
   372
1070
    -1
1002
}
  0
LINE
  5
4490
  8
250
  6
CONTINUOUS
 10
87.911468874156185
 20
26.790811901252901
 30
0.0
 11
86.622793739987415
 21
25.225427759999999
 31
0.0
  0
LINE
  5
4491
  8
250
  6
CONTINUOUS
 10
87.334118604875883
 20
27.124145234429129
 30
0.0
 11
86.622793739987415
 21
25.225427759999999
 31
0.0
  0
LINE
  5
4492
  8
250
  6
CONTINUOUS
 10
86.622793739987415
 20
25.225427759999999
 30
0.0
 11
87.622793739516055
 21
26.957478567841019
 31
0.0
  0
LINE
  5
4493
  8
243
  6
HIDDEN2
 10
19.999999999987409
 20
-15.0
 30
0.0
 11
82.499999999987395
 21
-15.0
 31
0.0
  0
LINE
  5
4494
  8
243
  6
HIDDEN2
 10
82.499999999987395
 20
-19.699999999999989
 30
0.0
 11
82.499999999987395
 21
19.699999999999999
 31
0.0
  0
LINE
  5
4495
  8
243
  6
HIDDEN2
 10
82.499999999987395
 20
-19.699999999999989
 30
0.0
 11
89.999999999987395
 21
-19.699999999999989
 31
0.0
  0
LINE
  5
4496
  8
246
  6
PHANTOM2
 10
-3.6510148041088542
 20
16.000000000010861
 30
0.0
 11
-49.461849329367411
 21
16.000000000010861
 31
0.0
  0
LINE
  5
44B8
  8
250
  6
CONTINUOUS
 10
-31.303843654940611
 20
-17.745403317215128
 30
0.0
 11
-29.866970880000011
 21
-16.0
 31
0.0
  0
LINE
  5
44B9
  8
250
  6
CONTINUOUS
 10
-30.66009810476594
 20
-18.117069983832891
 30
0.0
 11
-29.866970880000011
 21
-16.0
 31
0.0
  0
LINE
  5
44BA
  8
250
  6
CONTINUOUS
 10
-29.866970880000011
 20
-16.0
 30
0.0
 11
-30.981970879853272
 21
-17.93123665052401
 31
0.0
  0
LINE
  5
44BB
  8
250
  6
CONTINUOUS
 10
-30.981970879853272
 20
-17.93123665052401
 30
0.0
 11
-36.94393396000001
 21
-28.257659619999998
 31
0.0
1001
ACAD
1000
DSTYLE
1002
{
1070
     6
1000
OPEN
1070
   343
1005
594
1002
}
  0
TEXT
  5
44BC
  8
250
  6
CONTINUOUS
 10
-49.477267290000007
 20
-27.257659619999998
 30
0.0
 40
2.7999999999999989
  1
ST32
  7
YOKO
1001
ITEMNAME
1000
LNSP3
  0
LINE
  5
44BD
  8
250
  6
CONTINUOUS
 10
-36.94393396000001
 20
-28.257659619999998
 30
0.0
 11
-51.877267290000013
 21
-28.257659619999998
 31
0.0
1001
ITEMNAME
1000
LNSP2
  0
LINE
  5
44BE
  8
247
  6
CONTINUOUS
 10
-48.25000000007001
 20
-9.9999999999999982
 30
0.0
 11
-41.557692308030013
 21
-9.9999999999999982
 31
0.0
  0
ARC
  5
44BF
  8
247
  6
CONTINUOUS
 10
-48.25000000007001
 20
-8.2500000000700293
 30
0.0
 40
1.7499999999299991
 50
90.0
 51
270.0
  0
ARC
  5
44C0
  8
247
  6
CONTINUOUS
 10
-41.557692308030013
 20
-8.2500000000700293
 30
0.0
 40
1.7499999999299991
 50
270.0
 51
90.0
  0
LINE
  5
44C1
  8
247
  6
CONTINUOUS
 10
-47.384615384720021
 20
-6.5000000001400604
 30
0.0
 11
-48.244851541962021
 21
-9.5000000000200071
 31
0.0
  0
LINE
  5
44C2
  8
247
  6
CONTINUOUS
 10
-46.484983818335827
 20
-7.9230769231598952
 30
0.0
 11
-47.792676125975831
 21
-7.9230769231598952
 31
0.0
  0
ARC
  5
44C3
  8
247
  6
CONTINUOUS
 10
-46.145143816089792
 20
-7.049598667702865
 30
0.0
 40
0.5538165441895349
 50
342.99788967529531
 51
82.924166218512752
  0
ARC
  5
44C4
  8
247
  6
CONTINUOUS
 10
-46.566878323028803
 20
-6.9360330444658276
 30
0.0
 40
0.9904354236226808
 50
274.74293685220141
 51
343.84922627326642
1001
GENIUS_GENOBJ-N-FIL_13
1002
{
1000
OWNER
1000
GEN
1002
}
1001
GENIUS_GENODEF_13
1002
{
1000
HIER
1070
     0
1002
}
1002
{
1000
MANEDIT
1070
     0
1002
}
1002
{
1000
NOSEL
1070
     0
1002
}
1002
{
1000
BEHIND
1070
     0
1002
}
1002
{
1000
OTHER
1070
     0
1002
}
1002
{
1000
REACTOR
1002
}
  0
LINE
  5
44C5
  8
247
  6
CONTINUOUS
 10
-46.937159234322017
 20
-9.5000000000200071
 30
0.0
 11
-48.244851541962021
 21
-9.5000000000200071
 31
0.0
  0
LINE
  5
44C6
  8
247
  6
CONTINUOUS
 10
-47.384615384720021
 20
-6.5000000001400604
 30
0.0
 11
-46.076923077080011
 21
-6.5000000001400604
 31
0.0
  0
ARC
  5
44C7
  8
247
  6
CONTINUOUS
 10
-46.560919636546977
 20
-8.4820242326654771
 30
0.0
 40
0.5640818586791229
 50
335.9909416525216
 51
82.263443459069066
  0
ARC
  5
44C8
  8
247
  6
CONTINUOUS
 10
-47.038262685347071
 20
-8.487429039186507
 30
0.0
 40
1.0176059446230981
 50
275.70198516425808
 51
347.27733843682222
1001
GENIUS_GENOBJ-N-FIL_13
1002
{
1000
OWNER
1000
GEN
1002
}
1001
GENIUS_GENODEF_13
1002
{
1000
HIER
1070
     0
1002
}
1002
{
1000
MANEDIT
1070
     0
1002
}
1002
{
1000
NOSEL
1070
     0
1002
}
1002
{
1000
BEHIND
1070
     0
1002
}
1002
{
1000
OTHER
1070
     0
1002
}
1002
{
1000
REACTOR
1002
}
  0
LINE
  5
44C9
  8
247
  6
CONTINUOUS
 10
-45.283313080542008
 20
-9.5000000000200071
 30
0.0
 11
-44.423076923300009
 21
-6.5000000001400604
 31
0.0
  0
LINE
  5
44CA
  8
247
  6
CONTINUOUS
 10
-42.000000000320007
 20
-6.5000000001400604
 30
0.0
 11
-42.565736619456608
 21
-6.5000000001400604
 31
0.0
  0
LINE
  5
44CB
  8
247
  6
CONTINUOUS
 10
-43.461538461799996
 20
-9.5000000000200071
 30
0.0
 11
-42.846153846440011
 21
-9.5000000000200071
 31
0.0
  0
ARC
  5
44CC
  8
247
  6
CONTINUOUS
 10
-41.708791209122879
 20
-8.5832851359733677
 30
0.0
 40
2.2526500823422122
 50
112.3594881415306
 51
164.9932485428462
  0
ARC
  5
44CD
  8
247
  6
CONTINUOUS
 10
-42.37406947921324
 20
-7.308312655194638
 30
0.0
 40
0.8906723995727782
 50
4.9945893190753781
 51
65.166328957300934
1001
GENIUS_GENOBJ-N-FIL_13
1002
{
1000
OWNER
1000
GEN
1002
}
1001
GENIUS_GENODEF_13
1002
{
1000
HIER
1070
     0
1002
}
1002
{
1000
MANEDIT
1070
     0
1002
}
1002
{
1000
NOSEL
1070
     0
1002
}
1002
{
1000
BEHIND
1070
     0
1002
}
1002
{
1000
OTHER
1070
     0
1002
}
1002
{
1000
REACTOR
1002
}
  0
ARC
  5
44CE
  8
247
  6
CONTINUOUS
 10
-43.22645888621259
 20
-8.1601458886677811
 30
0.0
 40
1.392781735586712
 50
285.84609655578072
 51
352.32513700416251
  0
ARC
  5
44CF
  8
247
  6
CONTINUOUS
 10
-42.64221272584038
 20
-8.4592434315272822
 30
0.0
 40
1.324563662670287
 50
159.71360167048999
 51
231.7887456564126
1001
GENIUS_GENOBJ-N-FIL_13
1002
{
1000
OWNER
1000
GEN
1002
}
1001
GENIUS_GENODEF_13
1002
{
1000
HIER
1070
     0
1002
}
1002
{
1000
MANEDIT
1070
     0
1002
}
1002
{
1000
NOSEL
1070
     0
1002
}
1002
{
1000
BEHIND
1070
     0
1002
}
1002
{
1000
OTHER
1070
     0
1002
}
1002
{
1000
REACTOR
1002
}
  0
LINE
  5
44D0
  8
247
  6
CONTINUOUS
 10
-42.538461538760011
 20
-8.3461538462199751
 30
0.0
 11
-41.846153846480021
 21
-8.3461538462199751
 31
0.0
  0
LINE
  5
44D1
  8
247
  6
CONTINUOUS
 10
-48.250000000070052
 20
-6.5000000001400604
 30
0.0
 11
-47.576923077020083
 21
-6.5000000001400604
 31
0.0
  0
LINE
  5
44EF
  8
250
  6
CONTINUOUS
 10
0.0
 20
27.499999999992461
 30
0.0
 11
0.0
 21
43.000000000010857
 31
0.0
  0
LINE
  5
44F0
  8
250
  6
CONTINUOUS
 10
90.0
 20
24.838146165885352
 30
0.0
 11
90.0
 21
43.000000000010857
 31
0.0
  0
LINE
  5
44F1
  8
250
  6
CONTINUOUS
 10
2.2299999999999991
 20
42.00000000001085
 30
0.0
 11
87.769999999999996
 21
42.00000000001085
 31
0.0
  0
LINE
  5
44F2
  8
250
  6
CONTINUOUS
 10
2.2299999999999991
 20
41.62833333334418
 30
0.0
 11
0.0
 21
42.00000000001085
 31
0.0
  0
LINE
  5
44F3
  8
250
  6
CONTINUOUS
 10
2.2299999999999991
 20
42.371666666677527
 30
0.0
 11
0.0
 21
42.00000000001085
 31
0.0
  0
LINE
  5
44F4
  8
250
  6
CONTINUOUS
 10
0.0
 20
42.00000000001085
 30
0.0
 11
2.2299999999999991
 21
42.00000000001085
 31
0.0
  0
LINE
  5
44F5
  8
250
  6
CONTINUOUS
 10
87.769999999999996
 20
42.371666666677527
 30
0.0
 11
90.0
 21
42.00000000001085
 31
0.0
  0
LINE
  5
44F6
  8
250
  6
CONTINUOUS
 10
87.769999999999996
 20
41.62833333334418
 30
0.0
 11
90.0
 21
42.00000000001085
 31
0.0
  0
LINE
  5
44F7
  8
250
  6
CONTINUOUS
 10
90.0
 20
42.00000000001085
 30
0.0
 11
87.769999999999996
 21
42.00000000001085
 31
0.0
  0
TEXT
  5
44F8
  8
250
  6
CONTINUOUS
 10
42.333333333333329
 20
43.000000000010857
 30
0.0
 40
2.799999999999998
  1
90
1001
ACAD
1000
MTEXTBEGIN
1070
    73
1070
     1
1070
    44
1040
1.0
1070
    74
1070
     0
1000
MTEXTEND
1000
MTEXTBEGIN
1070
    73
1070
     1
1070
    44
1040
1.0
1070
    74
1070
     0
1000
MTEXTEND
  0
TEXT
  5
44F9
  8
241
  6
CONTINUOUS
 10
-55.0
 20
56.00000000001085
 30
0.0
 40
5.0
  1
ST32-MGT20-90
  7
YOKO
 11
-55.0
 21
56.00000000001085
 31
0.0
 73
     1
  0
LINE
  5
44FA
  8
250
  6
CONTINUOUS
 10
80.500000000004704
 20
-26.999999999989139
 30
0.0
 11
103.00700000000001
 21
-26.999999999989139
 31
0.0
  0
LINE
  5
44FB
  8
250
  6
CONTINUOUS
 10
80.50000000000469
 20
27.000000000010861
 30
0.0
 11
103.00700000000001
 21
27.000000000010861
 31
0.0
  0
LINE
  5
44FC
  8
250
  6
CONTINUOUS
 10
102.00700000000001
 20
-24.769999999989139
 30
0.0
 11
102.00700000000001
 21
24.77000000001086
 31
0.0
  0
LINE
  5
44FD
  8
250
  6
CONTINUOUS
 10
102.3786666666667
 20
-24.769999999989139
 30
0.0
 11
102.00700000000001
 21
-26.999999999989139
 31
0.0
  0
LINE
  5
44FE
  8
250
  6
CONTINUOUS
 10
101.63533333333331
 20
-24.769999999989139
 30
0.0
 11
102.00700000000001
 21
-26.999999999989139
 31
0.0
  0
LINE
  5
44FF
  8
250
  6
CONTINUOUS
 10
102.00700000000001
 20
-26.999999999989139
 30
0.0
 11
102.00700000000001
 21
-24.769999999989139
 31
0.0
  0
LINE
  5
4500
  8
250
  6
CONTINUOUS
 10
101.63533333333331
 20
24.77000000001086
 30
0.0
 11
102.00700000000001
 21
27.000000000010861
 31
0.0
  0
LINE
  5
4501
  8
250
  6
CONTINUOUS
 10
102.3786666666667
 20
24.77000000001086
 30
0.0
 11
102.00700000000001
 21
27.000000000010861
 31
0.0
  0
LINE
  5
4502
  8
250
  6
CONTINUOUS
 10
102.00700000000001
 20
27.000000000010861
 30
0.0
 11
102.00700000000001
 21
24.77000000001086
 31
0.0
  0
TEXT
  5
4503
  8
250
  6
CONTINUOUS
 10
101.00700000000001
 20
-4.2089999999891408
 30
0.0
 40
2.7999999999999989
  1
\U+2205
 50
90.0
1001
ACAD
1000
MTEXTBEGIN
1070
    73
1070
     1
1070
    44
1040
1.0
1070
    74
1070
     0
1000
MTEXTEND
1000
MTEXTBEGIN
1070
    73
1070
     1
1070
    44
1040
1.0
1070
    74
1070
     0
1000
MTEXTEND
  0
TEXT
  5
4504
  8
250
  6
CONTINUOUS
 10
101.00700000000001
 20
-1.675666666655808
 30
0.0
 40
2.799999999999998
  1
54
 50
90.0
1001
ACAD
1000
MTEXTBEGIN
1070
    73
1070
     1
1070
    44
1040
1.0
1070
    74
1070
     0
1000
MTEXTEND
1000
MTEXTBEGIN
1070
    73
1070
     1
1070
    44
1040
1.0
1070
    74
1070
     0
1000
MTEXTEND
  0
LINE
  5
46A6
  8
241
  6
CONTINUOUS
 10
69.499999999987409
 20
-27.0
 30
0.0
 11
69.499999999987409
 21
27.000000000000011
 31
0.0
  0
VIEWPORT
  5
22
 67
     1
  8
0
 10
261.51769911504419
 20
148.5
 30
0.0
 40
523.0353982300885
 41
297.0
 68
     1
 69
     1
1001
ACAD
1000
MVIEW
1002
{
1070
    16
1010
0.0
1020
0.0
1030
0.0
1010
0.0
1020
0.0
1030
1.0
1040
0.0
1040
297.0
1040
261.51769911504419
1040
148.5
1040
50.0
1040
0.0
1040
0.0
1070
     0
1070
   100
1070
     1
1070
     1
1070
     0
1070
     0
1070
     0
1070
     0
1040
0.0
1040
0.0
1040
0.0
1040
1.0
1040
1.0
1040
10.0
1040
10.0
1070
     0
1002
{
1002
}
1002
}
1001
GENIUS_GENODEF_13
1002
{
1000
HIER
1070
     0
1002
}
1002
{
1000
MANEDIT
1070
     0
1002
}
1002
{
1000
NOSEL
1070
     0
1002
}
1002
{
1000
BEHIND
1070
     0
1002
}
1002
{
1000
OTHER
1070
     0
1002
}
1002
{
1000
REACTOR
1002
}
1001
GENIUS_GENOBJ-N-SDF_13
1002
{
1000
OWNER
1000
GEN
1002
}
1001
GENIUS_GENSCREG_15
1000
PF
1040
1.0
1000
DF
1040
1.0
1000
MIN
1011
0.0
1021
0.0
1031
0.0
1021
0.0
1031
0.0
1000
MAX
1011
523.0353982300885
1021
0.0
1031
0.0
1021
297.0
1031
0.0
1000
FLAGS
1070
     4
  0
ENDSEC
  0
EOF
