  0
SECTION
  2
HEADER
  9
$ACADVER
  1
AC1009
  9
$INSBASE
 10
0.0
 20
0.0
 30
0.0
  9
$EXTMIN
 10
-17.999999999999989
 20
-28.257659620000009
 30
0.0
  9
$EXTMAX
 10
224.9999999999996
 20
54.000000000000021
 30
0.0
  9
$LIMMIN
 10
0.0
 20
0.0
  9
$LIMMAX
 10
297.0
 20
210.0
  9
$ORTHOMODE
 70
     0
  9
$REGENMODE
 70
     1
  9
$FILLMODE
 70
     1
  9
$QTEXTMODE
 70
     0
  9
$MIRRTEXT
 70
     1
  9
$DRAGMODE
 70
     2
  9
$LTSCALE
 40
10.0
  9
$OSMODE
 70
    35
  9
$ATTMODE
 70
     1
  9
$TEXTSIZE
 40
3.0
  9
$TRACEWID
 40
1.0
  9
$TEXTSTYLE
  7
YOKO
  9
$CLAYER
  8
240
  9
$CELTYPE
  6
BYLAYER
  9
$CECOLOR
 62
   256
  9
$DIMSCALE
 40
1.0
  9
$DIMASZ
 40
2.2299999999999991
  9
$DIMEXO
 40
0.5
  9
$DIMDLI
 40
7.0
  9
$DIMRND
 40
0.0
  9
$DIMDLE
 40
0.0
  9
$DIMEXE
 40
1.0
  9
$DIMTP
 40
0.0
  9
$DIMTM
 40
0.01
  9
$DIMTXT
 40
2.7999999999999989
  9
$DIMCEN
 40
0.0
  9
$DIMTSZ
 40
0.0
  9
$DIMTOL
 70
     0
  9
$DIMLIM
 70
     0
  9
$DIMTIH
 70
     0
  9
$DIMTOH
 70
     0
  9
$DIMSE1
 70
     0
  9
$DIMSE2
 70
     0
  9
$DIMTAD
 70
     3
  9
$DIMZIN
 70
     9
  9
$DIMBLK
  1
OPEN
  9
$DIMASO
 70
     1
  9
$DIMSHO
 70
     1
  9
$DIMPOST
  1

  9
$DIMAPOST
  1

  9
$DIMALT
 70
     0
  9
$DIMALTD
 70
     2
  9
$DIMALTF
 40
25.399999999999999
  9
$DIMLFAC
 40
1.0
  9
$DIMTOFL
 70
     1
  9
$DIMTVP
 40
0.0
  9
$DIMTIX
 70
     1
  9
$DIMSOXD
 70
     0
  9
$DIMSAH
 70
     0
  9
$DIMBLK1
  1

  9
$DIMBLK2
  1

  9
$DIMSTYLE
  2
BIGT
  9
$DIMCLRD
 70
   256
  9
$DIMCLRE
 70
   256
  9
$DIMCLRT
 70
    40
  9
$DIMTFAC
 40
1.0
  9
$DIMGAP
 40
1.0
  9
$LUNITS
 70
     2
  9
$LUPREC
 70
     6
  9
$SKETCHINC
 40
1.0
  9
$FILLETRAD
 40
0.0
  9
$AUNITS
 70
     0
  9
$AUPREC
 70
     6
  9
$MENU
  1
.
  9
$ELEVATION
 40
0.0
  9
$PELEVATION
 40
0.0
  9
$THICKNESS
 40
0.0
  9
$LIMCHECK
 70
     0
  9
$BLIPMODE
 70
     0
  9
$CHAMFERA
 40
0.2
  9
$CHAMFERB
 40
0.2
  9
$SKPOLY
 70
     0
  9
$TDCREATE
 40
2457634.4434857988
  9
$TDUPDATE
 40
2457634.6255997228
  9
$TDINDWG
 40
0.0046310995
  9
$TDUSRTIMER
 40
0.0046310069
  9
$USRTIMER
 70
     1
  9
$ANGBASE
 50
0.0
  9
$ANGDIR
 70
     0
  9
$PDMODE
 70
     1
  9
$PDSIZE
 40
0.0
  9
$PLINEWID
 40
0.0
  9
$COORDS
 70
     1
  9
$SPLFRAME
 70
     0
  9
$SPLINETYPE
 70
     6
  9
$SPLINESEGS
 70
     4
  9
$ATTDIA
 70
     1
  9
$ATTREQ
 70
     1
  9
$HANDLING
 70
     1
  9
$HANDSEED
  5
45C4
  9
$SURFTAB1
 70
     6
  9
$SURFTAB2
 70
     6
  9
$SURFTYPE
 70
     6
  9
$SURFU
 70
     6
  9
$SURFV
 70
     6
  9
$UCSNAME
  2

  9
$UCSORG
 10
0.0
 20
0.0
 30
0.0
  9
$UCSXDIR
 10
1.0
 20
0.0
 30
0.0
  9
$UCSYDIR
 10
0.0
 20
1.0
 30
0.0
  9
$PUCSNAME
  2

  9
$PUCSORG
 10
0.0
 20
0.0
 30
0.0
  9
$PUCSXDIR
 10
1.0
 20
0.0
 30
0.0
  9
$PUCSYDIR
 10
0.0
 20
1.0
 30
0.0
  9
$USERI1
 70
     1
  9
$USERI2
 70
     0
  9
$USERI3
 70
     0
  9
$USERI4
 70
     0
  9
$USERI5
 70
     0
  9
$USERR1
 40
0.0
  9
$USERR2
 40
0.0
  9
$USERR3
 40
0.0
  9
$USERR4
 40
0.0
  9
$USERR5
 40
0.0
  9
$WORLDVIEW
 70
     1
  9
$SHADEDGE
 70
     3
  9
$SHADEDIF
 70
    70
  9
$TILEMODE
 70
     1
  9
$MAXACTVP
 70
    16
  9
$PLIMCHECK
 70
     0
  9
$PEXTMIN
 10
1.0000000000000000E+020
 20
1.0000000000000000E+020
 30
1.0000000000000000E+020
  9
$PEXTMAX
 10
-1.0000000000000000E+020
 20
-1.0000000000000000E+020
 30
-1.0000000000000000E+020
  9
$PLIMMIN
 10
0.0
 20
0.0
  9
$PLIMMAX
 10
420.0
 20
297.0
  9
$UNITMODE
 70
     0
  9
$VISRETAIN
 70
     1
  9
$PLINEGEN
 70
     0
  9
$PSLTSCALE
 70
     1
  0
ENDSEC
  0
SECTION
  2
TABLES
  0
TABLE
  2
VPORT
 70
     1
  0
VPORT
  2
*ACTIVE
 70
     0
 10
0.0
 20
0.0
 11
1.0
 21
1.0
 12
103.50995699899499
 22
12.86705055258596
 13
0.0
 23
0.0
 14
7.0
 24
7.0
 15
7.0
 25
7.0
 16
0.0
 26
0.0
 36
1.0
 17
0.0
 27
0.0
 37
0.0
 40
165.0702480381197
 41
1.4787350054525621
 42
50.0
 43
0.0
 44
0.0
 50
0.0
 51
0.0
 71
     0
 72
  2000
 73
     1
 74
     0
 75
     0
 76
     1
 77
     0
 78
     0
  0
ENDTAB
  0
TABLE
  2
LTYPE
 70
    13
  0
LTYPE
  2
CONTINUOUS
 70
     0
  3
Solid line
 72
    65
 73
     0
 40
0.0
  0
LTYPE
  2
CENTER2
 70
     0
  3
___ _ ___ _ ___ _ ___ _ ___ _ ___ _ ___ _ ___ _
 72
    65
 73
     4
 40
1.125
 49
0.75
 49
-0.125
 49
0.125
 49
-0.125
  0
LTYPE
  2
HIDDEN2
 70
     0
  3
_ _ _ _ _ _ _ _ _ _ _ _ _ _ _ _ _ _ _ _ _ _ _ _
 72
    65
 73
     2
 40
0.1875
 49
0.125
 49
-0.0625
  0
LTYPE
  2
PHANTOM2
 70
     0
  3
___ _ _ ___ _ _ ___ _ _ ___ _ _ ___ _ _ ___ _ _
 72
    65
 73
     6
 40
1.25
 49
0.625
 49
-0.125
 49
0.125
 49
-0.125
 49
0.125
 49
-0.125
  0
LTYPE
  2
AM_ISO02W050
 70
     0
  3
__ __ __ __ __ __ __ __ __ __ __ __ __ __ __
 72
    65
 73
     2
 40
7.5
 49
6.0
 49
-1.5
  0
LTYPE
  2
AMCONSTR
 70
     0
  3
_______________________
 72
    65
 73
     2
 40
9999.0
 49
9999.0
 49
0.0
  0
LTYPE
  2
ACISOWELD
 70
     0
  3
_ _ _ _ _
 72
    65
 73
     2
 40
2.0
 49
2.0
 49
-1.0
  0
LTYPE
  2
ACISOTGB
 70
     0
  3
__ . . __ . .
 72
    65
 73
     6
 40
9.0
 49
4.0
 49
-1.0
 49
1.0
 49
-1.0
 49
1.0
 49
-1.0
  0
LTYPE
  2
ACISOTGL
 70
     0
  3
_ _ _ _ _
 72
    65
 73
     2
 40
3.0
 49
2.0
 49
-1.0
  0
LTYPE
  2
ACJISTGB
 70
     0
  3
__ . . __ . .
 72
    65
 73
     6
 40
9.0
 49
4.0
 49
-1.0
 49
1.0
 49
-1.0
 49
1.0
 49
-1.0
  0
LTYPE
  2
ACJISTGL
 70
     0
  3
_ _ _ _ _
 72
    65
 73
     2
 40
3.0
 49
2.0
 49
-1.0
  0
ENDTAB
  0
TABLE
  2
LAYER
 70
     8
  0
LAYER
  2
0
 70
     0
 62
     7
  6
CONTINUOUS
  0
LAYER
  2
DEFPOINTS
 70
     0
 62
     7
  6
CONTINUOUS
  0
LAYER
  2
245
 70
     0
 62
     2
  6
CENTER2
  0
LAYER
  2
240
 70
     0
 62
     4
  6
CONTINUOUS
  0
LAYER
  2
241
 70
     0
 62
   211
  6
CONTINUOUS
  0
LAYER
  2
243
 70
     0
 62
   211
  6
HIDDEN2
  0
LAYER
  2
247
 70
     0
 62
    60
  6
CONTINUOUS
  0
LAYER
  2
250
 70
     0
 62
     3
  6
CONTINUOUS
  0
ENDTAB
  0
TABLE
  2
STYLE
 70
     6
  0
STYLE
  2
STANDARD
 70
     0
 40
0.0
 41
1.0
 50
0.0
 71
     0
 42
3.0
  3
romans.shx
  4
extfont.shx
  0
STYLE
  2
ACISOTS
 70
     0
 40
1.0
 41
1.0
 50
0.0
 71
     0
 42
3.0
  3
amgdt.shx
  4
extfont.shx
  0
STYLE
  2
ACISOGDT
 70
     0
 40
0.0
 41
1.0
 50
0.0
 71
     0
 42
3.0
  3
amgdt.shx
  4
extfont.shx
  0
STYLE
  2
ACJISTS
 70
     0
 40
1.0
 41
1.0
 50
0.0
 71
     0
 42
3.0
  3
amgdt.shx
  4
extfont.shx
  0
STYLE
  2
ACJISGDT
 70
     0
 40
0.0
 41
1.0
 50
0.0
 71
     0
 42
3.0
  3
amgdt.shx
  4
extfont.shx
  0
STYLE
  2
YOKO
 70
     0
 40
0.0
 41
1.0
 50
0.0
 71
     0
 42
3.0
  3
romans.shx
  4
extfont.shx
  0
ENDTAB
  0
TABLE
  2
VIEW
 70
     0
  0
ENDTAB
  0
TABLE
  2
UCS
 70
     0
  0
ENDTAB
  0
TABLE
  2
APPID
 70
    38
  0
APPID
  2
ACAD
 70
     0
  0
APPID
  2
GLOBAL
 70
     0
  0
APPID
  2
DETAIL
 70
     0
  0
APPID
  2
GRPNAME
 70
     0
  0
APPID
  2
GPARA
 70
     0
  0
APPID
  2
MCAD_NO_VIS
 70
     0
  0
APPID
  2
ACAD_TEMP_GRAPHIC
 70
     0
  0
APPID
  2
ACATTRIBSERVICES
 70
     0
  0
APPID
  2
GENIUS_GENSCREG_15
 70
     0
  0
APPID
  2
GENIUS_GENODEF_13
 70
     0
  0
APPID
  2
GENIUS_GENOBJ-N-SDF_13
 70
     0
  0
APPID
  2
GENIUS_GENREC_14
 70
     0
  0
APPID
  2
GENIUS_GENOBJ-N-REC_13
 70
     0
  0
APPID
  2
GENIUS_GENDIMSH_14
 70
     0
  0
APPID
  2
GENIUS_GENOBJ-N-DIM_13
 70
     0
  0
APPID
  2
GENIUS_GENDIM_13
 70
     0
  0
APPID
  2
GENIUS_GENDTOL_13
 70
     0
  0
APPID
  2
GENIUS_GENOLIS_13
 70
     0
  0
APPID
  2
GENIUS_GENOENT_13
 70
     0
  0
APPID
  2
GENIUS_GENOBJ-F-FEM_13
 70
     0
  0
APPID
  2
GENIUS_GENOREF_13
 70
     0
  0
APPID
  2
GENIUS_GEFFEM_13
 70
     0
  0
APPID
  2
GENIUS_GEFFEMP_13
 70
     0
  0
APPID
  2
AD_DRAW
 70
     0
  0
APPID
  2
DESIGNERASSEMBLIES
 70
     0
  0
APPID
  2
ACADM_DIM_EDIT
 70
     0
  0
APPID
  2
AMDT_DM_ADJ
 70
     0
  0
APPID
  2
ITEMNAME
 70
     0
  0
APPID
  2
GENIUS_GENOBJ-N-FIL_13
 70
     0
  0
APPID
  2
GENIUS_GENFIL_13
 70
     0
  0
APPID
  2
GENIUS_GENOBJ-N-CHA_13
 70
     0
  0
APPID
  2
ACAD_NAV_VCDISPLAY
 70
     0
  0
APPID
  2
ASK_MEN_XD
 70
     0
  0
APPID
  2
ASKOBJSC
 70
     0
  0
APPID
  2
ASKDWGSC
 70
     0
  0
APPID
  2
ACAECLAYERSTANDARD
 70
     0
  0
APPID
  2
ACAD_EXEMPT_FROM_CAD_STANDARDS
 70
     0
  0
APPID
  2
ACAD_MLEADERVER
 70
     0
  0
ENDTAB
  0
TABLE
  2
DIMSTYLE
 70
    23
  0
DIMSTYLE
  2
BIGT
 70
     0
  3

  4

  5
OPEN
  6

  7

 40
1.0
 41
2.2299999999999991
 42
0.5
 43
7.0
 44
1.0
 45
0.0
 46
0.0
 47
0.0
 48
0.01
140
2.7999999999999989
141
0.0
142
0.0
143
25.399999999999999
144
1.0
145
0.0
146
1.0
147
1.0
 71
     0
 72
     0
 73
     0
 74
     0
 75
     0
 76
     0
 77
     3
 78
     9
170
     0
171
     2
172
     1
173
     0
174
     1
175
     0
176
   256
177
   256
178
    40
  0
DIMSTYLE
  2
AM_ISO
 70
     0
  3

  4
"
  5

  6

  7

 40
1.0
 41
2.5
 42
1.0
 43
10.0
 44
1.0
 45
0.0
 46
0.0
 47
0.1
 48
0.1
140
3.5
141
0.0
142
0.0
143
0.0393701
144
1.0
145
0.0
146
0.71
147
1.5
 71
     0
 72
     0
 73
     0
 74
     0
 75
     0
 76
     0
 77
     1
 78
     8
170
     0
171
     2
172
     1
173
     0
174
     0
175
     0
176
   256
177
   256
178
     2
  0
DIMSTYLE
  2
AM_ISO$3
 70
     0
  3

  4
"
  5

  6

  7

 40
1.0
 41
2.5
 42
1.0
 43
10.0
 44
1.0
 45
0.0
 46
0.0
 47
0.1
 48
0.1
140
3.5
141
0.0
142
0.0
143
0.0393701
144
1.0
145
0.0
146
0.71
147
1.5
 71
     0
 72
     0
 73
     0
 74
     1
 75
     0
 76
     0
 77
     1
 78
     8
170
     0
171
     2
172
     0
173
     0
174
     0
175
     0
176
   256
177
   256
178
     2
  0
DIMSTYLE
  2
AM_ISO$4
 70
     0
  3

  4
"
  5

  6

  7

 40
1.0
 41
2.5
 42
1.0
 43
10.0
 44
1.0
 45
0.0
 46
0.0
 47
0.1
 48
0.1
140
3.5
141
0.0
142
0.0
143
0.0393701
144
1.0
145
0.0
146
0.71
147
1.5
 71
     0
 72
     0
 73
     0
 74
     1
 75
     0
 76
     0
 77
     1
 78
     8
170
     0
171
     2
172
     0
173
     0
174
     0
175
     0
176
   256
177
   256
178
     2
  0
DIMSTYLE
  2
AM_ISO$6
 70
     0
  3

  4
"
  5

  6

  7

 40
1.0
 41
2.5
 42
1.0
 43
10.0
 44
1.0
 45
0.0
 46
0.0
 47
0.1
 48
0.1
140
3.5
141
0.0
142
0.0
143
0.0393701
144
1.0
145
0.0
146
0.71
147
1.5
 71
     0
 72
     0
 73
     0
 74
     0
 75
     0
 76
     0
 77
     0
 78
     8
170
     0
171
     2
172
     1
173
     0
174
     0
175
     0
176
   256
177
   256
178
     2
  0
DIMSTYLE
  2
AM_ISO$7
 70
     0
  3

  4
"
  5

  6

  7

 40
1.0
 41
2.5
 42
1.0
 43
10.0
 44
1.0
 45
0.0
 46
0.0
 47
0.1
 48
0.1
140
5.0
141
0.0
142
0.0
143
0.0393701
144
1.0
145
0.0
146
0.71
147
1.5
 71
     0
 72
     0
 73
     0
 74
     0
 75
     0
 76
     0
 77
     1
 78
     8
170
     0
171
     2
172
     1
173
     0
174
     0
175
     0
176
   256
177
   256
178
     2
  0
DIMSTYLE
  2
AM_ISO$SF
 70
     0
  3

  4
"
  5

  6

  7

 40
1.0
 41
2.5
 42
1.0
 43
10.0
 44
1.0
 45
0.0
 46
0.0
 47
0.1
 48
0.1
140
3.5
141
0.0
142
0.0
143
0.0393701
144
1.0
145
0.0
146
0.71
147
1.5
 71
     0
 72
     0
 73
     0
 74
     0
 75
     1
 76
     1
 77
     1
 78
     8
170
     0
171
     2
172
     1
173
     0
174
     0
175
     0
176
   256
177
   256
178
     2
  0
DIMSTYLE
  2
AM_ISO$SH
 70
     0
  3

  4
"
  5

  6
GENAXEH
  7

 40
1.0
 41
2.5
 42
1.0
 43
10.0
 44
1.0
 45
0.0
 46
0.0
 47
0.1
 48
0.1
140
3.5
141
0.0
142
0.0
143
0.0393701
144
2.0
145
0.0
146
0.71
147
1.5
 71
     0
 72
     0
 73
     0
 74
     0
 75
     1
 76
     1
 77
     1
 78
     8
170
     0
171
     2
172
     1
173
     1
174
     0
175
     0
176
   256
177
   256
178
     2
  0
DIMSTYLE
  2
BIGT$2
 70
     0
  3

  4

  5
OPEN
  6

  7

 40
1.0
 41
2.2299999999999991
 42
0.5
 43
7.0
 44
1.0
 45
0.0
 46
0.0
 47
0.0
 48
0.01
140
2.7999999999999989
141
0.0
142
0.0
143
25.399999999999999
144
1.0
145
0.0
146
1.0
147
1.0
 71
     0
 72
     0
 73
     0
 74
     0
 75
     0
 76
     0
 77
     3
 78
     9
170
     0
171
     2
172
     1
173
     0
174
     0
175
     0
176
   256
177
   256
178
    40
  0
DIMSTYLE
  2
BIGT$3
 70
     0
  3

  4

  5
OPEN
  6

  7

 40
1.0
 41
2.2299999999999991
 42
0.5
 43
2.5
 44
1.0
 45
0.0
 46
0.0
 47
0.0
 48
0.01
140
2.7999999999999989
141
0.0
142
0.0
143
25.399999999999999
144
1.0
145
0.0
146
1.0
147
1.0
 71
     0
 72
     0
 73
     0
 74
     0
 75
     0
 76
     0
 77
     3
 78
     9
170
     0
171
     2
172
     1
173
     0
174
     0
175
     0
176
   256
177
   256
178
    40
  0
DIMSTYLE
  2
BIGT$7
 70
     0
  3

  4

  5
OPEN
  6

  7

 40
0.0
 41
2.2299999999999991
 42
0.5
 43
7.0
 44
1.0
 45
0.0
 46
0.0
 47
0.0
 48
0.01
140
2.7999999999999989
141
0.0
142
0.0
143
25.399999999999999
144
1.0
145
0.0
146
1.0
147
1.0
 71
     0
 72
     0
 73
     0
 74
     0
 75
     0
 76
     0
 77
     3
 78
     9
170
     0
171
     2
172
     0
173
     0
174
     0
175
     0
176
   256
177
   256
178
    40
  0
DIMSTYLE
  2
BIGT$6
 70
     0
  3

  4

  5
OPEN
  6

  7

 40
1.0
 41
2.2299999999999991
 42
0.5
 43
2.5
 44
1.0
 45
0.0
 46
0.0
 47
0.0
 48
0.01
140
2.7999999999999989
141
0.0
142
0.0
143
25.399999999999999
144
1.0
145
0.0
146
1.0
147
1.0
 71
     0
 72
     0
 73
     0
 74
     0
 75
     0
 76
     0
 77
     3
 78
     9
170
     0
171
     2
172
     1
173
     0
174
     0
175
     0
176
   256
177
   256
178
    40
  0
DIMSTYLE
  2
BIGT$0
 70
     0
  3

  4

  5
OPEN
  6

  7

 40
1.0
 41
2.2299999999999991
 42
0.5
 43
7.0
 44
1.0
 45
0.0
 46
0.0
 47
0.0
 48
0.01
140
2.7999999999999989
141
0.0
142
0.0
143
25.399999999999999
144
1.0
145
0.0
146
1.0
147
1.0
 71
     0
 72
     0
 73
     0
 74
     0
 75
     0
 76
     0
 77
     3
 78
     9
170
     0
171
     2
172
     1
173
     0
174
     1
175
     0
176
   256
177
   256
178
    40
  0
DIMSTYLE
  2
BIGT$4
 70
     0
  3

  4

  5
OPEN
  6

  7

 40
1.0
 41
2.2299999999999991
 42
0.5
 43
2.5
 44
1.0
 45
0.0
 46
0.0
 47
0.0
 48
0.01
140
2.7999999999999989
141
0.0
142
0.0
143
25.399999999999999
144
1.0
145
0.0
146
1.0
147
1.0
 71
     0
 72
     0
 73
     0
 74
     0
 75
     0
 76
     0
 77
     3
 78
     9
170
     0
171
     2
172
     1
173
     0
174
     0
175
     0
176
   256
177
   256
178
    40
  0
DIMSTYLE
  2
BIGT$SH
 70
     0
  3

  4

  5
OPEN
  6

  7

 40
1.0
 41
2.2299999999999991
 42
0.5
 43
7.0
 44
1.0
 45
0.0
 46
0.0
 47
0.0
 48
0.0
140
2.7999999999999989
141
0.0
142
0.0
143
25.399999999999999
144
1.0
145
0.0
146
1.0
147
1.0
 71
     0
 72
     0
 73
     0
 74
     0
 75
     0
 76
     0
 77
     3
 78
     9
170
     0
171
     2
172
     1
173
     0
174
     0
175
     0
176
   256
177
   256
178
    40
  0
DIMSTYLE
  2
BIGT$SF
 70
     0
  3

  4

  5
OPEN
  6

  7

 40
1.0
 41
2.2299999999999991
 42
0.5
 43
7.0
 44
1.0
 45
0.0
 46
0.0
 47
0.0
 48
0.0
140
2.7999999999999989
141
0.0
142
0.0
143
25.399999999999999
144
1.0
145
0.0
146
1.0
147
1.0
 71
     0
 72
     0
 73
     0
 74
     0
 75
     0
 76
     0
 77
     3
 78
     9
170
     0
171
     2
172
     1
173
     0
174
     0
175
     0
176
   256
177
   256
178
    40
  0
DIMSTYLE
  2
TECHNICAL_OSAKA
 70
     0
  3

  4
"
  5
OPEN30
  6

  7

 40
1.0
 41
2.5
 42
1.0
 43
10.0
 44
1.0
 45
0.0
 46
0.0
 47
0.1
 48
0.1
140
2.7999999999999989
141
0.0
142
0.0
143
0.0393701
144
1.0
145
0.0
146
0.71
147
1.5
 71
     0
 72
     0
 73
     0
 74
     0
 75
     0
 76
     0
 77
     3
 78
     8
170
     0
171
     2
172
     1
173
     0
174
     0
175
     0
176
   256
177
   256
178
    40
  0
DIMSTYLE
  2
TECHNICAL_OSAKA$3
 70
     0
  3

  4
"
  5
OPEN30
  6

  7

 40
1.0
 41
2.5
 42
1.0
 43
10.0
 44
1.0
 45
0.0
 46
0.0
 47
0.1
 48
0.1
140
2.7999999999999989
141
0.0
142
0.0
143
0.0393701
144
1.0
145
0.0
146
0.71
147
1.5
 71
     0
 72
     0
 73
     0
 74
     1
 75
     0
 76
     0
 77
     3
 78
     8
170
     0
171
     2
172
     0
173
     0
174
     0
175
     0
176
   256
177
   256
178
    40
  0
DIMSTYLE
  2
TECHNICAL_OSAKA$4
 70
     0
  3

  4
"
  5
OPEN30
  6

  7

 40
1.0
 41
2.5
 42
1.0
 43
10.0
 44
1.0
 45
0.0
 46
0.0
 47
0.1
 48
0.1
140
2.7999999999999989
141
0.0
142
0.0
143
0.0393701
144
1.0
145
0.0
146
0.71
147
1.5
 71
     0
 72
     0
 73
     0
 74
     1
 75
     0
 76
     0
 77
     3
 78
     8
170
     0
171
     2
172
     0
173
     0
174
     0
175
     0
176
   256
177
   256
178
    40
  0
DIMSTYLE
  2
TECHNICAL_OSAKA$6
 70
     0
  3

  4
"
  5
OPEN30
  6

  7

 40
1.0
 41
2.5
 42
1.0
 43
10.0
 44
1.0
 45
0.0
 46
0.0
 47
0.1
 48
0.1
140
2.7999999999999989
141
0.0
142
0.0
143
0.0393701
144
1.0
145
0.0
146
0.71
147
1.5
 71
     0
 72
     0
 73
     0
 74
     0
 75
     0
 76
     0
 77
     0
 78
     8
170
     0
171
     2
172
     1
173
     0
174
     0
175
     0
176
   256
177
   256
178
    40
  0
DIMSTYLE
  2
TECHNICAL_OSAKA$7
 70
     0
  3

  4
"
  5
OPEN30
  6

  7

 40
1.0
 41
2.5
 42
1.0
 43
10.0
 44
1.0
 45
0.0
 46
0.0
 47
0.1
 48
0.1
140
2.7999999999999989
141
0.0
142
0.0
143
0.0393701
144
1.0
145
0.0
146
0.71
147
1.5
 71
     0
 72
     0
 73
     0
 74
     0
 75
     0
 76
     0
 77
     3
 78
     8
170
     0
171
     2
172
     1
173
     0
174
     0
175
     0
176
   256
177
   256
178
    40
  0
DIMSTYLE
  2
TECHNICAL_OSAKA$SF
 70
     0
  3

  4
"
  5
OPEN30
  6
OPEN30
  7
OPEN30
 40
1.0
 41
2.5
 42
1.0
 43
10.0
 44
1.0
 45
0.0
 46
0.0
 47
0.1
 48
0.1
140
3.5
141
0.0
142
0.0
143
0.0393701
144
1.0
145
0.0
146
0.71
147
1.5
 71
     0
 72
     0
 73
     0
 74
     0
 75
     1
 76
     1
 77
     3
 78
     8
170
     0
171
     2
172
     1
173
     0
174
     0
175
     0
176
   256
177
   256
178
    40
  0
DIMSTYLE
  2
TECHNICAL_OSAKA$SH
 70
     0
  3

  4
"
  5
OPEN30
  6
GENAXEH
  7
OPEN30
 40
1.0
 41
2.5
 42
1.0
 43
10.0
 44
1.0
 45
0.0
 46
0.0
 47
0.1
 48
0.1
140
3.5
141
0.0
142
0.0
143
0.0393701
144
2.0
145
0.0
146
0.71
147
1.5
 71
     0
 72
     0
 73
     0
 74
     0
 75
     1
 76
     1
 77
     3
 78
     8
170
     0
171
     2
172
     1
173
     1
174
     0
175
     0
176
   256
177
   256
178
    40
  0
ENDTAB
  0
ENDSEC
  0
SECTION
  2
BLOCKS
  0
BLOCK
  8
0
  2
$MODEL_SPACE
 70
     0
 10
0.0
 20
0.0
 30
0.0
  3
$MODEL_SPACE
  1

  0
ENDBLK
  5
1C
  8
0
  0
BLOCK
 67
     1
  8
0
  2
$PAPER_SPACE
 70
     0
 10
0.0
 20
0.0
 30
0.0
  3
$PAPER_SPACE
  1

  0
ENDBLK
  5
19
 67
     1
  8
0
  0
BLOCK
  8
0
  2
_OPEN
 70
     0
 10
0.0
 20
0.0
 30
0.0
  3
_OPEN
  1

  0
LINE
  5
44CB
  8
0
  6
BYBLOCK
 62
     0
 10
-1.0
 20
0.1666666666666666
 30
0.0
 11
0.0
 21
0.0
 31
0.0
  0
LINE
  5
44CC
  8
0
  6
BYBLOCK
 62
     0
 10
-1.0
 20
-0.1666666666666666
 30
0.0
 11
0.0
 21
0.0
 31
0.0
  0
LINE
  5
44CD
  8
0
  6
BYBLOCK
 62
     0
 10
0.0
 20
0.0
 30
0.0
 11
-1.0
 21
0.0
 31
0.0
  0
ENDBLK
  5
44CE
  8
0
  0
BLOCK
  8
0
  2
GENAXEH
 70
     0
 10
0.0
 20
0.0
 30
0.0
  3
GENAXEH
  1

  0
LINE
  5
4506
  8
0
 10
-1.0
 20
0.0
 30
0.0
 11
1.0
 21
0.0
 31
0.0
  0
ENDBLK
  5
4507
  8
0
  0
BLOCK
  8
0
  2
_OPEN30
 70
     0
 10
0.0
 20
0.0
 30
0.0
  3
_OPEN30
  1

  0
LINE
  5
4542
  8
0
  6
BYBLOCK
 62
     0
 10
-1.0
 20
0.26794919
 30
0.0
 11
0.0
 21
0.0
 31
0.0
  0
LINE
  5
4543
  8
0
  6
BYBLOCK
 62
     0
 10
0.0
 20
0.0
 30
0.0
 11
-1.0
 21
-0.26794919
 31
0.0
  0
LINE
  5
4544
  8
0
  6
BYBLOCK
 62
     0
 10
0.0
 20
0.0
 30
0.0
 11
-1.0
 21
0.0
 31
0.0
  0
ENDBLK
  5
4545
  8
0
  0
ENDSEC
  0
SECTION
  2
ENTITIES
  0
TEXT
  5
4273
  8
241
  6
CONTINUOUS
 10
0.0
 20
49.0
 30
0.0
 40
5.0
  1
ST32-HMC12J-200
  7
YOKO
 11
0.0
 21
49.0
 31
0.0
 73
     1
  0
LINE
  5
4274
  8
250
  6
CONTINUOUS
 10
0.0000000000000001
 20
16.499999999999972
 30
0.0
 11
0.0000000000000013
 21
36.0
 31
0.0
  0
LINE
  5
4275
  8
250
  6
CONTINUOUS
 10
199.99999999999849
 20
12.84529946162084
 30
0.0
 11
199.99999999999849
 21
36.0
 31
0.0
  0
LINE
  5
4276
  8
250
  6
CONTINUOUS
 10
2.23
 20
35.0
 30
0.0
 11
197.76999999999859
 21
35.0
 31
0.0
  0
LINE
  5
4277
  8
250
  6
CONTINUOUS
 10
2.23
 20
34.62833333333333
 30
0.0
 11
0.0000000000000012
 21
35.0
 31
0.0
  0
LINE
  5
4278
  8
250
  6
CONTINUOUS
 10
2.23
 20
35.37166666666667
 30
0.0
 11
0.0000000000000012
 21
35.0
 31
0.0
  0
LINE
  5
4279
  8
250
  6
CONTINUOUS
 10
0.0000000000000012
 20
35.0
 30
0.0
 11
2.23
 21
35.0
 31
0.0
  0
LINE
  5
427A
  8
250
  6
CONTINUOUS
 10
197.76999999999859
 20
35.37166666666667
 30
0.0
 11
199.99999999999849
 21
35.0
 31
0.0
  0
LINE
  5
427B
  8
250
  6
CONTINUOUS
 10
197.76999999999859
 20
34.62833333333333
 30
0.0
 11
199.99999999999849
 21
35.0
 31
0.0
  0
LINE
  5
427C
  8
250
  6
CONTINUOUS
 10
199.99999999999849
 20
35.0
 30
0.0
 11
197.76999999999859
 21
35.0
 31
0.0
  0
TEXT
  5
427D
  8
250
  6
CONTINUOUS
 10
98.106672456611776
 20
36.0
 30
0.0
 40
3.0
  1
200
1001
ACAD
1000
MTEXTBEGIN
1070
    73
1070
     1
1070
    44
1040
1.0
1070
    74
1070
     0
1000
MTEXTEND
  0
LINE
  5
427E
  8
250
  6
CONTINUOUS
 10
-0.5000000000000452
 20
-16.0
 30
0.0
 11
-15.000000000000011
 21
-15.999999999999989
 31
0.0
  0
LINE
  5
427F
  8
250
  6
CONTINUOUS
 10
-0.4999999999999833
 20
16.0
 30
0.0
 11
-15.0
 21
16.0
 31
0.0
  0
LINE
  5
4280
  8
250
  6
CONTINUOUS
 10
-14.000000000000011
 20
-13.769999999999991
 30
0.0
 11
-14.0
 21
13.77
 31
0.0
  0
LINE
  5
4281
  8
250
  6
CONTINUOUS
 10
-13.628333333333339
 20
-13.769999999999991
 30
0.0
 11
-14.000000000000011
 21
-15.999999999999989
 31
0.0
  0
LINE
  5
4282
  8
250
  6
CONTINUOUS
 10
-14.37166666666667
 20
-13.769999999999991
 30
0.0
 11
-14.000000000000011
 21
-15.999999999999989
 31
0.0
  0
LINE
  5
4283
  8
250
  6
CONTINUOUS
 10
-14.000000000000011
 20
-15.999999999999989
 30
0.0
 11
-14.000000000000011
 21
-13.769999999999991
 31
0.0
  0
LINE
  5
4284
  8
250
  6
CONTINUOUS
 10
-14.371666666666661
 20
13.77
 30
0.0
 11
-14.0
 21
16.0
 31
0.0
  0
LINE
  5
4285
  8
250
  6
CONTINUOUS
 10
-13.62833333333333
 20
13.77
 30
0.0
 11
-14.0
 21
16.0
 31
0.0
  0
LINE
  5
4286
  8
250
  6
CONTINUOUS
 10
-14.0
 20
16.0
 30
0.0
 11
-14.0
 21
13.77
 31
0.0
  0
TEXT
  5
4287
  8
250
  6
CONTINUOUS
 10
-15.0
 20
-4.2142857142857126
 30
0.0
 40
3.0
  1
\U+220532
 50
90.0
1001
ACAD
1000
MTEXTBEGIN
1070
    73
1070
     1
1070
    44
1040
1.0
1070
    74
1070
     0
1000
MTEXTEND
  0
LINE
  5
428E
  8
250
  6
CONTINUOUS
 10
135.00000000000031
 20
6.1999999999999016
 30
0.0
 11
135.00000000000031
 21
29.0
 31
0.0
  0
LINE
  5
428F
  8
250
  6
CONTINUOUS
 10
199.99999999999849
 20
12.84529946162078
 30
0.0
 11
199.99999999999849
 21
29.0
 31
0.0
  0
LINE
  5
4290
  8
250
  6
CONTINUOUS
 10
137.0000000000002
 20
28.0
 30
0.0
 11
197.99999999999861
 21
28.0
 31
0.0
  0
LINE
  5
4291
  8
250
  6
CONTINUOUS
 10
137.00000000000031
 20
27.666666666666671
 30
0.0
 11
135.00000000000031
 21
28.0
 31
0.0
  0
LINE
  5
4292
  8
250
  6
CONTINUOUS
 10
137.00000000000031
 20
28.333333333333329
 30
0.0
 11
135.00000000000031
 21
28.0
 31
0.0
  0
LINE
  5
4293
  8
250
  6
CONTINUOUS
 10
135.00000000000031
 20
28.0
 30
0.0
 11
137.00000000000031
 21
28.0
 31
0.0
  0
LINE
  5
4294
  8
250
  6
CONTINUOUS
 10
197.99999999999861
 20
28.333333333333329
 30
0.0
 11
199.99999999999849
 21
28.0
 31
0.0
  0
LINE
  5
4295
  8
250
  6
CONTINUOUS
 10
197.99999999999861
 20
27.666666666666671
 30
0.0
 11
199.99999999999849
 21
28.0
 31
0.0
  0
LINE
  5
4296
  8
250
  6
CONTINUOUS
 10
199.99999999999849
 20
28.0
 30
0.0
 11
197.99999999999861
 21
28.0
 31
0.0
  0
TEXT
  5
4297
  8
250
  6
CONTINUOUS
 10
156.1142857142851
 20
29.0
 30
0.0
 40
3.0
  1
üimax.65üj
1001
ACAD
1000
MTEXTBEGIN
1070
    73
1070
     1
1070
    44
1040
1.0
1070
    74
1070
     0
1000
MTEXTEND
  0
LINE
  5
42B1
  8
245
  6
CENTER2
 10
-1.0000000000000699
 20
0.0
 30
0.0
 11
200.99999999999949
 21
-0.0000000000002416
 31
0.0
  0
LINE
  5
42B2
  8
240
  6
CONTINUOUS
 10
0.0000000000000167
 20
15.99999999999997
 30
0.0
 11
159.99999999999969
 21
16.0
 31
0.0
  0
LINE
  5
42B4
  8
240
  6
CONTINUOUS
 10
-0.0000000000000451
 20
-16.0
 30
0.0
 11
160.0
 21
-15.99999999999997
 31
0.0
  0
LINE
  5
42B7
  8
240
  6
CONTINUOUS
 10
0.0000000000000167
 20
15.99999999999997
 30
0.0
 11
-0.0000000000000451
 21
-16.0
 31
0.0
  0
LINE
  5
42B8
  8
240
  6
CONTINUOUS
 10
164.5000000000004
 20
17.499999999999972
 30
0.0
 11
160.80000000000001
 21
17.499999999999972
 31
0.0
  0
LINE
  5
42B9
  8
240
  6
CONTINUOUS
 10
164.5000000000004
 20
-17.499999999999972
 30
0.0
 11
160.80000000000001
 21
-17.499999999999972
 31
0.0
  0
LINE
  5
42BA
  8
240
  6
CONTINUOUS
 10
160.0
 20
-16.699999999999989
 30
0.0
 11
160.0
 21
-15.99999999999997
 31
0.0
  0
ARC
  5
42BB
  8
240
  6
CONTINUOUS
 10
160.80000000000001
 20
-16.699999999999989
 30
0.0
 40
0.8
 50
180.0
 51
270.0
1001
ASK_MEN_XD
1005
42B9
1070
     1
1005
42BA
1070
     1
  0
LINE
  5
42BC
  8
240
  6
CONTINUOUS
 10
160.0
 20
16.69999999999996
 30
0.0
 11
159.99999999999969
 21
16.0
 31
0.0
  0
ARC
  5
42BD
  8
240
  6
CONTINUOUS
 10
160.80000000000001
 20
16.69999999999996
 30
0.0
 40
0.8
 50
90.0
 51
180.0
1001
ASK_MEN_XD
1005
42B9
1070
     1
1005
42BA
1070
     1
  0
LINE
  5
42BF
  8
240
  6
CONTINUOUS
 10
164.9999999999996
 20
-17.50000000000021
 30
0.0
 11
160.80000000000001
 21
-17.500000000000171
 31
0.0
  0
LINE
  5
42C0
  8
240
  6
CONTINUOUS
 10
164.9999999999996
 20
17.499999999999851
 30
0.0
 11
160.80000000000001
 21
17.499999999999851
 31
0.0
  0
LINE
  5
432E
  8
241
  6
CONTINUOUS
 10
160.0
 20
-15.99999999999994
 30
0.0
 11
160.0
 21
-0.0000000000001563
 31
0.0
  0
LINE
  5
432F
  8
241
  6
CONTINUOUS
 10
160.00000000000011
 20
15.999999999999631
 30
0.0
 11
160.0
 21
-0.0000000000001563
 31
0.0
  0
LINE
  5
4396
  8
241
  6
CONTINUOUS
 10
164.9999999999996
 20
17.399999999999721
 30
0.0
 11
164.9999999999996
 21
-17.400000000000169
 31
0.0
  0
LINE
  5
4397
  8
240
  6
CONTINUOUS
 10
195.1339745962139
 20
15.99999999999971
 30
0.0
 11
181.1464101615114
 21
15.99999999999971
 31
0.0
  0
LINE
  5
4398
  8
240
  6
CONTINUOUS
 10
195.1339745962139
 20
-16.00000000000022
 30
0.0
 11
181.14641016151171
 21
-16.000000000000281
 31
0.0
  0
LINE
  5
4399
  8
243
  6
HIDDEN2
 10
192.89999999999921
 20
14.49999999999971
 30
0.0
 11
182.8999999999991
 21
14.49999999999971
 31
0.0
  0
LINE
  5
439A
  8
241
  6
CONTINUOUS
 10
190.89999999999921
 20
-2.0000000000002229
 30
0.0
 11
184.89999999999921
 21
-2.0000000000002229
 31
0.0
  0
ARC
  5
439B
  8
241
  6
CONTINUOUS
 10
190.89999999999921
 20
-0.0000000000002234
 30
0.0
 40
2.0
 50
270.0
 51
89.999963675937977
  0
LINE
  5
439C
  8
243
  6
HIDDEN2
 10
192.89999999999921
 20
-14.50000000000016
 30
0.0
 11
182.8999999999991
 21
-14.500000000000099
 31
0.0
  0
LINE
  5
439D
  8
243
  6
HIDDEN2
 10
182.8999999999991
 20
-14.500000000000099
 30
0.0
 11
182.8999999999991
 21
-16.00000000000033
 31
0.0
  0
LINE
  5
439E
  8
243
  6
HIDDEN2
 10
192.89999999999921
 20
-14.50000000000016
 30
0.0
 11
192.89999999999921
 21
-16.000000000000099
 31
0.0
  0
LINE
  5
439F
  8
241
  6
CONTINUOUS
 10
170.3999999999991
 20
-16.000000000000391
 30
0.0
 11
170.3999999999991
 21
15.999999999999879
 31
0.0
  0
LINE
  5
43A0
  8
243
  6
HIDDEN2
 10
182.8999999999991
 20
14.499999999999771
 30
0.0
 11
182.90000000000049
 21
15.999999999999661
 31
0.0
  0
LINE
  5
43A1
  8
243
  6
HIDDEN2
 10
192.89999999999921
 20
14.49999999999971
 30
0.0
 11
192.8999999999981
 21
15.999999999999661
 31
0.0
  0
LINE
  5
43A2
  8
241
  6
CONTINUOUS
 10
172.0999999999992
 20
-16.000000000000391
 30
0.0
 11
172.0999999999992
 21
15.999999999999879
 31
0.0
1001
ACAD
1000
ASC_BOUNDS
1002
{
1070
    19
1005
0
1002
}
  0
ARC
  5
43A3
  8
240
  6
CONTINUOUS
 10
195.1339745962139
 20
13.999999999999771
 30
0.0
 40
2.0
 50
59.999999999999758
 51
90.0
1001
ASK_MEN_XD
1005
43A4
1070
     1
1005
0
1070
     1
  0
LINE
  5
43A4
  8
240
  6
CONTINUOUS
 10
198.99999999999821
 20
14.07735026918937
 30
0.0
 11
196.1339745962139
 21
15.73205080756855
 31
0.0
  0
ARC
  5
43A5
  8
240
  6
CONTINUOUS
 10
197.99999999999821
 20
12.345299461620581
 30
0.0
 40
2.0
 50
0.0000000000032569
 51
59.999999999999758
1001
ASK_MEN_XD
1005
0
1070
     1
1005
43A4
1070
     1
  0
ARC
  5
43A6
  8
240
  6
CONTINUOUS
 10
195.1339745962139
 20
-14.00000000000016
 30
0.0
 40
2.0
 50
270.0
 51
300.00000000000023
1001
ASK_MEN_XD
1005
43A4
1070
     1
1005
0
1070
     1
  0
LINE
  5
43A7
  8
240
  6
CONTINUOUS
 10
198.99999999999821
 20
-14.077350269189809
 30
0.0
 11
196.1339745962139
 21
-15.732050807568999
 31
0.0
  0
ARC
  5
43A8
  8
240
  6
CONTINUOUS
 10
197.99999999999821
 20
-12.34529946162097
 30
0.0
 40
2.0
 50
300.00000000000023
 51
359.99999999999682
1001
ASK_MEN_XD
1005
0
1070
     1
1005
43A4
1070
     1
  0
LINE
  5
43A9
  8
241
  6
CONTINUOUS
 10
195.669872981076
 20
-15.926866088004759
 30
0.0
 11
195.669872981076
 21
15.926866088004211
 31
0.0
1001
ASKOBJSC
1000
2/1
1001
ASKDWGSC
1040
1.0
  0
LINE
  5
43AA
  8
240
  6
CONTINUOUS
 10
172.59999999999911
 20
-16.50000000000033
 30
0.0
 11
178.79999999999791
 21
-16.50000000000033
 31
0.0
1001
ACAD
1000
ASC_BOUNDS
1002
{
1070
    19
1005
0
1002
}
  0
LINE
  5
43AB
  8
241
  6
CONTINUOUS
 10
179.4999999999979
 20
15.79999999999978
 30
0.0
 11
179.49999999999781
 21
-15.80000000000029
 31
0.0
1001
ACAD
1000
ASC_BOUNDS
1002
{
1070
    19
1005
0
1002
}
  0
LINE
  5
43AC
  8
240
  6
CONTINUOUS
 10
179.49999999999781
 20
-15.80000000000029
 30
0.0
 11
178.79999999999791
 21
-16.50000000000033
 31
0.0
1001
ACAD
1000
ASC_BOUNDS
1002
{
1070
    19
1005
0
1002
}
  0
LINE
  5
43AD
  8
240
  6
CONTINUOUS
 10
172.0999999999992
 20
-16.000000000000391
 30
0.0
 11
172.59999999999911
 21
-16.50000000000033
 31
0.0
1001
ACAD
1000
ASC_BOUNDS
1002
{
1070
    19
1005
0
1002
}
  0
LINE
  5
43AE
  8
240
  6
CONTINUOUS
 10
172.0999999999992
 20
-16.000000000000391
 30
0.0
 11
170.3999999999991
 21
-16.000000000000391
 31
0.0
  0
LINE
  5
43AF
  8
240
  6
CONTINUOUS
 10
170.3999999999991
 20
-16.00000000000033
 30
0.0
 11
168.99999999999929
 21
-17.40000000000018
 31
0.0
  0
LINE
  5
43B0
  8
241
  6
CONTINUOUS
 10
180.79999999999779
 20
-15.80000000000029
 30
0.0
 11
180.79999999999791
 21
15.79999999999978
 31
0.0
  0
LINE
  5
43B1
  8
240
  6
CONTINUOUS
 10
180.79999999999779
 20
-15.80000000000029
 30
0.0
 11
181.1464101615116
 21
-16.000000000000281
 31
0.0
  0
LINE
  5
43B2
  8
240
  6
CONTINUOUS
 10
180.79999999999791
 20
-15.80000000000029
 30
0.0
 11
179.49999999999781
 21
-15.80000000000029
 31
0.0
  0
LINE
  5
43B3
  8
240
  6
CONTINUOUS
 10
172.59999999999911
 20
16.49999999999995
 30
0.0
 11
178.79999999999791
 21
16.499999999999819
 31
0.0
  0
LINE
  5
43B4
  8
240
  6
CONTINUOUS
 10
179.49999999999781
 20
15.799999999999891
 30
0.0
 11
178.79999999999791
 21
16.499999999999819
 31
0.0
  0
LINE
  5
43B5
  8
240
  6
CONTINUOUS
 10
172.0999999999992
 20
15.99999999999995
 30
0.0
 11
172.59999999999911
 21
16.49999999999995
 31
0.0
  0
LINE
  5
43B6
  8
240
  6
CONTINUOUS
 10
172.0999999999992
 20
15.99999999999995
 30
0.0
 11
170.3999999999991
 21
15.99999999999995
 31
0.0
  0
LINE
  5
43B7
  8
240
  6
CONTINUOUS
 10
170.3999999999991
 20
15.99999999999995
 30
0.0
 11
168.99999999999949
 21
17.399999999999721
 31
0.0
  0
LINE
  5
43B8
  8
240
  6
CONTINUOUS
 10
180.79999999999779
 20
15.799999999999891
 30
0.0
 11
181.1464101615114
 21
15.99999999999971
 31
0.0
  0
LINE
  5
43B9
  8
240
  6
CONTINUOUS
 10
180.79999999999791
 20
15.799999999999891
 30
0.0
 11
179.49999999999781
 21
15.799999999999891
 31
0.0
  0
LINE
  5
43BA
  8
241
  6
CONTINUOUS
 10
190.89999999999921
 20
1.9999999999997189
 30
0.0
 11
184.89999999999921
 21
1.9999999999997189
 31
0.0
  0
ARC
  5
43BB
  8
241
  6
CONTINUOUS
 10
184.89999999999921
 20
-0.0000000000002802
 30
0.0
 40
2.0
 50
90.0
 51
270.00000112387391
  0
LINE
  5
43BC
  8
240
  6
CONTINUOUS
 10
199.99999999999821
 20
-12.34529946162127
 30
0.0
 11
199.99999999999821
 21
12.34529946162079
 31
0.0
  0
LINE
  5
43BD
  8
250
  6
CONTINUOUS
 10
195.669872981076
 20
-16.00000000000016
 30
0.0
 11
224.9999999999996
 21
-16.000000000000171
 31
0.0
  0
LINE
  5
43BE
  8
250
  6
CONTINUOUS
 10
195.669872981076
 20
15.999999999999719
 30
0.0
 11
224.9999999999996
 21
15.99999999999971
 31
0.0
  0
LINE
  5
43BF
  8
250
  6
CONTINUOUS
 10
223.9999999999996
 20
-14.000000000000171
 30
0.0
 11
223.9999999999996
 21
13.99999999999971
 31
0.0
  0
LINE
  5
43C0
  8
250
  6
CONTINUOUS
 10
224.33333333333289
 20
-14.000000000000171
 30
0.0
 11
223.9999999999996
 21
-16.000000000000171
 31
0.0
  0
LINE
  5
43C1
  8
250
  6
CONTINUOUS
 10
223.6666666666662
 20
-14.000000000000171
 30
0.0
 11
223.9999999999996
 21
-16.000000000000171
 31
0.0
  0
LINE
  5
43C2
  8
250
  6
CONTINUOUS
 10
223.9999999999996
 20
-16.000000000000171
 30
0.0
 11
223.9999999999996
 21
-14.000000000000171
 31
0.0
  0
LINE
  5
43C3
  8
250
  6
CONTINUOUS
 10
223.6666666666662
 20
13.99999999999971
 30
0.0
 11
223.9999999999996
 21
15.99999999999971
 31
0.0
  0
LINE
  5
43C4
  8
250
  6
CONTINUOUS
 10
224.33333333333289
 20
13.99999999999971
 30
0.0
 11
223.9999999999996
 21
15.99999999999971
 31
0.0
  0
LINE
  5
43C5
  8
250
  6
CONTINUOUS
 10
223.9999999999996
 20
15.99999999999971
 30
0.0
 11
223.9999999999996
 21
13.99999999999971
 31
0.0
  0
TEXT
  5
43C6
  8
250
  6
CONTINUOUS
 10
222.99999999999949
 20
-3.9333333333335481
 30
0.0
 40
2.799999999999998
  1
\U+2205
 50
90.0
  0
TEXT
  5
43C7
  8
250
  6
CONTINUOUS
 10
222.99999999999949
 20
-1.4000000000002151
 30
0.0
 40
2.799999999999998
  1
32
 50
90.0
  0
LINE
  5
43C8
  8
250
  6
CONTINUOUS
 10
200.49999999999821
 20
5.9999999999998188
 30
0.0
 11
217.9999999999996
 21
5.9999999999998161
 31
0.0
  0
LINE
  5
43C9
  8
250
  6
CONTINUOUS
 10
216.9999999999996
 20
-4.0000000000002949
 30
0.0
 11
216.9999999999996
 21
3.9999999999998148
 31
0.0
  0
LINE
  5
43CA
  8
250
  6
CONTINUOUS
 10
216.6666666666662
 20
3.9999999999998148
 30
0.0
 11
216.9999999999996
 21
5.9999999999998161
 31
0.0
  0
LINE
  5
43CB
  8
250
  6
CONTINUOUS
 10
217.33333333333289
 20
3.9999999999998148
 30
0.0
 11
216.9999999999996
 21
5.9999999999998161
 31
0.0
  0
LINE
  5
43CC
  8
250
  6
CONTINUOUS
 10
216.9999999999996
 20
5.9999999999998161
 30
0.0
 11
216.9999999999996
 21
3.9999999999998148
 31
0.0
  0
TEXT
  5
43CD
  8
250
  6
CONTINUOUS
 10
215.9999999999996
 20
-3.9333333333335592
 30
0.0
 40
2.799999999999998
  1
\U+2205
 50
90.0
  0
TEXT
  5
43CE
  8
250
  6
CONTINUOUS
 10
215.9999999999996
 20
-1.400000000000226
 30
0.0
 40
2.799999999999998
  1
12
 50
90.0
  0
LINE
  5
43CF
  8
250
  6
CONTINUOUS
 10
200.49999999999821
 20
-6.0000000000004086
 30
0.0
 11
217.99999999999969
 21
-6.0000000000001039
 31
0.0
  0
LINE
  5
43D0
  8
250
  6
CONTINUOUS
 10
216.66666666666629
 20
-4.000000000000127
 30
0.0
 11
216.99999999999969
 21
-6.0000000000001208
 31
0.0
  0
LINE
  5
43D1
  8
250
  6
CONTINUOUS
 10
217.333333333333
 20
-4.0000000000001164
 30
0.0
 11
216.99999999999969
 21
-6.0000000000001208
 31
0.0
  0
LINE
  5
43D2
  8
250
  6
CONTINUOUS
 10
216.99999999999969
 20
-6.0000000000001208
 30
0.0
 11
216.9999999999996
 21
-4.0000000000001208
 31
0.0
  0
TEXT
  5
43D3
  8
250
  6
CONTINUOUS
 10
200.7492711759316
 20
8.8635178416773979
 30
0.0
 40
2.799999999999998
  1
Coolant
  7
YOKO
 11
200.7492711759316
 21
8.8635178416773979
 31
0.0
 73
     1
  0
LINE
  5
43D4
  8
250
  6
CONTINUOUS
 10
214.27856228415121
 20
7.6216666666665169
 30
0.0
 11
216.5085622841512
 21
7.2499999999998366
 31
0.0
  0
LINE
  5
43D5
  8
250
  6
CONTINUOUS
 10
214.27856228415121
 20
6.8783333333331846
 30
0.0
 11
216.5085622841512
 21
7.2499999999998366
 31
0.0
  0
LINE
  5
43D6
  8
250
  6
CONTINUOUS
 10
216.5085622841512
 20
7.2499999999998366
 30
0.0
 11
214.27856228415121
 21
7.2499999999998366
 31
0.0
  0
LINE
  5
43D7
  8
250
  6
CONTINUOUS
 10
214.27856228415121
 20
7.2499999999998366
 30
0.0
 11
200.99999999999559
 21
7.2499999999998366
 31
0.0
  0
LINE
  5
43D8
  8
250
  6
CONTINUOUS
 10
214.27856228415121
 20
-7.6216666666669441
 30
0.0
 11
216.5085622841512
 21
-7.2500000000002549
 31
0.0
  0
LINE
  5
43D9
  8
250
  6
CONTINUOUS
 10
214.27856228415121
 20
-6.878333333333611
 30
0.0
 11
216.5085622841512
 21
-7.2500000000002549
 31
0.0
  0
LINE
  5
43DA
  8
250
  6
CONTINUOUS
 10
216.5085622841512
 20
-7.2500000000002549
 30
0.0
 11
214.27856228415121
 21
-7.2500000000002629
 31
0.0
  0
LINE
  5
43DB
  8
250
  6
CONTINUOUS
 10
214.27856228415121
 20
-7.2500000000002629
 30
0.0
 11
200.99999999999559
 21
-7.2500000000003109
 31
0.0
  0
TEXT
  5
43DC
  8
250
  6
CONTINUOUS
 10
201.1262760792001
 20
-11.312693684519539
 30
0.0
 40
2.799999999999998
  1
Coolant
  7
YOKO
 11
201.1262760792001
 21
-11.312693684519539
 31
0.0
 73
     1
  0
LINE
  5
43DD
  8
240
  6
CONTINUOUS
 10
164.9999999999996
 20
17.399999999999711
 30
0.0
 11
168.99999999999949
 21
17.399999999999721
 31
0.0
1001
GRPNAME
1000
PASTMD06
  0
LINE
  5
43DE
  8
240
  6
CONTINUOUS
 10
164.9999999999996
 20
-17.400000000000169
 30
0.0
 11
168.99999999999929
 21
-17.40000000000018
 31
0.0
1001
GRPNAME
1000
PASTMD06
  0
LINE
  5
43DF
  8
243
  6
HIDDEN2
 10
146.87656183822051
 20
5.9999999999998384
 30
0.0
 11
199.99999999999869
 21
5.9999999999998179
 31
0.0
  0
LINE
  5
43E0
  8
243
  6
HIDDEN2
 10
146.87656183822051
 20
-6.0000000000002656
 30
0.0
 11
199.99999999999869
 21
-6.0000000000002887
 31
0.0
  0
LINE
  5
43E8
  8
240
  6
CONTINUOUS
 10
164.9999999999996
 20
17.399999999999711
 30
0.0
 11
164.9999999999996
 21
17.499999999999851
 31
0.0
  0
LINE
  5
43E9
  8
240
  6
CONTINUOUS
 10
164.9999999999996
 20
-17.400000000000169
 30
0.0
 11
164.9999999999996
 21
-17.50000000000021
 31
0.0
  0
LINE
  5
440C
  8
250
  6
CONTINUOUS
 10
23.696156345059389
 20
-17.74540331721515
 30
0.0
 11
25.133029119999989
 21
-16.000000000000011
 31
0.0
  0
LINE
  5
440D
  8
250
  6
CONTINUOUS
 10
24.33990189523406
 20
-18.117069983832909
 30
0.0
 11
25.133029119999989
 21
-16.000000000000011
 31
0.0
  0
LINE
  5
440E
  8
250
  6
CONTINUOUS
 10
25.133029119999989
 20
-16.000000000000011
 30
0.0
 11
24.018029120146728
 21
-17.931236650524031
 31
0.0
  0
LINE
  5
440F
  8
250
  6
CONTINUOUS
 10
24.018029120146728
 20
-17.931236650524031
 30
0.0
 11
18.05606603999999
 21
-28.257659620000009
 31
0.0
1001
ACAD
1000
DSTYLE
1002
{
1070
     6
1000
OPEN
1070
   343
1005
594
1002
}
  0
TEXT
  5
4410
  8
250
  6
CONTINUOUS
 10
5.5227327099999846
 20
-27.257659620000009
 30
0.0
 40
2.7999999999999989
  1
ST32
  7
YOKO
1001
ITEMNAME
1000
LNSP3
  0
LINE
  5
4411
  8
250
  6
CONTINUOUS
 10
18.05606603999999
 20
-28.257659620000009
 30
0.0
 11
3.122732709999986
 21
-28.257659620000009
 31
0.0
1001
ITEMNAME
1000
LNSP2
  0
LINE
  5
4412
  8
247
  6
CONTINUOUS
 10
6.7499999999299831
 20
-10.000000000000011
 30
0.0
 11
13.44230769196999
 21
-10.000000000000011
 31
0.0
  0
ARC
  5
4413
  8
247
  6
CONTINUOUS
 10
6.7499999999299831
 20
-8.2500000000700453
 30
0.0
 40
1.7499999999299991
 50
90.0
 51
270.0
  0
ARC
  5
4414
  8
247
  6
CONTINUOUS
 10
13.44230769196999
 20
-8.2500000000700453
 30
0.0
 40
1.7499999999299991
 50
270.0
 51
90.0
  0
LINE
  5
4415
  8
247
  6
CONTINUOUS
 10
7.6153846152799778
 20
-6.5000000001400764
 30
0.0
 11
6.7551484580379793
 21
-9.5000000000200231
 31
0.0
  0
LINE
  5
4416
  8
247
  6
CONTINUOUS
 10
8.5150161816641656
 20
-7.9230769231599112
 30
0.0
 11
7.2073238740241692
 21
-7.9230769231599112
 31
0.0
  0
ARC
  5
4417
  8
247
  6
CONTINUOUS
 10
8.8548561839102007
 20
-7.049598667702881
 30
0.0
 40
0.5538165441895349
 50
342.99788967529543
 51
82.924166218512752
  0
ARC
  5
4418
  8
247
  6
CONTINUOUS
 10
8.4331216769711972
 20
-6.9360330444658436
 30
0.0
 40
0.9904354236226808
 50
274.74293685220141
 51
343.84922627326642
1001
GENIUS_GENOBJ-N-FIL_13
1002
{
1000
OWNER
1000
GEN
1002
}
1001
GENIUS_GENODEF_13
1002
{
1000
HIER
1070
     0
1002
}
1002
{
1000
MANEDIT
1070
     0
1002
}
1002
{
1000
NOSEL
1070
     0
1002
}
1002
{
1000
BEHIND
1070
     0
1002
}
1002
{
1000
OTHER
1070
     0
1002
}
1002
{
1000
REACTOR
1002
}
  0
LINE
  5
4419
  8
247
  6
CONTINUOUS
 10
8.0628407656779757
 20
-9.5000000000200231
 30
0.0
 11
6.7551484580379793
 21
-9.5000000000200231
 31
0.0
  0
LINE
  5
441A
  8
247
  6
CONTINUOUS
 10
7.6153846152799778
 20
-6.5000000001400764
 30
0.0
 11
8.9230769229199893
 21
-6.5000000001400764
 31
0.0
  0
ARC
  5
441B
  8
247
  6
CONTINUOUS
 10
8.4390803634530158
 20
-8.4820242326654949
 30
0.0
 40
0.5640818586791229
 50
335.99094165252171
 51
82.263443459069109
  0
ARC
  5
441C
  8
247
  6
CONTINUOUS
 10
7.9617373146529209
 20
-8.487429039186523
 30
0.0
 40
1.0176059446230981
 50
275.70198516425808
 51
347.27733843682228
1001
GENIUS_GENOBJ-N-FIL_13
1002
{
1000
OWNER
1000
GEN
1002
}
1001
GENIUS_GENODEF_13
1002
{
1000
HIER
1070
     0
1002
}
1002
{
1000
MANEDIT
1070
     0
1002
}
1002
{
1000
NOSEL
1070
     0
1002
}
1002
{
1000
BEHIND
1070
     0
1002
}
1002
{
1000
OTHER
1070
     0
1002
}
1002
{
1000
REACTOR
1002
}
  0
LINE
  5
441D
  8
247
  6
CONTINUOUS
 10
9.7166869194579846
 20
-9.5000000000200231
 30
0.0
 11
10.57692307669998
 21
-6.5000000001400764
 31
0.0
  0
LINE
  5
441E
  8
247
  6
CONTINUOUS
 10
12.99999999967998
 20
-6.5000000001400764
 30
0.0
 11
12.43426338054338
 21
-6.5000000001400764
 31
0.0
  0
LINE
  5
441F
  8
247
  6
CONTINUOUS
 10
11.538461538199989
 20
-9.5000000000200231
 30
0.0
 11
12.15384615355998
 21
-9.5000000000200231
 31
0.0
  0
ARC
  5
4420
  8
247
  6
CONTINUOUS
 10
13.291208790877119
 20
-8.5832851359733837
 30
0.0
 40
2.2526500823422122
 50
112.35948814153041
 51
164.99324854284609
  0
ARC
  5
4421
  8
247
  6
CONTINUOUS
 10
12.625930520786749
 20
-7.308312655194654
 30
0.0
 40
0.8906723995727782
 50
4.9945893190753656
 51
65.166328957300863
1001
GENIUS_GENOBJ-N-FIL_13
1002
{
1000
OWNER
1000
GEN
1002
}
1001
GENIUS_GENODEF_13
1002
{
1000
HIER
1070
     0
1002
}
1002
{
1000
MANEDIT
1070
     0
1002
}
1002
{
1000
NOSEL
1070
     0
1002
}
1002
{
1000
BEHIND
1070
     0
1002
}
1002
{
1000
OTHER
1070
     0
1002
}
1002
{
1000
REACTOR
1002
}
  0
ARC
  5
4422
  8
247
  6
CONTINUOUS
 10
11.773541113787401
 20
-8.1601458886677989
 30
0.0
 40
1.392781735586712
 50
285.84609655578072
 51
352.32513700416251
  0
ARC
  5
4423
  8
247
  6
CONTINUOUS
 10
12.35778727415962
 20
-8.4592434315272982
 30
0.0
 40
1.324563662670287
 50
159.71360167049011
 51
231.7887456564128
1001
GENIUS_GENOBJ-N-FIL_13
1002
{
1000
OWNER
1000
GEN
1002
}
1001
GENIUS_GENODEF_13
1002
{
1000
HIER
1070
     0
1002
}
1002
{
1000
MANEDIT
1070
     0
1002
}
1002
{
1000
NOSEL
1070
     0
1002
}
1002
{
1000
BEHIND
1070
     0
1002
}
1002
{
1000
OTHER
1070
     0
1002
}
1002
{
1000
REACTOR
1002
}
  0
LINE
  5
4424
  8
247
  6
CONTINUOUS
 10
12.46153846123998
 20
-8.3461538462199911
 30
0.0
 11
13.15384615351998
 21
-8.3461538462199911
 31
0.0
  0
LINE
  5
4425
  8
247
  6
CONTINUOUS
 10
6.7499999999299538
 20
-6.5000000001400764
 30
0.0
 11
7.4230769229799156
 21
-6.5000000001400764
 31
0.0
  0
VIEWPORT
  5
22
 67
     1
  8
0
 10
261.51769911504419
 20
148.5
 30
0.0
 40
523.0353982300885
 41
297.0
 68
     1
 69
     1
1001
ACAD
1000
MVIEW
1002
{
1070
    16
1010
0.0
1020
0.0
1030
0.0
1010
0.0
1020
0.0
1030
1.0
1040
0.0
1040
297.0
1040
261.51769911504419
1040
148.5
1040
50.0
1040
0.0
1040
0.0
1070
     0
1070
   100
1070
     1
1070
     1
1070
     0
1070
     0
1070
     0
1070
     0
1040
0.0
1040
0.0
1040
0.0
1040
1.0
1040
1.0
1040
10.0
1040
10.0
1070
     0
1002
{
1002
}
1002
}
1001
GENIUS_GENODEF_13
1002
{
1000
HIER
1070
     0
1002
}
1002
{
1000
MANEDIT
1070
     0
1002
}
1002
{
1000
NOSEL
1070
     0
1002
}
1002
{
1000
BEHIND
1070
     0
1002
}
1002
{
1000
OTHER
1070
     0
1002
}
1002
{
1000
REACTOR
1002
}
1001
GENIUS_GENOBJ-N-SDF_13
1002
{
1000
OWNER
1000
GEN
1002
}
1001
GENIUS_GENSCREG_15
1000
PF
1040
1.0
1000
DF
1040
1.0
1000
MIN
1011
0.0
1021
0.0
1031
0.0
1021
0.0
1031
0.0
1000
MAX
1011
523.0353982300885
1021
0.0
1031
0.0
1021
297.0
1031
0.0
1000
FLAGS
1070
     4
  0
ENDSEC
  0
EOF
