  0
SECTION
  2
HEADER
  9
$ACADVER
  1
AC1009
  9
$INSBASE
 10
0.0
 20
0.0
 30
0.0
  9
$EXTMIN
 10
-17.999999999999989
 20
-28.257659620000009
 30
0.0
  9
$EXTMAX
 10
184.9999999999996
 20
54.000000000000028
 30
0.0
  9
$LIMMIN
 10
0.0
 20
0.0
  9
$LIMMAX
 10
297.0
 20
210.0
  9
$ORTHOMODE
 70
     0
  9
$REGENMODE
 70
     1
  9
$FILLMODE
 70
     1
  9
$QTEXTMODE
 70
     0
  9
$MIRRTEXT
 70
     1
  9
$DRAGMODE
 70
     2
  9
$LTSCALE
 40
10.0
  9
$OSMODE
 70
    35
  9
$ATTMODE
 70
     1
  9
$TEXTSIZE
 40
3.0
  9
$TRACEWID
 40
1.0
  9
$TEXTSTYLE
  7
YOKO
  9
$CLAYER
  8
240
  9
$CELTYPE
  6
BYLAYER
  9
$CECOLOR
 62
   256
  9
$DIMSCALE
 40
1.0
  9
$DIMASZ
 40
2.2299999999999991
  9
$DIMEXO
 40
0.5
  9
$DIMDLI
 40
7.0
  9
$DIMRND
 40
0.0
  9
$DIMDLE
 40
0.0
  9
$DIMEXE
 40
1.0
  9
$DIMTP
 40
0.0
  9
$DIMTM
 40
0.01
  9
$DIMTXT
 40
2.7999999999999989
  9
$DIMCEN
 40
0.0
  9
$DIMTSZ
 40
0.0
  9
$DIMTOL
 70
     0
  9
$DIMLIM
 70
     0
  9
$DIMTIH
 70
     0
  9
$DIMTOH
 70
     0
  9
$DIMSE1
 70
     0
  9
$DIMSE2
 70
     0
  9
$DIMTAD
 70
     3
  9
$DIMZIN
 70
     9
  9
$DIMBLK
  1
OPEN
  9
$DIMASO
 70
     1
  9
$DIMSHO
 70
     1
  9
$DIMPOST
  1

  9
$DIMAPOST
  1

  9
$DIMALT
 70
     0
  9
$DIMALTD
 70
     2
  9
$DIMALTF
 40
25.399999999999999
  9
$DIMLFAC
 40
1.0
  9
$DIMTOFL
 70
     1
  9
$DIMTVP
 40
0.0
  9
$DIMTIX
 70
     1
  9
$DIMSOXD
 70
     0
  9
$DIMSAH
 70
     0
  9
$DIMBLK1
  1

  9
$DIMBLK2
  1

  9
$DIMSTYLE
  2
BIGT
  9
$DIMCLRD
 70
   256
  9
$DIMCLRE
 70
   256
  9
$DIMCLRT
 70
    40
  9
$DIMTFAC
 40
1.0
  9
$DIMGAP
 40
1.0
  9
$LUNITS
 70
     2
  9
$LUPREC
 70
     6
  9
$SKETCHINC
 40
1.0
  9
$FILLETRAD
 40
0.0
  9
$AUNITS
 70
     0
  9
$AUPREC
 70
     6
  9
$MENU
  1
.
  9
$ELEVATION
 40
0.0
  9
$PELEVATION
 40
0.0
  9
$THICKNESS
 40
0.0
  9
$LIMCHECK
 70
     0
  9
$BLIPMODE
 70
     0
  9
$CHAMFERA
 40
0.2
  9
$CHAMFERB
 40
0.2
  9
$SKPOLY
 70
     0
  9
$TDCREATE
 40
2457634.429142396
  9
$TDUPDATE
 40
2457634.6258060299
  9
$TDINDWG
 40
0.0147393981
  9
$TDUSRTIMER
 40
0.0147393634
  9
$USRTIMER
 70
     1
  9
$ANGBASE
 50
0.0
  9
$ANGDIR
 70
     0
  9
$PDMODE
 70
     1
  9
$PDSIZE
 40
0.0
  9
$PLINEWID
 40
0.0
  9
$COORDS
 70
     1
  9
$SPLFRAME
 70
     0
  9
$SPLINETYPE
 70
     6
  9
$SPLINESEGS
 70
     4
  9
$ATTDIA
 70
     1
  9
$ATTREQ
 70
     1
  9
$HANDLING
 70
     1
  9
$HANDSEED
  5
4575
  9
$SURFTAB1
 70
     6
  9
$SURFTAB2
 70
     6
  9
$SURFTYPE
 70
     6
  9
$SURFU
 70
     6
  9
$SURFV
 70
     6
  9
$UCSNAME
  2

  9
$UCSORG
 10
0.0
 20
0.0
 30
0.0
  9
$UCSXDIR
 10
1.0
 20
0.0
 30
0.0
  9
$UCSYDIR
 10
0.0
 20
1.0
 30
0.0
  9
$PUCSNAME
  2

  9
$PUCSORG
 10
0.0
 20
0.0
 30
0.0
  9
$PUCSXDIR
 10
1.0
 20
0.0
 30
0.0
  9
$PUCSYDIR
 10
0.0
 20
1.0
 30
0.0
  9
$USERI1
 70
     1
  9
$USERI2
 70
     0
  9
$USERI3
 70
     0
  9
$USERI4
 70
     0
  9
$USERI5
 70
     0
  9
$USERR1
 40
0.0
  9
$USERR2
 40
0.0
  9
$USERR3
 40
0.0
  9
$USERR4
 40
0.0
  9
$USERR5
 40
0.0
  9
$WORLDVIEW
 70
     1
  9
$SHADEDGE
 70
     3
  9
$SHADEDIF
 70
    70
  9
$TILEMODE
 70
     1
  9
$MAXACTVP
 70
    16
  9
$PLIMCHECK
 70
     0
  9
$PEXTMIN
 10
1.0000000000000000E+020
 20
1.0000000000000000E+020
 30
1.0000000000000000E+020
  9
$PEXTMAX
 10
-1.0000000000000000E+020
 20
-1.0000000000000000E+020
 30
-1.0000000000000000E+020
  9
$PLIMMIN
 10
0.0
 20
0.0
  9
$PLIMMAX
 10
420.0
 20
297.0
  9
$UNITMODE
 70
     0
  9
$VISRETAIN
 70
     1
  9
$PLINEGEN
 70
     0
  9
$PSLTSCALE
 70
     1
  0
ENDSEC
  0
SECTION
  2
TABLES
  0
TABLE
  2
VPORT
 70
     1
  0
VPORT
  2
*ACTIVE
 70
     0
 10
0.0
 20
0.0
 11
1.0
 21
1.0
 12
83.501793523553957
 22
12.86705055258596
 13
0.0
 23
0.0
 14
7.0
 24
7.0
 15
7.0
 25
7.0
 16
0.0
 26
0.0
 36
1.0
 17
0.0
 27
0.0
 37
0.0
 40
137.92322872091381
 41
1.4787350054525621
 42
50.0
 43
0.0
 44
0.0
 50
0.0
 51
0.0
 71
     0
 72
  2000
 73
     1
 74
     0
 75
     0
 76
     1
 77
     0
 78
     0
  0
ENDTAB
  0
TABLE
  2
LTYPE
 70
    13
  0
LTYPE
  2
CONTINUOUS
 70
     0
  3
Solid line
 72
    65
 73
     0
 40
0.0
  0
LTYPE
  2
CENTER2
 70
     0
  3
___ _ ___ _ ___ _ ___ _ ___ _ ___ _ ___ _ ___ _
 72
    65
 73
     4
 40
1.125
 49
0.75
 49
-0.125
 49
0.125
 49
-0.125
  0
LTYPE
  2
HIDDEN2
 70
     0
  3
_ _ _ _ _ _ _ _ _ _ _ _ _ _ _ _ _ _ _ _ _ _ _ _
 72
    65
 73
     2
 40
0.1875
 49
0.125
 49
-0.0625
  0
LTYPE
  2
PHANTOM2
 70
     0
  3
___ _ _ ___ _ _ ___ _ _ ___ _ _ ___ _ _ ___ _ _
 72
    65
 73
     6
 40
1.25
 49
0.625
 49
-0.125
 49
0.125
 49
-0.125
 49
0.125
 49
-0.125
  0
LTYPE
  2
AM_ISO02W050
 70
     0
  3
__ __ __ __ __ __ __ __ __ __ __ __ __ __ __
 72
    65
 73
     2
 40
7.5
 49
6.0
 49
-1.5
  0
LTYPE
  2
AMCONSTR
 70
     0
  3
_______________________
 72
    65
 73
     2
 40
9999.0
 49
9999.0
 49
0.0
  0
LTYPE
  2
ACISOWELD
 70
     0
  3
_ _ _ _ _
 72
    65
 73
     2
 40
2.0
 49
2.0
 49
-1.0
  0
LTYPE
  2
ACISOTGB
 70
     0
  3
__ . . __ . .
 72
    65
 73
     6
 40
9.0
 49
4.0
 49
-1.0
 49
1.0
 49
-1.0
 49
1.0
 49
-1.0
  0
LTYPE
  2
ACISOTGL
 70
     0
  3
_ _ _ _ _
 72
    65
 73
     2
 40
3.0
 49
2.0
 49
-1.0
  0
LTYPE
  2
ACJISTGB
 70
     0
  3
__ . . __ . .
 72
    65
 73
     6
 40
9.0
 49
4.0
 49
-1.0
 49
1.0
 49
-1.0
 49
1.0
 49
-1.0
  0
LTYPE
  2
ACJISTGL
 70
     0
  3
_ _ _ _ _
 72
    65
 73
     2
 40
3.0
 49
2.0
 49
-1.0
  0
ENDTAB
  0
TABLE
  2
LAYER
 70
     8
  0
LAYER
  2
0
 70
     0
 62
     7
  6
CONTINUOUS
  0
LAYER
  2
DEFPOINTS
 70
     0
 62
     7
  6
CONTINUOUS
  0
LAYER
  2
245
 70
     0
 62
     2
  6
CENTER2
  0
LAYER
  2
240
 70
     0
 62
     4
  6
CONTINUOUS
  0
LAYER
  2
241
 70
     0
 62
   211
  6
CONTINUOUS
  0
LAYER
  2
243
 70
     0
 62
   211
  6
HIDDEN2
  0
LAYER
  2
247
 70
     0
 62
    60
  6
CONTINUOUS
  0
LAYER
  2
250
 70
     0
 62
     3
  6
CONTINUOUS
  0
ENDTAB
  0
TABLE
  2
STYLE
 70
     6
  0
STYLE
  2
STANDARD
 70
     0
 40
0.0
 41
1.0
 50
0.0
 71
     0
 42
3.0
  3
romans.shx
  4
extfont.shx
  0
STYLE
  2
ACISOTS
 70
     0
 40
1.0
 41
1.0
 50
0.0
 71
     0
 42
3.0
  3
amgdt.shx
  4
extfont.shx
  0
STYLE
  2
ACISOGDT
 70
     0
 40
0.0
 41
1.0
 50
0.0
 71
     0
 42
3.0
  3
amgdt.shx
  4
extfont.shx
  0
STYLE
  2
ACJISTS
 70
     0
 40
1.0
 41
1.0
 50
0.0
 71
     0
 42
3.0
  3
amgdt.shx
  4
extfont.shx
  0
STYLE
  2
ACJISGDT
 70
     0
 40
0.0
 41
1.0
 50
0.0
 71
     0
 42
3.0
  3
amgdt.shx
  4
extfont.shx
  0
STYLE
  2
YOKO
 70
     0
 40
0.0
 41
1.0
 50
0.0
 71
     0
 42
3.0
  3
romans.shx
  4
extfont.shx
  0
ENDTAB
  0
TABLE
  2
VIEW
 70
     0
  0
ENDTAB
  0
TABLE
  2
UCS
 70
     0
  0
ENDTAB
  0
TABLE
  2
APPID
 70
    38
  0
APPID
  2
ACAD
 70
     0
  0
APPID
  2
GLOBAL
 70
     0
  0
APPID
  2
DETAIL
 70
     0
  0
APPID
  2
GRPNAME
 70
     0
  0
APPID
  2
GPARA
 70
     0
  0
APPID
  2
MCAD_NO_VIS
 70
     0
  0
APPID
  2
ACAD_TEMP_GRAPHIC
 70
     0
  0
APPID
  2
ACATTRIBSERVICES
 70
     0
  0
APPID
  2
GENIUS_GENSCREG_15
 70
     0
  0
APPID
  2
GENIUS_GENODEF_13
 70
     0
  0
APPID
  2
GENIUS_GENOBJ-N-SDF_13
 70
     0
  0
APPID
  2
GENIUS_GENREC_14
 70
     0
  0
APPID
  2
GENIUS_GENOBJ-N-REC_13
 70
     0
  0
APPID
  2
GENIUS_GENDIMSH_14
 70
     0
  0
APPID
  2
GENIUS_GENOBJ-N-DIM_13
 70
     0
  0
APPID
  2
GENIUS_GENDIM_13
 70
     0
  0
APPID
  2
GENIUS_GENDTOL_13
 70
     0
  0
APPID
  2
GENIUS_GENOLIS_13
 70
     0
  0
APPID
  2
GENIUS_GENOENT_13
 70
     0
  0
APPID
  2
GENIUS_GENOBJ-F-FEM_13
 70
     0
  0
APPID
  2
GENIUS_GENOREF_13
 70
     0
  0
APPID
  2
GENIUS_GEFFEM_13
 70
     0
  0
APPID
  2
GENIUS_GEFFEMP_13
 70
     0
  0
APPID
  2
AD_DRAW
 70
     0
  0
APPID
  2
DESIGNERASSEMBLIES
 70
     0
  0
APPID
  2
ACADM_DIM_EDIT
 70
     0
  0
APPID
  2
AMDT_DM_ADJ
 70
     0
  0
APPID
  2
ITEMNAME
 70
     0
  0
APPID
  2
GENIUS_GENOBJ-N-FIL_13
 70
     0
  0
APPID
  2
GENIUS_GENFIL_13
 70
     0
  0
APPID
  2
GENIUS_GENOBJ-N-CHA_13
 70
     0
  0
APPID
  2
ACAD_NAV_VCDISPLAY
 70
     0
  0
APPID
  2
ASK_MEN_XD
 70
     0
  0
APPID
  2
ASKOBJSC
 70
     0
  0
APPID
  2
ASKDWGSC
 70
     0
  0
APPID
  2
ACAECLAYERSTANDARD
 70
     0
  0
APPID
  2
ACAD_EXEMPT_FROM_CAD_STANDARDS
 70
     0
  0
APPID
  2
ACAD_MLEADERVER
 70
     0
  0
ENDTAB
  0
TABLE
  2
DIMSTYLE
 70
    23
  0
DIMSTYLE
  2
BIGT
 70
     0
  3

  4

  5
OPEN
  6

  7

 40
1.0
 41
2.2299999999999991
 42
0.5
 43
7.0
 44
1.0
 45
0.0
 46
0.0
 47
0.0
 48
0.01
140
2.7999999999999989
141
0.0
142
0.0
143
25.399999999999999
144
1.0
145
0.0
146
1.0
147
1.0
 71
     0
 72
     0
 73
     0
 74
     0
 75
     0
 76
     0
 77
     3
 78
     9
170
     0
171
     2
172
     1
173
     0
174
     1
175
     0
176
   256
177
   256
178
    40
  0
DIMSTYLE
  2
AM_ISO
 70
     0
  3

  4
"
  5

  6

  7

 40
1.0
 41
2.5
 42
1.0
 43
10.0
 44
1.0
 45
0.0
 46
0.0
 47
0.1
 48
0.1
140
3.5
141
0.0
142
0.0
143
0.0393701
144
1.0
145
0.0
146
0.71
147
1.5
 71
     0
 72
     0
 73
     0
 74
     0
 75
     0
 76
     0
 77
     1
 78
     8
170
     0
171
     2
172
     1
173
     0
174
     0
175
     0
176
   256
177
   256
178
     2
  0
DIMSTYLE
  2
AM_ISO$3
 70
     0
  3

  4
"
  5

  6

  7

 40
1.0
 41
2.5
 42
1.0
 43
10.0
 44
1.0
 45
0.0
 46
0.0
 47
0.1
 48
0.1
140
3.5
141
0.0
142
0.0
143
0.0393701
144
1.0
145
0.0
146
0.71
147
1.5
 71
     0
 72
     0
 73
     0
 74
     1
 75
     0
 76
     0
 77
     1
 78
     8
170
     0
171
     2
172
     0
173
     0
174
     0
175
     0
176
   256
177
   256
178
     2
  0
DIMSTYLE
  2
AM_ISO$4
 70
     0
  3

  4
"
  5

  6

  7

 40
1.0
 41
2.5
 42
1.0
 43
10.0
 44
1.0
 45
0.0
 46
0.0
 47
0.1
 48
0.1
140
3.5
141
0.0
142
0.0
143
0.0393701
144
1.0
145
0.0
146
0.71
147
1.5
 71
     0
 72
     0
 73
     0
 74
     1
 75
     0
 76
     0
 77
     1
 78
     8
170
     0
171
     2
172
     0
173
     0
174
     0
175
     0
176
   256
177
   256
178
     2
  0
DIMSTYLE
  2
AM_ISO$6
 70
     0
  3

  4
"
  5

  6

  7

 40
1.0
 41
2.5
 42
1.0
 43
10.0
 44
1.0
 45
0.0
 46
0.0
 47
0.1
 48
0.1
140
3.5
141
0.0
142
0.0
143
0.0393701
144
1.0
145
0.0
146
0.71
147
1.5
 71
     0
 72
     0
 73
     0
 74
     0
 75
     0
 76
     0
 77
     0
 78
     8
170
     0
171
     2
172
     1
173
     0
174
     0
175
     0
176
   256
177
   256
178
     2
  0
DIMSTYLE
  2
AM_ISO$7
 70
     0
  3

  4
"
  5

  6

  7

 40
1.0
 41
2.5
 42
1.0
 43
10.0
 44
1.0
 45
0.0
 46
0.0
 47
0.1
 48
0.1
140
5.0
141
0.0
142
0.0
143
0.0393701
144
1.0
145
0.0
146
0.71
147
1.5
 71
     0
 72
     0
 73
     0
 74
     0
 75
     0
 76
     0
 77
     1
 78
     8
170
     0
171
     2
172
     1
173
     0
174
     0
175
     0
176
   256
177
   256
178
     2
  0
DIMSTYLE
  2
AM_ISO$SF
 70
     0
  3

  4
"
  5

  6

  7

 40
1.0
 41
2.5
 42
1.0
 43
10.0
 44
1.0
 45
0.0
 46
0.0
 47
0.1
 48
0.1
140
3.5
141
0.0
142
0.0
143
0.0393701
144
1.0
145
0.0
146
0.71
147
1.5
 71
     0
 72
     0
 73
     0
 74
     0
 75
     1
 76
     1
 77
     1
 78
     8
170
     0
171
     2
172
     1
173
     0
174
     0
175
     0
176
   256
177
   256
178
     2
  0
DIMSTYLE
  2
AM_ISO$SH
 70
     0
  3

  4
"
  5

  6
GENAXEH
  7

 40
1.0
 41
2.5
 42
1.0
 43
10.0
 44
1.0
 45
0.0
 46
0.0
 47
0.1
 48
0.1
140
3.5
141
0.0
142
0.0
143
0.0393701
144
2.0
145
0.0
146
0.71
147
1.5
 71
     0
 72
     0
 73
     0
 74
     0
 75
     1
 76
     1
 77
     1
 78
     8
170
     0
171
     2
172
     1
173
     1
174
     0
175
     0
176
   256
177
   256
178
     2
  0
DIMSTYLE
  2
BIGT$2
 70
     0
  3

  4

  5
OPEN
  6

  7

 40
1.0
 41
2.2299999999999991
 42
0.5
 43
7.0
 44
1.0
 45
0.0
 46
0.0
 47
0.0
 48
0.01
140
2.7999999999999989
141
0.0
142
0.0
143
25.399999999999999
144
1.0
145
0.0
146
1.0
147
1.0
 71
     0
 72
     0
 73
     0
 74
     0
 75
     0
 76
     0
 77
     3
 78
     9
170
     0
171
     2
172
     1
173
     0
174
     0
175
     0
176
   256
177
   256
178
    40
  0
DIMSTYLE
  2
BIGT$3
 70
     0
  3

  4

  5
OPEN
  6

  7

 40
1.0
 41
2.2299999999999991
 42
0.5
 43
2.5
 44
1.0
 45
0.0
 46
0.0
 47
0.0
 48
0.01
140
2.7999999999999989
141
0.0
142
0.0
143
25.399999999999999
144
1.0
145
0.0
146
1.0
147
1.0
 71
     0
 72
     0
 73
     0
 74
     0
 75
     0
 76
     0
 77
     3
 78
     9
170
     0
171
     2
172
     1
173
     0
174
     0
175
     0
176
   256
177
   256
178
    40
  0
DIMSTYLE
  2
BIGT$7
 70
     0
  3

  4

  5
OPEN
  6

  7

 40
0.0
 41
2.2299999999999991
 42
0.5
 43
7.0
 44
1.0
 45
0.0
 46
0.0
 47
0.0
 48
0.01
140
2.7999999999999989
141
0.0
142
0.0
143
25.399999999999999
144
1.0
145
0.0
146
1.0
147
1.0
 71
     0
 72
     0
 73
     0
 74
     0
 75
     0
 76
     0
 77
     3
 78
     9
170
     0
171
     2
172
     0
173
     0
174
     0
175
     0
176
   256
177
   256
178
    40
  0
DIMSTYLE
  2
BIGT$6
 70
     0
  3

  4

  5
OPEN
  6

  7

 40
1.0
 41
2.2299999999999991
 42
0.5
 43
2.5
 44
1.0
 45
0.0
 46
0.0
 47
0.0
 48
0.01
140
2.7999999999999989
141
0.0
142
0.0
143
25.399999999999999
144
1.0
145
0.0
146
1.0
147
1.0
 71
     0
 72
     0
 73
     0
 74
     0
 75
     0
 76
     0
 77
     3
 78
     9
170
     0
171
     2
172
     1
173
     0
174
     0
175
     0
176
   256
177
   256
178
    40
  0
DIMSTYLE
  2
BIGT$0
 70
     0
  3

  4

  5
OPEN
  6

  7

 40
1.0
 41
2.2299999999999991
 42
0.5
 43
7.0
 44
1.0
 45
0.0
 46
0.0
 47
0.0
 48
0.01
140
2.7999999999999989
141
0.0
142
0.0
143
25.399999999999999
144
1.0
145
0.0
146
1.0
147
1.0
 71
     0
 72
     0
 73
     0
 74
     0
 75
     0
 76
     0
 77
     3
 78
     9
170
     0
171
     2
172
     1
173
     0
174
     1
175
     0
176
   256
177
   256
178
    40
  0
DIMSTYLE
  2
BIGT$4
 70
     0
  3

  4

  5
OPEN
  6

  7

 40
1.0
 41
2.2299999999999991
 42
0.5
 43
2.5
 44
1.0
 45
0.0
 46
0.0
 47
0.0
 48
0.01
140
2.7999999999999989
141
0.0
142
0.0
143
25.399999999999999
144
1.0
145
0.0
146
1.0
147
1.0
 71
     0
 72
     0
 73
     0
 74
     0
 75
     0
 76
     0
 77
     3
 78
     9
170
     0
171
     2
172
     1
173
     0
174
     0
175
     0
176
   256
177
   256
178
    40
  0
DIMSTYLE
  2
BIGT$SH
 70
     0
  3

  4

  5
OPEN
  6

  7

 40
1.0
 41
2.2299999999999991
 42
0.5
 43
7.0
 44
1.0
 45
0.0
 46
0.0
 47
0.0
 48
0.0
140
2.7999999999999989
141
0.0
142
0.0
143
25.399999999999999
144
1.0
145
0.0
146
1.0
147
1.0
 71
     0
 72
     0
 73
     0
 74
     0
 75
     0
 76
     0
 77
     3
 78
     9
170
     0
171
     2
172
     1
173
     0
174
     0
175
     0
176
   256
177
   256
178
    40
  0
DIMSTYLE
  2
BIGT$SF
 70
     0
  3

  4

  5
OPEN
  6

  7

 40
1.0
 41
2.2299999999999991
 42
0.5
 43
7.0
 44
1.0
 45
0.0
 46
0.0
 47
0.0
 48
0.0
140
2.7999999999999989
141
0.0
142
0.0
143
25.399999999999999
144
1.0
145
0.0
146
1.0
147
1.0
 71
     0
 72
     0
 73
     0
 74
     0
 75
     0
 76
     0
 77
     3
 78
     9
170
     0
171
     2
172
     1
173
     0
174
     0
175
     0
176
   256
177
   256
178
    40
  0
DIMSTYLE
  2
TECHNICAL_OSAKA
 70
     0
  3

  4
"
  5
OPEN30
  6

  7

 40
1.0
 41
2.5
 42
1.0
 43
10.0
 44
1.0
 45
0.0
 46
0.0
 47
0.1
 48
0.1
140
2.7999999999999989
141
0.0
142
0.0
143
0.0393701
144
1.0
145
0.0
146
0.71
147
1.5
 71
     0
 72
     0
 73
     0
 74
     0
 75
     0
 76
     0
 77
     3
 78
     8
170
     0
171
     2
172
     1
173
     0
174
     0
175
     0
176
   256
177
   256
178
    40
  0
DIMSTYLE
  2
TECHNICAL_OSAKA$3
 70
     0
  3

  4
"
  5
OPEN30
  6

  7

 40
1.0
 41
2.5
 42
1.0
 43
10.0
 44
1.0
 45
0.0
 46
0.0
 47
0.1
 48
0.1
140
2.7999999999999989
141
0.0
142
0.0
143
0.0393701
144
1.0
145
0.0
146
0.71
147
1.5
 71
     0
 72
     0
 73
     0
 74
     1
 75
     0
 76
     0
 77
     3
 78
     8
170
     0
171
     2
172
     0
173
     0
174
     0
175
     0
176
   256
177
   256
178
    40
  0
DIMSTYLE
  2
TECHNICAL_OSAKA$4
 70
     0
  3

  4
"
  5
OPEN30
  6

  7

 40
1.0
 41
2.5
 42
1.0
 43
10.0
 44
1.0
 45
0.0
 46
0.0
 47
0.1
 48
0.1
140
2.7999999999999989
141
0.0
142
0.0
143
0.0393701
144
1.0
145
0.0
146
0.71
147
1.5
 71
     0
 72
     0
 73
     0
 74
     1
 75
     0
 76
     0
 77
     3
 78
     8
170
     0
171
     2
172
     0
173
     0
174
     0
175
     0
176
   256
177
   256
178
    40
  0
DIMSTYLE
  2
TECHNICAL_OSAKA$6
 70
     0
  3

  4
"
  5
OPEN30
  6

  7

 40
1.0
 41
2.5
 42
1.0
 43
10.0
 44
1.0
 45
0.0
 46
0.0
 47
0.1
 48
0.1
140
2.7999999999999989
141
0.0
142
0.0
143
0.0393701
144
1.0
145
0.0
146
0.71
147
1.5
 71
     0
 72
     0
 73
     0
 74
     0
 75
     0
 76
     0
 77
     0
 78
     8
170
     0
171
     2
172
     1
173
     0
174
     0
175
     0
176
   256
177
   256
178
    40
  0
DIMSTYLE
  2
TECHNICAL_OSAKA$7
 70
     0
  3

  4
"
  5
OPEN30
  6

  7

 40
1.0
 41
2.5
 42
1.0
 43
10.0
 44
1.0
 45
0.0
 46
0.0
 47
0.1
 48
0.1
140
2.7999999999999989
141
0.0
142
0.0
143
0.0393701
144
1.0
145
0.0
146
0.71
147
1.5
 71
     0
 72
     0
 73
     0
 74
     0
 75
     0
 76
     0
 77
     3
 78
     8
170
     0
171
     2
172
     1
173
     0
174
     0
175
     0
176
   256
177
   256
178
    40
  0
DIMSTYLE
  2
TECHNICAL_OSAKA$SF
 70
     0
  3

  4
"
  5
OPEN30
  6
OPEN30
  7
OPEN30
 40
1.0
 41
2.5
 42
1.0
 43
10.0
 44
1.0
 45
0.0
 46
0.0
 47
0.1
 48
0.1
140
3.5
141
0.0
142
0.0
143
0.0393701
144
1.0
145
0.0
146
0.71
147
1.5
 71
     0
 72
     0
 73
     0
 74
     0
 75
     1
 76
     1
 77
     3
 78
     8
170
     0
171
     2
172
     1
173
     0
174
     0
175
     0
176
   256
177
   256
178
    40
  0
DIMSTYLE
  2
TECHNICAL_OSAKA$SH
 70
     0
  3

  4
"
  5
OPEN30
  6
GENAXEH
  7
OPEN30
 40
1.0
 41
2.5
 42
1.0
 43
10.0
 44
1.0
 45
0.0
 46
0.0
 47
0.1
 48
0.1
140
3.5
141
0.0
142
0.0
143
0.0393701
144
2.0
145
0.0
146
0.71
147
1.5
 71
     0
 72
     0
 73
     0
 74
     0
 75
     1
 76
     1
 77
     3
 78
     8
170
     0
171
     2
172
     1
173
     1
174
     0
175
     0
176
   256
177
   256
178
    40
  0
ENDTAB
  0
ENDSEC
  0
SECTION
  2
BLOCKS
  0
BLOCK
  8
0
  2
$MODEL_SPACE
 70
     0
 10
0.0
 20
0.0
 30
0.0
  3
$MODEL_SPACE
  1

  0
ENDBLK
  5
1C
  8
0
  0
BLOCK
 67
     1
  8
0
  2
$PAPER_SPACE
 70
     0
 10
0.0
 20
0.0
 30
0.0
  3
$PAPER_SPACE
  1

  0
ENDBLK
  5
19
 67
     1
  8
0
  0
BLOCK
  8
0
  2
_OPEN
 70
     0
 10
0.0
 20
0.0
 30
0.0
  3
_OPEN
  1

  0
LINE
  5
447C
  8
0
  6
BYBLOCK
 62
     0
 10
-1.0
 20
0.1666666666666666
 30
0.0
 11
0.0
 21
0.0
 31
0.0
  0
LINE
  5
447D
  8
0
  6
BYBLOCK
 62
     0
 10
-1.0
 20
-0.1666666666666666
 30
0.0
 11
0.0
 21
0.0
 31
0.0
  0
LINE
  5
447E
  8
0
  6
BYBLOCK
 62
     0
 10
0.0
 20
0.0
 30
0.0
 11
-1.0
 21
0.0
 31
0.0
  0
ENDBLK
  5
447F
  8
0
  0
BLOCK
  8
0
  2
GENAXEH
 70
     0
 10
0.0
 20
0.0
 30
0.0
  3
GENAXEH
  1

  0
LINE
  5
44B7
  8
0
 10
-1.0
 20
0.0
 30
0.0
 11
1.0
 21
0.0
 31
0.0
  0
ENDBLK
  5
44B8
  8
0
  0
BLOCK
  8
0
  2
_OPEN30
 70
     0
 10
0.0
 20
0.0
 30
0.0
  3
_OPEN30
  1

  0
LINE
  5
44F3
  8
0
  6
BYBLOCK
 62
     0
 10
-1.0
 20
0.26794919
 30
0.0
 11
0.0
 21
0.0
 31
0.0
  0
LINE
  5
44F4
  8
0
  6
BYBLOCK
 62
     0
 10
0.0
 20
0.0
 30
0.0
 11
-1.0
 21
-0.26794919
 31
0.0
  0
LINE
  5
44F5
  8
0
  6
BYBLOCK
 62
     0
 10
0.0
 20
0.0
 30
0.0
 11
-1.0
 21
0.0
 31
0.0
  0
ENDBLK
  5
44F6
  8
0
  0
ENDSEC
  0
SECTION
  2
ENTITIES
  0
TEXT
  5
423D
  8
241
  6
CONTINUOUS
 10
0.0
 20
49.0
 30
0.0
 40
5.0
  1
ST32-HMC12J-160
  7
YOKO
 11
0.0
 21
49.0
 31
0.0
 73
     1
  0
LINE
  5
423E
  8
250
  6
CONTINUOUS
 10
0.0000000000000001
 20
16.499999999999961
 30
0.0
 11
0.0000000000000013
 21
36.0
 31
0.0
  0
LINE
  5
423F
  8
250
  6
CONTINUOUS
 10
159.99999999999861
 20
12.84529946162084
 30
0.0
 11
159.99999999999861
 21
36.0
 31
0.0
  0
LINE
  5
4240
  8
250
  6
CONTINUOUS
 10
2.23
 20
35.0
 30
0.0
 11
157.76999999999859
 21
35.0
 31
0.0
  0
LINE
  5
4241
  8
250
  6
CONTINUOUS
 10
2.23
 20
34.62833333333333
 30
0.0
 11
0.0000000000000012
 21
35.0
 31
0.0
  0
LINE
  5
4242
  8
250
  6
CONTINUOUS
 10
2.23
 20
35.37166666666667
 30
0.0
 11
0.0000000000000012
 21
35.0
 31
0.0
  0
LINE
  5
4243
  8
250
  6
CONTINUOUS
 10
0.0000000000000012
 20
35.0
 30
0.0
 11
2.23
 21
35.0
 31
0.0
  0
LINE
  5
4244
  8
250
  6
CONTINUOUS
 10
157.76999999999859
 20
35.37166666666667
 30
0.0
 11
159.99999999999861
 21
35.0
 31
0.0
  0
LINE
  5
4245
  8
250
  6
CONTINUOUS
 10
157.76999999999859
 20
34.62833333333333
 30
0.0
 11
159.99999999999861
 21
35.0
 31
0.0
  0
LINE
  5
4246
  8
250
  6
CONTINUOUS
 10
159.99999999999861
 20
35.0
 30
0.0
 11
157.76999999999859
 21
35.0
 31
0.0
  0
TEXT
  5
4247
  8
250
  6
CONTINUOUS
 10
73.129898763170914
 20
36.0
 30
0.0
 40
3.0
  1
160
1001
ACAD
1000
MTEXTBEGIN
1070
    73
1070
     1
1070
    44
1040
1.0
1070
    74
1070
     0
1000
MTEXTEND
  0
LINE
  5
4248
  8
250
  6
CONTINUOUS
 10
-0.5000000000000452
 20
-16.0
 30
0.0
 11
-15.000000000000011
 21
-15.999999999999989
 31
0.0
  0
LINE
  5
4249
  8
250
  6
CONTINUOUS
 10
-0.4999999999999833
 20
16.0
 30
0.0
 11
-15.0
 21
16.0
 31
0.0
  0
LINE
  5
424A
  8
250
  6
CONTINUOUS
 10
-14.000000000000011
 20
-13.769999999999991
 30
0.0
 11
-14.0
 21
13.77
 31
0.0
  0
LINE
  5
424B
  8
250
  6
CONTINUOUS
 10
-13.628333333333339
 20
-13.769999999999991
 30
0.0
 11
-14.000000000000011
 21
-15.999999999999989
 31
0.0
  0
LINE
  5
424C
  8
250
  6
CONTINUOUS
 10
-14.37166666666667
 20
-13.769999999999991
 30
0.0
 11
-14.000000000000011
 21
-15.999999999999989
 31
0.0
  0
LINE
  5
424D
  8
250
  6
CONTINUOUS
 10
-14.000000000000011
 20
-15.999999999999989
 30
0.0
 11
-14.000000000000011
 21
-13.769999999999991
 31
0.0
  0
LINE
  5
424E
  8
250
  6
CONTINUOUS
 10
-14.371666666666661
 20
13.77
 30
0.0
 11
-14.0
 21
16.0
 31
0.0
  0
LINE
  5
424F
  8
250
  6
CONTINUOUS
 10
-13.62833333333333
 20
13.77
 30
0.0
 11
-14.0
 21
16.0
 31
0.0
  0
LINE
  5
4250
  8
250
  6
CONTINUOUS
 10
-14.0
 20
16.0
 30
0.0
 11
-14.0
 21
13.77
 31
0.0
  0
TEXT
  5
4251
  8
250
  6
CONTINUOUS
 10
-15.0
 20
-4.2142857142857126
 30
0.0
 40
3.0
  1
\U+220532
 50
90.0
1001
ACAD
1000
MTEXTBEGIN
1070
    73
1070
     1
1070
    44
1040
1.0
1070
    74
1070
     0
1000
MTEXTEND
  0
LINE
  5
4258
  8
250
  6
CONTINUOUS
 10
95.000000000000284
 20
6.1999999999999016
 30
0.0
 11
95.000000000000284
 21
29.0
 31
0.0
  0
LINE
  5
4259
  8
250
  6
CONTINUOUS
 10
159.99999999999861
 20
12.84529946162078
 30
0.0
 11
159.99999999999861
 21
29.0
 31
0.0
  0
LINE
  5
425A
  8
250
  6
CONTINUOUS
 10
97.000000000000284
 20
28.0
 30
0.0
 11
157.99999999999861
 21
28.0
 31
0.0
  0
LINE
  5
425B
  8
250
  6
CONTINUOUS
 10
97.000000000000284
 20
27.666666666666671
 30
0.0
 11
95.000000000000284
 21
28.0
 31
0.0
  0
LINE
  5
425C
  8
250
  6
CONTINUOUS
 10
97.000000000000284
 20
28.333333333333329
 30
0.0
 11
95.000000000000284
 21
28.0
 31
0.0
  0
LINE
  5
425D
  8
250
  6
CONTINUOUS
 10
95.000000000000284
 20
28.0
 30
0.0
 11
97.000000000000284
 21
28.0
 31
0.0
  0
LINE
  5
425E
  8
250
  6
CONTINUOUS
 10
157.99999999999861
 20
28.333333333333329
 30
0.0
 11
159.99999999999861
 21
28.0
 31
0.0
  0
LINE
  5
425F
  8
250
  6
CONTINUOUS
 10
157.99999999999861
 20
27.666666666666671
 30
0.0
 11
159.99999999999861
 21
28.0
 31
0.0
  0
LINE
  5
4260
  8
250
  6
CONTINUOUS
 10
159.99999999999861
 20
28.0
 30
0.0
 11
157.99999999999861
 21
28.0
 31
0.0
  0
TEXT
  5
4261
  8
250
  6
CONTINUOUS
 10
116.1142857142851
 20
29.0
 30
0.0
 40
3.0
  1
üimax.65üj
1001
ACAD
1000
MTEXTBEGIN
1070
    73
1070
     1
1070
    44
1040
1.0
1070
    74
1070
     0
1000
MTEXTEND
  0
LINE
  5
4279
  8
245
  6
CENTER2
 10
-1.0000000000000699
 20
0.0
 30
0.0
 11
160.99999999999949
 21
-0.0000000000002416
 31
0.0
  0
LINE
  5
427A
  8
240
  6
CONTINUOUS
 10
0.0000000000000167
 20
15.99999999999997
 30
0.0
 11
119.9999999999997
 21
16.0
 31
0.0
  0
LINE
  5
427C
  8
240
  6
CONTINUOUS
 10
-0.0000000000000451
 20
-16.0
 30
0.0
 11
120.0
 21
-15.99999999999997
 31
0.0
  0
LINE
  5
427F
  8
240
  6
CONTINUOUS
 10
0.0000000000000167
 20
15.99999999999997
 30
0.0
 11
-0.0000000000000451
 21
-16.0
 31
0.0
  0
LINE
  5
4280
  8
240
  6
CONTINUOUS
 10
124.5000000000004
 20
17.499999999999972
 30
0.0
 11
120.8
 21
17.499999999999972
 31
0.0
  0
LINE
  5
4281
  8
240
  6
CONTINUOUS
 10
124.5000000000004
 20
-17.499999999999972
 30
0.0
 11
120.8
 21
-17.499999999999972
 31
0.0
  0
LINE
  5
4282
  8
240
  6
CONTINUOUS
 10
120.0
 20
-16.699999999999989
 30
0.0
 11
120.0
 21
-15.99999999999997
 31
0.0
  0
ARC
  5
4283
  8
240
  6
CONTINUOUS
 10
120.8
 20
-16.699999999999989
 30
0.0
 40
0.8
 50
180.0
 51
270.0
1001
ASK_MEN_XD
1005
4281
1070
     1
1005
4282
1070
     1
  0
LINE
  5
4284
  8
240
  6
CONTINUOUS
 10
120.0
 20
16.69999999999996
 30
0.0
 11
119.9999999999997
 21
16.0
 31
0.0
  0
ARC
  5
4285
  8
240
  6
CONTINUOUS
 10
120.8
 20
16.69999999999996
 30
0.0
 40
0.8
 50
90.0
 51
180.0
1001
ASK_MEN_XD
1005
4281
1070
     1
1005
4282
1070
     1
  0
LINE
  5
4286
  8
241
  6
CONTINUOUS
 10
124.9999999999994
 20
17.399999999999761
 30
0.0
 11
125.0
 21
-17.40000000000013
 31
0.0
  0
LINE
  5
4287
  8
240
  6
CONTINUOUS
 10
125.0
 20
-17.50000000000021
 30
0.0
 11
120.8
 21
-17.500000000000171
 31
0.0
  0
LINE
  5
4288
  8
240
  6
CONTINUOUS
 10
125.0000000000001
 20
17.499999999999851
 30
0.0
 11
120.8
 21
17.499999999999851
 31
0.0
  0
LINE
  5
42C2
  8
241
  6
CONTINUOUS
 10
120.0
 20
-15.99999999999994
 30
0.0
 11
120.0
 21
15.999999999999631
 31
0.0
  0
LINE
  5
432B
  8
240
  6
CONTINUOUS
 10
155.13397459621399
 20
15.99999999999975
 30
0.0
 11
141.14641016151151
 21
15.99999999999975
 31
0.0
  0
LINE
  5
432C
  8
240
  6
CONTINUOUS
 10
155.13397459621399
 20
-16.000000000000181
 30
0.0
 11
141.14641016151171
 21
-16.000000000000242
 31
0.0
  0
LINE
  5
432D
  8
243
  6
HIDDEN2
 10
152.89999999999921
 20
14.49999999999975
 30
0.0
 11
142.89999999999921
 21
14.49999999999975
 31
0.0
  0
LINE
  5
432E
  8
241
  6
CONTINUOUS
 10
150.89999999999921
 20
-2.0000000000001839
 30
0.0
 11
144.89999999999921
 21
-2.0000000000001839
 31
0.0
  0
ARC
  5
432F
  8
241
  6
CONTINUOUS
 10
150.89999999999921
 20
-0.0000000000001844
 30
0.0
 40
2.0
 50
270.0
 51
89.999963675937977
  0
LINE
  5
4330
  8
243
  6
HIDDEN2
 10
152.8999999999993
 20
-14.500000000000121
 30
0.0
 11
142.89999999999921
 21
-14.50000000000006
 31
0.0
  0
LINE
  5
4331
  8
243
  6
HIDDEN2
 10
142.89999999999921
 20
-14.50000000000006
 30
0.0
 11
142.89999999999921
 21
-16.000000000000291
 31
0.0
  0
LINE
  5
4332
  8
243
  6
HIDDEN2
 10
152.8999999999993
 20
-14.500000000000121
 30
0.0
 11
152.8999999999993
 21
-16.00000000000006
 31
0.0
  0
LINE
  5
4333
  8
241
  6
CONTINUOUS
 10
130.39999999999921
 20
-16.000000000000352
 30
0.0
 11
130.39999999999921
 21
15.99999999999992
 31
0.0
  0
LINE
  5
4334
  8
243
  6
HIDDEN2
 10
142.89999999999921
 20
14.49999999999981
 30
0.0
 11
142.9000000000006
 21
15.999999999999689
 31
0.0
  0
LINE
  5
4335
  8
243
  6
HIDDEN2
 10
152.89999999999921
 20
14.49999999999975
 30
0.0
 11
152.8999999999981
 21
15.999999999999689
 31
0.0
  0
LINE
  5
4336
  8
241
  6
CONTINUOUS
 10
132.0999999999992
 20
-16.000000000000352
 30
0.0
 11
132.0999999999992
 21
15.99999999999992
 31
0.0
1001
ACAD
1000
ASC_BOUNDS
1002
{
1070
    19
1005
0
1002
}
  0
ARC
  5
4337
  8
240
  6
CONTINUOUS
 10
155.13397459621399
 20
13.99999999999981
 30
0.0
 40
2.0
 50
59.999999999999069
 51
90.0
1001
ASK_MEN_XD
1005
4338
1070
     1
1005
0
1070
     1
  0
LINE
  5
4338
  8
240
  6
CONTINUOUS
 10
158.99999999999821
 20
14.077350269189401
 30
0.0
 11
156.13397459621399
 21
15.732050807568591
 31
0.0
  0
ARC
  5
4339
  8
240
  6
CONTINUOUS
 10
157.99999999999821
 20
12.34529946162062
 30
0.0
 40
2.0
 50
0.0000000000032569
 51
59.999999999999069
1001
ASK_MEN_XD
1005
0
1070
     1
1005
4338
1070
     1
  0
ARC
  5
433A
  8
240
  6
CONTINUOUS
 10
155.13397459621399
 20
-14.000000000000121
 30
0.0
 40
2.0
 50
270.0
 51
300.0000000000008
1001
ASK_MEN_XD
1005
4338
1070
     1
1005
0
1070
     1
  0
LINE
  5
433B
  8
240
  6
CONTINUOUS
 10
158.99999999999821
 20
-14.07735026918977
 30
0.0
 11
156.13397459621399
 21
-15.73205080756896
 31
0.0
  0
ARC
  5
433C
  8
240
  6
CONTINUOUS
 10
157.99999999999821
 20
-12.345299461620931
 30
0.0
 40
2.0
 50
300.0000000000008
 51
359.99999999999682
1001
ASK_MEN_XD
1005
0
1070
     1
1005
4338
1070
     1
  0
LINE
  5
433D
  8
241
  6
CONTINUOUS
 10
155.66987298107611
 20
-15.92686608800472
 30
0.0
 11
155.66987298107611
 21
15.926866088004241
 31
0.0
1001
ASKOBJSC
1000
2/1
1001
ASKDWGSC
1040
1.0
  0
LINE
  5
433E
  8
240
  6
CONTINUOUS
 10
132.59999999999911
 20
-16.500000000000291
 30
0.0
 11
138.79999999999791
 21
-16.500000000000291
 31
0.0
1001
ACAD
1000
ASC_BOUNDS
1002
{
1070
    19
1005
0
1002
}
  0
LINE
  5
433F
  8
241
  6
CONTINUOUS
 10
139.4999999999979
 20
15.79999999999982
 30
0.0
 11
139.4999999999979
 21
-15.800000000000249
 31
0.0
1001
ACAD
1000
ASC_BOUNDS
1002
{
1070
    19
1005
0
1002
}
  0
LINE
  5
4340
  8
240
  6
CONTINUOUS
 10
139.4999999999979
 20
-15.800000000000249
 30
0.0
 11
138.79999999999791
 21
-16.500000000000291
 31
0.0
1001
ACAD
1000
ASC_BOUNDS
1002
{
1070
    19
1005
0
1002
}
  0
LINE
  5
4341
  8
240
  6
CONTINUOUS
 10
132.0999999999992
 20
-16.000000000000352
 30
0.0
 11
132.59999999999911
 21
-16.500000000000291
 31
0.0
1001
ACAD
1000
ASC_BOUNDS
1002
{
1070
    19
1005
0
1002
}
  0
LINE
  5
4342
  8
240
  6
CONTINUOUS
 10
132.0999999999992
 20
-16.000000000000352
 30
0.0
 11
130.39999999999921
 21
-16.000000000000352
 31
0.0
  0
LINE
  5
4343
  8
240
  6
CONTINUOUS
 10
130.39999999999921
 20
-16.000000000000291
 30
0.0
 11
128.9999999999994
 21
-17.400000000000141
 31
0.0
  0
LINE
  5
4344
  8
241
  6
CONTINUOUS
 10
140.79999999999791
 20
-15.800000000000249
 30
0.0
 11
140.79999999999791
 21
15.79999999999982
 31
0.0
  0
LINE
  5
4345
  8
240
  6
CONTINUOUS
 10
140.79999999999791
 20
-15.800000000000249
 30
0.0
 11
141.14641016151171
 21
-16.000000000000242
 31
0.0
  0
LINE
  5
4346
  8
240
  6
CONTINUOUS
 10
140.79999999999791
 20
-15.800000000000249
 30
0.0
 11
139.4999999999979
 21
-15.800000000000249
 31
0.0
  0
LINE
  5
4347
  8
240
  6
CONTINUOUS
 10
132.59999999999911
 20
16.499999999999979
 30
0.0
 11
138.79999999999791
 21
16.499999999999861
 31
0.0
  0
LINE
  5
4348
  8
240
  6
CONTINUOUS
 10
139.4999999999979
 20
15.79999999999993
 30
0.0
 11
138.79999999999791
 21
16.499999999999861
 31
0.0
  0
LINE
  5
4349
  8
240
  6
CONTINUOUS
 10
132.0999999999992
 20
15.99999999999998
 30
0.0
 11
132.5999999999992
 21
16.499999999999979
 31
0.0
  0
LINE
  5
434A
  8
240
  6
CONTINUOUS
 10
132.0999999999992
 20
15.99999999999998
 30
0.0
 11
130.39999999999921
 21
15.99999999999998
 31
0.0
  0
LINE
  5
434B
  8
240
  6
CONTINUOUS
 10
130.39999999999921
 20
15.99999999999998
 30
0.0
 11
128.99999999999949
 21
17.399999999999761
 31
0.0
  0
LINE
  5
434C
  8
240
  6
CONTINUOUS
 10
140.79999999999791
 20
15.79999999999993
 30
0.0
 11
141.14641016151151
 21
15.99999999999975
 31
0.0
  0
LINE
  5
434D
  8
240
  6
CONTINUOUS
 10
140.79999999999791
 20
15.79999999999993
 30
0.0
 11
139.4999999999979
 21
15.79999999999993
 31
0.0
  0
LINE
  5
434E
  8
241
  6
CONTINUOUS
 10
150.89999999999921
 20
1.999999999999758
 30
0.0
 11
144.89999999999921
 21
1.999999999999758
 31
0.0
  0
ARC
  5
434F
  8
241
  6
CONTINUOUS
 10
144.89999999999921
 20
-0.0000000000002412
 30
0.0
 40
2.0
 50
90.0
 51
270.00000112387471
  0
LINE
  5
4350
  8
240
  6
CONTINUOUS
 10
159.99999999999821
 20
-12.345299461621231
 30
0.0
 11
159.99999999999821
 21
12.345299461620829
 31
0.0
  0
LINE
  5
4351
  8
250
  6
CONTINUOUS
 10
155.66987298107611
 20
-16.000000000000121
 30
0.0
 11
184.9999999999996
 21
-16.000000000000131
 31
0.0
  0
LINE
  5
4352
  8
250
  6
CONTINUOUS
 10
155.66987298107611
 20
15.99999999999976
 30
0.0
 11
184.9999999999996
 21
15.999999999999741
 31
0.0
  0
LINE
  5
4353
  8
250
  6
CONTINUOUS
 10
183.9999999999996
 20
-14.00000000000013
 30
0.0
 11
183.9999999999996
 21
13.999999999999741
 31
0.0
  0
LINE
  5
4354
  8
250
  6
CONTINUOUS
 10
184.33333333333289
 20
-14.00000000000013
 30
0.0
 11
183.9999999999996
 21
-16.000000000000131
 31
0.0
  0
LINE
  5
4355
  8
250
  6
CONTINUOUS
 10
183.66666666666629
 20
-14.00000000000013
 30
0.0
 11
183.9999999999996
 21
-16.000000000000131
 31
0.0
  0
LINE
  5
4356
  8
250
  6
CONTINUOUS
 10
183.9999999999996
 20
-16.000000000000131
 30
0.0
 11
183.9999999999996
 21
-14.00000000000013
 31
0.0
  0
LINE
  5
4357
  8
250
  6
CONTINUOUS
 10
183.66666666666629
 20
13.999999999999741
 30
0.0
 11
183.9999999999996
 21
15.999999999999741
 31
0.0
  0
LINE
  5
4358
  8
250
  6
CONTINUOUS
 10
184.33333333333289
 20
13.999999999999741
 30
0.0
 11
183.9999999999996
 21
15.999999999999741
 31
0.0
  0
LINE
  5
4359
  8
250
  6
CONTINUOUS
 10
183.9999999999996
 20
15.999999999999741
 30
0.0
 11
183.9999999999996
 21
13.999999999999741
 31
0.0
  0
TEXT
  5
435A
  8
250
  6
CONTINUOUS
 10
182.9999999999996
 20
-3.933333333333509
 30
0.0
 40
2.799999999999998
  1
\U+2205
 50
90.0
  0
TEXT
  5
435B
  8
250
  6
CONTINUOUS
 10
182.9999999999996
 20
-1.400000000000176
 30
0.0
 40
2.799999999999998
  1
32
 50
90.0
  0
LINE
  5
435C
  8
250
  6
CONTINUOUS
 10
160.49999999999821
 20
5.999999999999857
 30
0.0
 11
177.9999999999996
 21
5.9999999999998543
 31
0.0
  0
LINE
  5
435D
  8
250
  6
CONTINUOUS
 10
176.9999999999996
 20
-4.0000000000002567
 30
0.0
 11
176.9999999999996
 21
3.9999999999998539
 31
0.0
  0
LINE
  5
435E
  8
250
  6
CONTINUOUS
 10
176.66666666666629
 20
3.9999999999998539
 30
0.0
 11
176.9999999999996
 21
5.9999999999998543
 31
0.0
  0
LINE
  5
435F
  8
250
  6
CONTINUOUS
 10
177.33333333333289
 20
3.9999999999998539
 30
0.0
 11
176.9999999999996
 21
5.9999999999998543
 31
0.0
  0
LINE
  5
4360
  8
250
  6
CONTINUOUS
 10
176.9999999999996
 20
5.9999999999998543
 30
0.0
 11
176.9999999999996
 21
3.9999999999998539
 31
0.0
  0
TEXT
  5
4361
  8
250
  6
CONTINUOUS
 10
175.9999999999996
 20
-3.9333333333335201
 30
0.0
 40
2.799999999999998
  1
\U+2205
 50
90.0
  0
TEXT
  5
4362
  8
250
  6
CONTINUOUS
 10
175.9999999999996
 20
-1.4000000000001871
 30
0.0
 40
2.799999999999998
  1
12
 50
90.0
  0
LINE
  5
4363
  8
250
  6
CONTINUOUS
 10
160.49999999999821
 20
-6.0000000000003713
 30
0.0
 11
177.99999999999969
 21
-6.0000000000000657
 31
0.0
  0
LINE
  5
4364
  8
250
  6
CONTINUOUS
 10
176.66666666666629
 20
-4.0000000000000879
 30
0.0
 11
176.99999999999969
 21
-6.0000000000000826
 31
0.0
  0
LINE
  5
4365
  8
250
  6
CONTINUOUS
 10
177.333333333333
 20
-4.0000000000000773
 30
0.0
 11
176.99999999999969
 21
-6.0000000000000826
 31
0.0
  0
LINE
  5
4366
  8
250
  6
CONTINUOUS
 10
176.99999999999969
 20
-6.0000000000000826
 30
0.0
 11
176.99999999999969
 21
-4.0000000000000826
 31
0.0
  0
TEXT
  5
4367
  8
250
  6
CONTINUOUS
 10
160.7492711759316
 20
8.8635178416774352
 30
0.0
 40
2.799999999999998
  1
Coolant
  7
YOKO
 11
160.7492711759316
 21
8.8635178416774352
 31
0.0
 73
     1
  0
LINE
  5
4368
  8
250
  6
CONTINUOUS
 10
174.27856228415121
 20
7.621666666666556
 30
0.0
 11
176.5085622841512
 21
7.2499999999998748
 31
0.0
  0
LINE
  5
4369
  8
250
  6
CONTINUOUS
 10
174.27856228415121
 20
6.8783333333332228
 30
0.0
 11
176.5085622841512
 21
7.2499999999998748
 31
0.0
  0
LINE
  5
436A
  8
250
  6
CONTINUOUS
 10
176.5085622841512
 20
7.2499999999998748
 30
0.0
 11
174.27856228415121
 21
7.2499999999998748
 31
0.0
  0
LINE
  5
436B
  8
250
  6
CONTINUOUS
 10
174.27856228415121
 20
7.2499999999998748
 30
0.0
 11
160.99999999999559
 21
7.2499999999998748
 31
0.0
  0
LINE
  5
436C
  8
250
  6
CONTINUOUS
 10
174.27856228415129
 20
-7.6216666666669051
 30
0.0
 11
176.50856228415131
 21
-7.2500000000002167
 31
0.0
  0
LINE
  5
436D
  8
250
  6
CONTINUOUS
 10
174.27856228415129
 20
-6.8783333333335728
 30
0.0
 11
176.50856228415131
 21
-7.2500000000002167
 31
0.0
  0
LINE
  5
436E
  8
250
  6
CONTINUOUS
 10
176.50856228415131
 20
-7.2500000000002167
 30
0.0
 11
174.27856228415129
 21
-7.2500000000002247
 31
0.0
  0
LINE
  5
436F
  8
250
  6
CONTINUOUS
 10
174.27856228415129
 20
-7.2500000000002247
 30
0.0
 11
160.99999999999559
 21
-7.2500000000002727
 31
0.0
  0
TEXT
  5
4370
  8
250
  6
CONTINUOUS
 10
161.1262760792001
 20
-11.3126936845195
 30
0.0
 40
2.799999999999998
  1
Coolant
  7
YOKO
 11
161.1262760792001
 21
-11.3126936845195
 31
0.0
 73
     1
  0
LINE
  5
4371
  8
240
  6
CONTINUOUS
 10
124.9999999999997
 20
17.399999999999761
 30
0.0
 11
128.99999999999949
 21
17.399999999999761
 31
0.0
1001
GRPNAME
1000
PASTMD06
  0
LINE
  5
4372
  8
240
  6
CONTINUOUS
 10
124.9999999999997
 20
-17.40000000000013
 30
0.0
 11
128.9999999999994
 21
-17.400000000000141
 31
0.0
1001
GRPNAME
1000
PASTMD06
  0
LINE
  5
4373
  8
243
  6
HIDDEN2
 10
107.3609424687281
 20
5.9999999999998757
 30
0.0
 11
159.99999999999869
 21
5.999999999999857
 31
0.0
  0
LINE
  5
4374
  8
243
  6
HIDDEN2
 10
107.3609424687281
 20
-6.0000000000002283
 30
0.0
 11
159.99999999999869
 21
-6.0000000000002514
 31
0.0
  0
LINE
  5
437C
  8
240
  6
CONTINUOUS
 10
125.0000000000001
 20
17.399999999999761
 30
0.0
 11
125.0000000000001
 21
17.499999999999851
 31
0.0
  0
LINE
  5
437D
  8
240
  6
CONTINUOUS
 10
124.9999999999997
 20
-17.40000000000013
 30
0.0
 11
124.9999999999997
 21
-17.50000000000021
 31
0.0
  0
LINE
  5
43BD
  8
250
  6
CONTINUOUS
 10
23.696156345059389
 20
-17.74540331721515
 30
0.0
 11
25.133029119999989
 21
-16.000000000000011
 31
0.0
  0
LINE
  5
43BE
  8
250
  6
CONTINUOUS
 10
24.33990189523406
 20
-18.117069983832909
 30
0.0
 11
25.133029119999989
 21
-16.000000000000011
 31
0.0
  0
LINE
  5
43BF
  8
250
  6
CONTINUOUS
 10
25.133029119999989
 20
-16.000000000000011
 30
0.0
 11
24.018029120146728
 21
-17.931236650524031
 31
0.0
  0
LINE
  5
43C0
  8
250
  6
CONTINUOUS
 10
24.018029120146728
 20
-17.931236650524031
 30
0.0
 11
18.05606603999999
 21
-28.257659620000009
 31
0.0
1001
ACAD
1000
DSTYLE
1002
{
1070
     6
1000
OPEN
1070
   343
1005
594
1002
}
  0
TEXT
  5
43C1
  8
250
  6
CONTINUOUS
 10
5.5227327099999846
 20
-27.257659620000009
 30
0.0
 40
2.7999999999999989
  1
ST32
  7
YOKO
1001
ITEMNAME
1000
LNSP3
  0
LINE
  5
43C2
  8
250
  6
CONTINUOUS
 10
18.05606603999999
 20
-28.257659620000009
 30
0.0
 11
3.122732709999986
 21
-28.257659620000009
 31
0.0
1001
ITEMNAME
1000
LNSP2
  0
LINE
  5
43C3
  8
247
  6
CONTINUOUS
 10
6.7499999999299831
 20
-10.000000000000011
 30
0.0
 11
13.44230769196999
 21
-10.000000000000011
 31
0.0
  0
ARC
  5
43C4
  8
247
  6
CONTINUOUS
 10
6.7499999999299831
 20
-8.2500000000700453
 30
0.0
 40
1.7499999999299991
 50
90.0
 51
270.0
  0
ARC
  5
43C5
  8
247
  6
CONTINUOUS
 10
13.44230769196999
 20
-8.2500000000700453
 30
0.0
 40
1.7499999999299991
 50
270.0
 51
90.0
  0
LINE
  5
43C6
  8
247
  6
CONTINUOUS
 10
7.6153846152799778
 20
-6.5000000001400764
 30
0.0
 11
6.7551484580379793
 21
-9.5000000000200231
 31
0.0
  0
LINE
  5
43C7
  8
247
  6
CONTINUOUS
 10
8.5150161816641656
 20
-7.9230769231599112
 30
0.0
 11
7.2073238740241692
 21
-7.9230769231599112
 31
0.0
  0
ARC
  5
43C8
  8
247
  6
CONTINUOUS
 10
8.8548561839102007
 20
-7.049598667702881
 30
0.0
 40
0.5538165441895349
 50
342.99788967529543
 51
82.924166218512752
  0
ARC
  5
43C9
  8
247
  6
CONTINUOUS
 10
8.4331216769711972
 20
-6.9360330444658436
 30
0.0
 40
0.9904354236226808
 50
274.74293685220141
 51
343.84922627326642
1001
GENIUS_GENOBJ-N-FIL_13
1002
{
1000
OWNER
1000
GEN
1002
}
1001
GENIUS_GENODEF_13
1002
{
1000
HIER
1070
     0
1002
}
1002
{
1000
MANEDIT
1070
     0
1002
}
1002
{
1000
NOSEL
1070
     0
1002
}
1002
{
1000
BEHIND
1070
     0
1002
}
1002
{
1000
OTHER
1070
     0
1002
}
1002
{
1000
REACTOR
1002
}
  0
LINE
  5
43CA
  8
247
  6
CONTINUOUS
 10
8.0628407656779757
 20
-9.5000000000200231
 30
0.0
 11
6.7551484580379793
 21
-9.5000000000200231
 31
0.0
  0
LINE
  5
43CB
  8
247
  6
CONTINUOUS
 10
7.6153846152799778
 20
-6.5000000001400764
 30
0.0
 11
8.9230769229199893
 21
-6.5000000001400764
 31
0.0
  0
ARC
  5
43CC
  8
247
  6
CONTINUOUS
 10
8.4390803634530158
 20
-8.4820242326654949
 30
0.0
 40
0.5640818586791229
 50
335.99094165252171
 51
82.263443459069109
  0
ARC
  5
43CD
  8
247
  6
CONTINUOUS
 10
7.9617373146529209
 20
-8.487429039186523
 30
0.0
 40
1.0176059446230981
 50
275.70198516425808
 51
347.27733843682228
1001
GENIUS_GENOBJ-N-FIL_13
1002
{
1000
OWNER
1000
GEN
1002
}
1001
GENIUS_GENODEF_13
1002
{
1000
HIER
1070
     0
1002
}
1002
{
1000
MANEDIT
1070
     0
1002
}
1002
{
1000
NOSEL
1070
     0
1002
}
1002
{
1000
BEHIND
1070
     0
1002
}
1002
{
1000
OTHER
1070
     0
1002
}
1002
{
1000
REACTOR
1002
}
  0
LINE
  5
43CE
  8
247
  6
CONTINUOUS
 10
9.7166869194579846
 20
-9.5000000000200231
 30
0.0
 11
10.57692307669998
 21
-6.5000000001400764
 31
0.0
  0
LINE
  5
43CF
  8
247
  6
CONTINUOUS
 10
12.99999999967998
 20
-6.5000000001400764
 30
0.0
 11
12.43426338054338
 21
-6.5000000001400764
 31
0.0
  0
LINE
  5
43D0
  8
247
  6
CONTINUOUS
 10
11.538461538199989
 20
-9.5000000000200231
 30
0.0
 11
12.15384615355998
 21
-9.5000000000200231
 31
0.0
  0
ARC
  5
43D1
  8
247
  6
CONTINUOUS
 10
13.291208790877119
 20
-8.5832851359733837
 30
0.0
 40
2.2526500823422122
 50
112.35948814153041
 51
164.99324854284609
  0
ARC
  5
43D2
  8
247
  6
CONTINUOUS
 10
12.625930520786749
 20
-7.308312655194654
 30
0.0
 40
0.8906723995727782
 50
4.9945893190753656
 51
65.166328957300863
1001
GENIUS_GENOBJ-N-FIL_13
1002
{
1000
OWNER
1000
GEN
1002
}
1001
GENIUS_GENODEF_13
1002
{
1000
HIER
1070
     0
1002
}
1002
{
1000
MANEDIT
1070
     0
1002
}
1002
{
1000
NOSEL
1070
     0
1002
}
1002
{
1000
BEHIND
1070
     0
1002
}
1002
{
1000
OTHER
1070
     0
1002
}
1002
{
1000
REACTOR
1002
}
  0
ARC
  5
43D3
  8
247
  6
CONTINUOUS
 10
11.773541113787401
 20
-8.1601458886677989
 30
0.0
 40
1.392781735586712
 50
285.84609655578072
 51
352.32513700416251
  0
ARC
  5
43D4
  8
247
  6
CONTINUOUS
 10
12.35778727415962
 20
-8.4592434315272982
 30
0.0
 40
1.324563662670287
 50
159.71360167049011
 51
231.7887456564128
1001
GENIUS_GENOBJ-N-FIL_13
1002
{
1000
OWNER
1000
GEN
1002
}
1001
GENIUS_GENODEF_13
1002
{
1000
HIER
1070
     0
1002
}
1002
{
1000
MANEDIT
1070
     0
1002
}
1002
{
1000
NOSEL
1070
     0
1002
}
1002
{
1000
BEHIND
1070
     0
1002
}
1002
{
1000
OTHER
1070
     0
1002
}
1002
{
1000
REACTOR
1002
}
  0
LINE
  5
43D5
  8
247
  6
CONTINUOUS
 10
12.46153846123998
 20
-8.3461538462199911
 30
0.0
 11
13.15384615351998
 21
-8.3461538462199911
 31
0.0
  0
LINE
  5
43D6
  8
247
  6
CONTINUOUS
 10
6.7499999999299538
 20
-6.5000000001400764
 30
0.0
 11
7.4230769229799156
 21
-6.5000000001400764
 31
0.0
  0
VIEWPORT
  5
22
 67
     1
  8
0
 10
261.51769911504419
 20
148.5
 30
0.0
 40
523.0353982300885
 41
297.0
 68
     1
 69
     1
1001
ACAD
1000
MVIEW
1002
{
1070
    16
1010
0.0
1020
0.0
1030
0.0
1010
0.0
1020
0.0
1030
1.0
1040
0.0
1040
297.0
1040
261.51769911504419
1040
148.5
1040
50.0
1040
0.0
1040
0.0
1070
     0
1070
   100
1070
     1
1070
     1
1070
     0
1070
     0
1070
     0
1070
     0
1040
0.0
1040
0.0
1040
0.0
1040
1.0
1040
1.0
1040
10.0
1040
10.0
1070
     0
1002
{
1002
}
1002
}
1001
GENIUS_GENODEF_13
1002
{
1000
HIER
1070
     0
1002
}
1002
{
1000
MANEDIT
1070
     0
1002
}
1002
{
1000
NOSEL
1070
     0
1002
}
1002
{
1000
BEHIND
1070
     0
1002
}
1002
{
1000
OTHER
1070
     0
1002
}
1002
{
1000
REACTOR
1002
}
1001
GENIUS_GENOBJ-N-SDF_13
1002
{
1000
OWNER
1000
GEN
1002
}
1001
GENIUS_GENSCREG_15
1000
PF
1040
1.0
1000
DF
1040
1.0
1000
MIN
1011
0.0
1021
0.0
1031
0.0
1021
0.0
1031
0.0
1000
MAX
1011
523.0353982300885
1021
0.0
1031
0.0
1021
297.0
1031
0.0
1000
FLAGS
1070
     4
  0
ENDSEC
  0
EOF
