  0
SECTION
  2
HEADER
  9
$ACADVER
  1
AC1009
  9
$INSBASE
 10
0.0
 20
0.0
 30
0.0
  9
$EXTMIN
 10
-17.999999999999989
 20
-35.257659619999998
 30
0.0
  9
$EXTMAX
 10
144.9999999999996
 20
54.000000000000043
 30
0.0
  9
$LIMMIN
 10
0.0
 20
0.0
  9
$LIMMAX
 10
297.0
 20
210.0
  9
$ORTHOMODE
 70
     0
  9
$REGENMODE
 70
     1
  9
$FILLMODE
 70
     1
  9
$QTEXTMODE
 70
     0
  9
$MIRRTEXT
 70
     1
  9
$DRAGMODE
 70
     2
  9
$LTSCALE
 40
10.0
  9
$OSMODE
 70
    35
  9
$ATTMODE
 70
     1
  9
$TEXTSIZE
 40
3.0
  9
$TRACEWID
 40
1.0
  9
$TEXTSTYLE
  7
YOKO
  9
$CLAYER
  8
240
  9
$CELTYPE
  6
BYLAYER
  9
$CECOLOR
 62
   256
  9
$DIMSCALE
 40
1.0
  9
$DIMASZ
 40
2.2299999999999991
  9
$DIMEXO
 40
0.5
  9
$DIMDLI
 40
7.0
  9
$DIMRND
 40
0.0
  9
$DIMDLE
 40
0.0
  9
$DIMEXE
 40
1.0
  9
$DIMTP
 40
0.0
  9
$DIMTM
 40
0.01
  9
$DIMTXT
 40
2.799999999999998
  9
$DIMCEN
 40
0.0
  9
$DIMTSZ
 40
0.0
  9
$DIMTOL
 70
     0
  9
$DIMLIM
 70
     0
  9
$DIMTIH
 70
     0
  9
$DIMTOH
 70
     0
  9
$DIMSE1
 70
     0
  9
$DIMSE2
 70
     0
  9
$DIMTAD
 70
     3
  9
$DIMZIN
 70
     9
  9
$DIMBLK
  1
OPEN
  9
$DIMASO
 70
     1
  9
$DIMSHO
 70
     1
  9
$DIMPOST
  1

  9
$DIMAPOST
  1

  9
$DIMALT
 70
     0
  9
$DIMALTD
 70
     2
  9
$DIMALTF
 40
25.399999999999999
  9
$DIMLFAC
 40
1.0
  9
$DIMTOFL
 70
     1
  9
$DIMTVP
 40
0.0
  9
$DIMTIX
 70
     1
  9
$DIMSOXD
 70
     0
  9
$DIMSAH
 70
     0
  9
$DIMBLK1
  1

  9
$DIMBLK2
  1

  9
$DIMSTYLE
  2
BIGT
  9
$DIMCLRD
 70
   256
  9
$DIMCLRE
 70
   256
  9
$DIMCLRT
 70
    40
  9
$DIMTFAC
 40
1.0
  9
$DIMGAP
 40
1.0
  9
$LUNITS
 70
     2
  9
$LUPREC
 70
     6
  9
$SKETCHINC
 40
1.0
  9
$FILLETRAD
 40
0.0
  9
$AUNITS
 70
     0
  9
$AUPREC
 70
     6
  9
$MENU
  1
.
  9
$ELEVATION
 40
0.0
  9
$PELEVATION
 40
0.0
  9
$THICKNESS
 40
0.0
  9
$LIMCHECK
 70
     0
  9
$BLIPMODE
 70
     0
  9
$CHAMFERA
 40
0.2
  9
$CHAMFERB
 40
0.2
  9
$SKPOLY
 70
     0
  9
$TDCREATE
 40
2457634.4149162732
  9
$TDUPDATE
 40
2457744.653288947
  9
$TDINDWG
 40
0.0225628241
  9
$TDUSRTIMER
 40
0.0225626852
  9
$USRTIMER
 70
     1
  9
$ANGBASE
 50
0.0
  9
$ANGDIR
 70
     0
  9
$PDMODE
 70
     1
  9
$PDSIZE
 40
0.0
  9
$PLINEWID
 40
0.0
  9
$COORDS
 70
     1
  9
$SPLFRAME
 70
     0
  9
$SPLINETYPE
 70
     6
  9
$SPLINESEGS
 70
     4
  9
$ATTDIA
 70
     1
  9
$ATTREQ
 70
     1
  9
$HANDLING
 70
     1
  9
$HANDSEED
  5
4983
  9
$SURFTAB1
 70
     6
  9
$SURFTAB2
 70
     6
  9
$SURFTYPE
 70
     6
  9
$SURFU
 70
     6
  9
$SURFV
 70
     6
  9
$UCSNAME
  2

  9
$UCSORG
 10
0.0
 20
0.0
 30
0.0
  9
$UCSXDIR
 10
1.0
 20
0.0
 30
0.0
  9
$UCSYDIR
 10
0.0
 20
1.0
 30
0.0
  9
$PUCSNAME
  2

  9
$PUCSORG
 10
0.0
 20
0.0
 30
0.0
  9
$PUCSXDIR
 10
1.0
 20
0.0
 30
0.0
  9
$PUCSYDIR
 10
0.0
 20
1.0
 30
0.0
  9
$USERI1
 70
     1
  9
$USERI2
 70
     0
  9
$USERI3
 70
     0
  9
$USERI4
 70
     0
  9
$USERI5
 70
     0
  9
$USERR1
 40
0.0
  9
$USERR2
 40
0.0
  9
$USERR3
 40
0.0
  9
$USERR4
 40
0.0
  9
$USERR5
 40
0.0
  9
$WORLDVIEW
 70
     1
  9
$SHADEDGE
 70
     3
  9
$SHADEDIF
 70
    70
  9
$TILEMODE
 70
     1
  9
$MAXACTVP
 70
    16
  9
$PLIMCHECK
 70
     0
  9
$PEXTMIN
 10
1.0000000000000000E+020
 20
1.0000000000000000E+020
 30
1.0000000000000000E+020
  9
$PEXTMAX
 10
-1.0000000000000000E+020
 20
-1.0000000000000000E+020
 30
-1.0000000000000000E+020
  9
$PLIMMIN
 10
0.0
 20
0.0
  9
$PLIMMAX
 10
420.0
 20
297.0
  9
$UNITMODE
 70
     0
  9
$VISRETAIN
 70
     1
  9
$PLINEGEN
 70
     0
  9
$PSLTSCALE
 70
     1
  0
ENDSEC
  0
SECTION
  2
TABLES
  0
TABLE
  2
VPORT
 70
     1
  0
VPORT
  2
*ACTIVE
 70
     0
 10
0.0
 20
0.0
 11
1.0
 21
1.0
 12
52.206537559011082
 22
5.7493970400903569
 13
0.0
 23
0.0
 14
7.0
 24
7.0
 15
7.0
 25
7.0
 16
0.0
 26
0.0
 36
1.0
 17
0.0
 27
0.0
 37
0.0
 40
176.96520220535771
 41
1.480832420591456
 42
50.0
 43
0.0
 44
0.0
 50
0.0
 51
0.0
 71
     0
 72
  2000
 73
     1
 74
     0
 75
     1
 76
     1
 77
     0
 78
     0
  0
ENDTAB
  0
TABLE
  2
LTYPE
 70
    16
  0
LTYPE
  2
CONTINUOUS
 70
     0
  3
Solid line
 72
    65
 73
     0
 40
0.0
  0
LTYPE
  2
CENTER2
 70
     0
  3
___ _ ___ _ ___ _ ___ _ ___ _ ___ _ ___ _ ___ _
 72
    65
 73
     4
 40
1.125
 49
0.75
 49
-0.125
 49
0.125
 49
-0.125
  0
LTYPE
  2
HIDDEN2
 70
     0
  3
_ _ _ _ _ _ _ _ _ _ _ _ _ _ _ _ _ _ _ _ _ _ _ _
 72
    65
 73
     2
 40
0.1875
 49
0.125
 49
-0.0625
  0
LTYPE
  2
PHANTOM2
 70
     0
  3
___ _ _ ___ _ _ ___ _ _ ___ _ _ ___ _ _ ___ _ _
 72
    65
 73
     6
 40
1.25
 49
0.625
 49
-0.125
 49
0.125
 49
-0.125
 49
0.125
 49
-0.125
  0
LTYPE
  2
CENTER
 70
     0
  3
____ _ ____ _ ____ _ ____ _ ____ _ ____ _ ____ 
 72
    65
 73
     4
 40
2.0
 49
1.25
 49
-0.25
 49
0.25
 49
-0.25
  0
LTYPE
  2
AMCONSTR
 70
     0
  3
_______________________
 72
    65
 73
     2
 40
9999.0
 49
9999.0
 49
0.0
  0
LTYPE
  2
HIDDEN
 70
     0
  3
Hidden __ __ __ __ __ __ __ __ __ __ __ __ __ _
 72
    65
 73
     2
 40
9.5249999999999986
 49
6.349999999999997
 49
-3.174999999999998
  0
LTYPE
  2
AMZIGZAG2
 70
     0
  3
/\/-/\/-/\/-/\/-/\/-/\/
 72
    65
 73
     2
 40
0.4401
 49
0.0001
 49
-0.4400000000000002
  0
LTYPE
  2
ACANSTGB
 70
     0
  3
__ . . __ . .
 72
    65
 73
     6
 40
0.35433070866
 49
0.15748031496
 49
-0.03937007874
 49
0.03937007874
 49
-0.03937007874
 49
0.03937007874
 49
-0.03937007874
  0
LTYPE
  2
ACANSTGL
 70
     0
  3
_ _ _ _ _
 72
    65
 73
     2
 40
0.11811023622
 49
0.07874015748
 49
-0.03937007874
  0
LTYPE
  2
AM_ISO02W050
 70
     0
  3
__ __ __ __ __ __ __ __ __ __ __ __ __ __ __
 72
    65
 73
     2
 40
7.5
 49
6.0
 49
-1.5
  0
LTYPE
  2
AM_ISO08W050
 70
     0
  3
____ . ____ . ____ . ____ . ____ . ____ . ____
 72
    65
 73
     4
 40
18.0
 49
12.0
 49
-1.5
 49
3.0
 49
-1.5
  0
LTYPE
  2
AM_ISO09W050
 70
     0
  3
_____ . . _____ . . _____ . . ____ .. ____
 72
    65
 73
     6
 40
22.5
 49
12.0
 49
-1.5
 49
3.0
 49
-1.5
 49
3.0
 49
-1.5
  0
LTYPE
  2
AM_ISO08W050X2
 70
     0
  3
__ . __ . __ . __ . __ . __
 72
    65
 73
     4
 40
9.0
 49
6.0
 49
-0.75
 49
1.5
 49
-0.75
  0
LTYPE
  2
AM_ISO02W050X2
 70
     0
  3
 _ _ _ _ _ _ _ _ _ _ _ _
 72
    65
 73
     2
 40
3.75
 49
3.0
 49
-0.75
  0
LTYPE
  2
AMZIGZAG
 70
     0
  3
/\/-/\/-/\/-/\/-/\/-/\/
 72
    65
 73
     2
 40
11.0001
 49
0.0001
 49
-11.0
  0
ENDTAB
  0
TABLE
  2
LAYER
 70
     8
  0
LAYER
  2
0
 70
     0
 62
     7
  6
CONTINUOUS
  0
LAYER
  2
240
 70
     0
 62
     4
  6
CONTINUOUS
  0
LAYER
  2
DEFPOINTS
 70
     0
 62
     7
  6
CONTINUOUS
  0
LAYER
  2
245
 70
     0
 62
     2
  6
CENTER2
  0
LAYER
  2
241
 70
     0
 62
   211
  6
CONTINUOUS
  0
LAYER
  2
243
 70
     0
 62
   211
  6
HIDDEN2
  0
LAYER
  2
250
 70
     0
 62
     3
  6
CONTINUOUS
  0
LAYER
  2
247
 70
     0
 62
    60
  6
CONTINUOUS
  0
ENDTAB
  0
TABLE
  2
STYLE
 70
     6
  0
STYLE
  2
STANDARD
 70
     0
 40
0.0
 41
1.0
 50
0.0
 71
     0
 42
3.0
  3
romans.shx
  4
extfont.shx
  0
STYLE
  2
ANNOTATIVE
 70
     0
 40
0.0
 41
1.0
 50
0.0
 71
     0
 42
0.2
  3
txt
  4

  0
STYLE
  2
YOKO
 70
     0
 40
0.0
 41
1.0
 50
0.0
 71
     0
 42
3.0
  3
romans.shx
  4
extfont.shx
  0
STYLE
  2

 70
     1
 40
0.0
 41
1.0
 50
0.0
 71
     0
 42
3.0
  3
genltshp.shx
  4

  0
STYLE
  2
ACANSGDT
 70
     0
 40
0.0
 41
1.0
 50
0.0
 71
     0
 42
3.0
  3
amgdt.shx
  4

  0
STYLE
  2
ACANSTS
 70
     0
 40
0.0
 41
1.0
 50
0.0
 71
     0
 42
3.0
  3
romans.shx
  4
extfont.shx
  0
ENDTAB
  0
TABLE
  2
VIEW
 70
     0
  0
ENDTAB
  0
TABLE
  2
UCS
 70
     0
  0
ENDTAB
  0
TABLE
  2
APPID
 70
    46
  0
APPID
  2
ACAD
 70
     0
  0
APPID
  2
ACADANNOTATIVE
 70
     0
  0
APPID
  2
GLOBAL
 70
     0
  0
APPID
  2
DETAIL
 70
     0
  0
APPID
  2
GRPNAME
 70
     0
  0
APPID
  2
GPARA
 70
     0
  0
APPID
  2
MCAD_NO_VIS
 70
     0
  0
APPID
  2
ACAD_TEMP_GRAPHIC
 70
     0
  0
APPID
  2
ACATTRIBSERVICES
 70
     0
  0
APPID
  2
GENIUS_GENSCREG_15
 70
     0
  0
APPID
  2
GENIUS_GENODEF_13
 70
     0
  0
APPID
  2
GENIUS_GENOBJ-N-SDF_13
 70
     0
  0
APPID
  2
GENIUS_GENREC_14
 70
     0
  0
APPID
  2
GENIUS_GENOBJ-N-REC_13
 70
     0
  0
APPID
  2
GENIUS_GENDIMSH_14
 70
     0
  0
APPID
  2
GENIUS_GENOBJ-N-DIM_13
 70
     0
  0
APPID
  2
GENIUS_GENDIM_13
 70
     0
  0
APPID
  2
GENIUS_GENDTOL_13
 70
     0
  0
APPID
  2
GENIUS_GENOLIS_13
 70
     0
  0
APPID
  2
GENIUS_GENOENT_13
 70
     0
  0
APPID
  2
GENIUS_GENOBJ-F-FEM_13
 70
     0
  0
APPID
  2
GENIUS_GENOREF_13
 70
     0
  0
APPID
  2
GENIUS_GEFFEM_13
 70
     0
  0
APPID
  2
GENIUS_GEFFEMP_13
 70
     0
  0
APPID
  2
AD_DRAW
 70
     0
  0
APPID
  2
DESIGNERASSEMBLIES
 70
     0
  0
APPID
  2
ACADM_DIM_EDIT
 70
     0
  0
APPID
  2
AMDT_DM_ADJ
 70
     0
  0
APPID
  2
ITEMNAME
 70
     0
  0
APPID
  2
GENIUS_GENOBJ-N-FIL_13
 70
     0
  0
APPID
  2
GENIUS_GENFIL_13
 70
     0
  0
APPID
  2
GENIUS_GENOBJ-N-CHA_13
 70
     0
  0
APPID
  2
ACAD_NAV_VCDISPLAY
 70
     0
  0
APPID
  2
ASK_MEN_XD
 70
     0
  0
APPID
  2
ASKOBJSC
 70
     0
  0
APPID
  2
ASKDWGSC
 70
     0
  0
APPID
  2
ACAD_PSEXT
 70
     0
  0
APPID
  2
ACAECLAYERSTANDARD
 70
     0
  0
APPID
  2
ACAD_EXEMPT_FROM_CAD_STANDARDS
 70
     0
  0
APPID
  2
ACAD_MLEADERVER
 70
     0
  0
APPID
  2
ACAD_DSTYLE_DIMJAG
 70
     0
  0
APPID
  2
ACAD_DSTYLE_DIMBREAK
 70
     0
  0
APPID
  2
ACAD_DSTYLE_DIMARC_LENGTH_
 70
     0
  0
APPID
  2
ACAD_DSTYLE_DIM_LINETYPE
 70
     0
  0
APPID
  2
ACAD_DSTYLE_DIM_EXT1_LINETYPE
 70
     0
  0
APPID
  2
ACAD_DSTYLE_DIM_EXT2_LINETYPE
 70
     0
  0
ENDTAB
  0
TABLE
  2
DIMSTYLE
 70
     9
  0
DIMSTYLE
  2
STANDARD
 70
     0
  3

  4

  5

  6

  7

 40
1.0
 41
0.18
 42
0.0625
 43
0.38
 44
0.18
 45
0.0
 46
0.0
 47
0.0
 48
0.0
140
0.18
141
0.09
142
0.0
143
25.399999999999999
144
1.0
145
0.0
146
1.0
147
0.09
 71
     0
 72
     0
 73
     1
 74
     1
 75
     0
 76
     0
 77
     0
 78
     0
170
     0
171
     2
172
     0
173
     0
174
     0
175
     0
176
     0
177
     0
178
     0
  0
DIMSTYLE
  2
ANNOTATIVE
 70
     0
  3

  4

  5

  6

  7

 40
1.0
 41
0.18
 42
0.0625
 43
0.38
 44
0.18
 45
0.0
 46
0.0
 47
0.0
 48
0.0
140
0.18
141
0.09
142
0.0
143
25.399999999999999
144
1.0
145
0.0
146
1.0
147
0.09
 71
     0
 72
     0
 73
     1
 74
     1
 75
     0
 76
     0
 77
     0
 78
     0
170
     0
171
     2
172
     0
173
     0
174
     0
175
     0
176
     0
177
     0
178
     0
  0
DIMSTYLE
  2
BIGT
 70
     0
  3

  4

  5

  6

  7

 40
1.0
 41
2.2299999999999991
 42
0.5
 43
7.0
 44
1.0
 45
0.0
 46
0.0
 47
0.0
 48
0.01
140
2.799999999999998
141
0.0
142
0.0
143
25.399999999999999
144
1.0
145
0.0
146
1.0
147
1.0
 71
     0
 72
     0
 73
     0
 74
     0
 75
     0
 76
     0
 77
     3
 78
     9
170
     0
171
     2
172
     1
173
     0
174
     1
175
     0
176
   256
177
   256
178
    40
  0
DIMSTYLE
  2
AM_ANSI
 70
     0
  3

  4
mm
  5

  6

  7

 40
1.0
 41
0.12
 42
0.05
 43
0.5
 44
0.1
 45
0.0
 46
0.0
 47
0.1
 48
0.1
140
0.12
141
0.0
142
0.0
143
25.399999999999999
144
1.0
145
0.0
146
0.71
147
0.06
 71
     0
 72
     0
 73
     1
 74
     1
 75
     0
 76
     0
 77
     0
 78
     7
170
     0
171
     2
172
     0
173
     0
174
     0
175
     0
176
   256
177
   256
178
     2
  0
DIMSTYLE
  2
AM_ANSI$3
 70
     0
  3

  4
mm
  5

  6

  7

 40
1.0
 41
0.12
 42
0.05
 43
0.5
 44
0.1
 45
0.0
 46
0.0
 47
0.1
 48
0.1
140
0.12
141
0.0
142
0.0
143
25.399999999999999
144
1.0
145
0.0
146
0.71
147
0.06
 71
     0
 72
     0
 73
     1
 74
     1
 75
     0
 76
     0
 77
     0
 78
     7
170
     0
171
     2
172
     0
173
     0
174
     0
175
     0
176
   256
177
   256
178
     2
  0
DIMSTYLE
  2
AM_ANSI$4
 70
     0
  3

  4
mm
  5

  6

  7

 40
1.0
 41
0.12
 42
0.05
 43
0.5
 44
0.1
 45
0.0
 46
0.0
 47
0.1
 48
0.1
140
0.12
141
0.0
142
0.0
143
25.399999999999999
144
1.0
145
0.0
146
0.71
147
0.06
 71
     0
 72
     0
 73
     1
 74
     1
 75
     0
 76
     0
 77
     0
 78
     7
170
     0
171
     2
172
     0
173
     0
174
     0
175
     0
176
   256
177
   256
178
     2
  0
DIMSTYLE
  2
AM_ANSI$7
 70
     0
  3

  4
mm
  5

  6

  7

 40
1.0
 41
0.12
 42
0.05
 43
0.5
 44
0.1
 45
0.0
 46
0.0
 47
0.1
 48
0.1
140
0.12
141
0.0
142
0.0
143
25.399999999999999
144
1.0
145
0.0
146
0.71
147
0.06
 71
     0
 72
     0
 73
     1
 74
     1
 75
     0
 76
     0
 77
     0
 78
     7
170
     0
171
     2
172
     0
173
     0
174
     0
175
     0
176
   256
177
   256
178
     2
  0
DIMSTYLE
  2
AM_ANSI$SF
 70
     0
  3

  4
mm
  5

  6

  7

 40
1.0
 41
0.12
 42
0.05
 43
0.5
 44
0.1
 45
0.0
 46
0.0
 47
0.1
 48
0.1
140
0.12
141
0.0
142
0.0
143
25.399999999999999
144
1.0
145
0.0
146
0.71
147
0.06
 71
     0
 72
     0
 73
     1
 74
     1
 75
     1
 76
     1
 77
     0
 78
     7
170
     0
171
     2
172
     0
173
     0
174
     0
175
     0
176
   256
177
   256
178
     2
  0
DIMSTYLE
  2
AM_ANSI$SH
 70
     0
  3

  4
mm
  5

  6

  7

 40
1.0
 41
0.12
 42
0.05
 43
0.5
 44
0.1
 45
0.0
 46
0.0
 47
0.1
 48
0.1
140
0.12
141
0.0
142
0.0
143
25.399999999999999
144
1.0
145
0.0
146
0.71
147
0.06
 71
     0
 72
     0
 73
     1
 74
     1
 75
     1
 76
     1
 77
     0
 78
     7
170
     0
171
     2
172
     0
173
     1
174
     0
175
     0
176
   256
177
   256
178
     2
  0
ENDTAB
  0
ENDSEC
  0
SECTION
  2
BLOCKS
  0
BLOCK
  8
0
  2
$MODEL_SPACE
 70
     0
 10
0.0
 20
0.0
 30
0.0
  3
$MODEL_SPACE
  1

  0
ENDBLK
  5
4863
  8
0
  0
BLOCK
 67
     1
  8
0
  2
$PAPER_SPACE
 70
     0
 10
0.0
 20
0.0
 30
0.0
  3
$PAPER_SPACE
  1

  0
ENDBLK
  5
485F
 67
     1
  8
0
  0
BLOCK
  8
0
  2
_OPEN
 70
     0
 10
0.0
 20
0.0
 30
0.0
  3
_OPEN
  1

  0
LINE
  5
3E1A
  8
0
  6
BYBLOCK
 62
     0
 10
-1.0
 20
0.1666666666666666
 30
0.0
 11
0.0
 21
0.0
 31
0.0
  0
LINE
  5
3E1B
  8
0
  6
BYBLOCK
 62
     0
 10
-1.0
 20
-0.1666666666666666
 30
0.0
 11
0.0
 21
0.0
 31
0.0
  0
LINE
  5
3E1C
  8
0
  6
BYBLOCK
 62
     0
 10
0.0
 20
0.0
 30
0.0
 11
-1.0
 21
0.0
 31
0.0
  0
ENDBLK
  5
3E1D
  8
0
  0
BLOCK
  8
0
  2
GENAXEH
 70
     0
 10
0.0
 20
0.0
 30
0.0
  3
GENAXEH
  1

  0
LINE
  5
3E45
  8
0
 10
-1.0
 20
0.0
 30
0.0
 11
1.0
 21
0.0
 31
0.0
  0
ENDBLK
  5
3E46
  8
0
  0
BLOCK
  8
0
  2
_ACMFILLEDHALF
 70
     0
 10
0.0
 20
0.0
 30
0.0
  3
_ACMFILLEDHALF
  1

  0
TRACE
  5
45A0
  8
240
 62
     0
 10
-0.8
 20
0.0
 30
0.0
 11
-1.0
 21
0.166666666
 31
0.0
 12
0.0
 22
0.0
 32
0.0
 13
0.0
 23
0.0
 33
0.0
  0
LINE
  5
45A1
  8
240
 62
     0
 10
-1.0
 20
0.0
 30
0.0
 11
-0.8
 21
0.0
 31
0.0
  0
ENDBLK
  5
459F
  8
0
  0
ENDSEC
  0
SECTION
  2
ENTITIES
  0
TEXT
  5
428D
  8
241
  6
CONTINUOUS
 10
0.0000000000000004
 20
49.000000000000021
 30
0.0
 40
5.0
  1
ST32-HMC12J-120
  7
YOKO
 11
0.0000000000000004
 21
49.000000000000021
 31
0.0
 73
     1
  0
LINE
  5
428E
  8
250
  6
CONTINUOUS
 10
0.0000000000000005
 20
16.499999999999979
 30
0.0
 11
0.0000000000000017
 21
36.000000000000007
 31
0.0
  0
LINE
  5
428F
  8
250
  6
CONTINUOUS
 10
119.99999999999859
 20
12.845299461620851
 30
0.0
 11
119.99999999999859
 21
36.000000000000007
 31
0.0
  0
LINE
  5
4290
  8
250
  6
CONTINUOUS
 10
2.2299999999999991
 20
35.000000000000021
 30
0.0
 11
117.7699999999986
 21
35.000000000000021
 31
0.0
  0
LINE
  5
4291
  8
250
  6
CONTINUOUS
 10
2.2299999999999991
 20
34.628333333333337
 30
0.0
 11
0.0000000000000016
 21
35.000000000000021
 31
0.0
  0
LINE
  5
4292
  8
250
  6
CONTINUOUS
 10
2.2299999999999991
 20
35.371666666666691
 30
0.0
 11
0.0000000000000016
 21
35.000000000000021
 31
0.0
  0
LINE
  5
4293
  8
250
  6
CONTINUOUS
 10
0.0000000000000016
 20
35.000000000000021
 30
0.0
 11
2.2299999999999991
 21
35.000000000000021
 31
0.0
  0
LINE
  5
4294
  8
250
  6
CONTINUOUS
 10
117.7699999999986
 20
35.371666666666691
 30
0.0
 11
119.99999999999859
 21
35.000000000000021
 31
0.0
  0
LINE
  5
4295
  8
250
  6
CONTINUOUS
 10
117.7699999999986
 20
34.628333333333337
 30
0.0
 11
119.99999999999859
 21
35.000000000000021
 31
0.0
  0
LINE
  5
4296
  8
250
  6
CONTINUOUS
 10
119.99999999999859
 20
35.000000000000021
 30
0.0
 11
117.7699999999986
 21
35.000000000000021
 31
0.0
  0
TEXT
  5
4297
  8
250
  6
CONTINUOUS
 10
56.704882327514952
 20
36.000000000000007
 30
0.0
 40
3.0
  1
120
1001
ACAD
1000
MTEXTBEGIN
1070
    73
1070
     1
1070
    44
1040
1.0
1070
    74
1070
     0
1000
MTEXTEND
  0
LINE
  5
4298
  8
250
  6
CONTINUOUS
 10
-0.4999999999999842
 20
-15.99999999999998
 30
0.0
 11
-15.000000000000011
 21
-15.99999999999997
 31
0.0
  0
LINE
  5
4299
  8
250
  6
CONTINUOUS
 10
-0.5000000000000152
 20
16.000000000000011
 30
0.0
 11
-15.0
 21
16.000000000000011
 31
0.0
  0
LINE
  5
429A
  8
250
  6
CONTINUOUS
 10
-14.000000000000011
 20
-13.769999999999969
 30
0.0
 11
-14.0
 21
13.77000000000001
 31
0.0
  0
LINE
  5
429B
  8
250
  6
CONTINUOUS
 10
-13.628333333333339
 20
-13.769999999999969
 30
0.0
 11
-14.000000000000011
 21
-15.99999999999997
 31
0.0
  0
LINE
  5
429C
  8
250
  6
CONTINUOUS
 10
-14.37166666666667
 20
-13.769999999999969
 30
0.0
 11
-14.000000000000011
 21
-15.99999999999997
 31
0.0
  0
LINE
  5
429D
  8
250
  6
CONTINUOUS
 10
-14.000000000000011
 20
-15.99999999999997
 30
0.0
 11
-14.000000000000011
 21
-13.769999999999969
 31
0.0
  0
LINE
  5
429E
  8
250
  6
CONTINUOUS
 10
-14.371666666666661
 20
13.77000000000001
 30
0.0
 11
-14.0
 21
16.000000000000011
 31
0.0
  0
LINE
  5
429F
  8
250
  6
CONTINUOUS
 10
-13.62833333333333
 20
13.77000000000001
 30
0.0
 11
-14.0
 21
16.000000000000011
 31
0.0
  0
LINE
  5
42A0
  8
250
  6
CONTINUOUS
 10
-14.0
 20
16.000000000000011
 30
0.0
 11
-14.0
 21
13.77000000000001
 31
0.0
  0
TEXT
  5
42A1
  8
250
  6
CONTINUOUS
 10
-15.0
 20
-4.2142857142856949
 30
0.0
 40
3.0
  1
\U+220532
 50
90.0
1001
ACAD
1000
MTEXTBEGIN
1070
    73
1070
     1
1070
    44
1040
1.0
1070
    74
1070
     0
1000
MTEXTEND
  0
LINE
  5
42A8
  8
250
  6
CONTINUOUS
 10
55.000000000000277
 20
6.1999999999999158
 30
0.0
 11
55.000000000000277
 21
29.000000000000021
 31
0.0
  0
LINE
  5
42A9
  8
250
  6
CONTINUOUS
 10
119.99999999999859
 20
12.84529946162079
 30
0.0
 11
119.99999999999859
 21
29.000000000000021
 31
0.0
  0
LINE
  5
42AA
  8
250
  6
CONTINUOUS
 10
57.00000000000027
 20
28.000000000000021
 30
0.0
 11
117.99999999999859
 21
28.000000000000021
 31
0.0
  0
LINE
  5
42AB
  8
250
  6
CONTINUOUS
 10
57.00000000000027
 20
27.666666666666689
 30
0.0
 11
55.000000000000277
 21
28.000000000000021
 31
0.0
  0
LINE
  5
42AC
  8
250
  6
CONTINUOUS
 10
57.00000000000027
 20
28.333333333333339
 30
0.0
 11
55.000000000000277
 21
28.000000000000021
 31
0.0
  0
LINE
  5
42AD
  8
250
  6
CONTINUOUS
 10
55.000000000000277
 20
28.000000000000021
 30
0.0
 11
57.00000000000027
 21
28.000000000000021
 31
0.0
  0
LINE
  5
42AE
  8
250
  6
CONTINUOUS
 10
117.99999999999859
 20
28.333333333333339
 30
0.0
 11
119.99999999999859
 21
28.000000000000021
 31
0.0
  0
LINE
  5
42AF
  8
250
  6
CONTINUOUS
 10
117.99999999999859
 20
27.666666666666689
 30
0.0
 11
119.99999999999859
 21
28.000000000000021
 31
0.0
  0
LINE
  5
42B0
  8
250
  6
CONTINUOUS
 10
119.99999999999859
 20
28.000000000000021
 30
0.0
 11
117.99999999999859
 21
28.000000000000021
 31
0.0
  0
TEXT
  5
42B1
  8
250
  6
CONTINUOUS
 10
76.11428571428516
 20
29.000000000000021
 30
0.0
 40
3.0
  1
üimax.65üj
1001
ACAD
1000
MTEXTBEGIN
1070
    73
1070
     1
1070
    44
1040
1.0
1070
    74
1070
     0
1000
MTEXTEND
  0
LINE
  5
42C9
  8
245
  6
CENTER2
 10
-1.0000000000000679
 20
0.0000000000000142
 30
0.0
 11
120.9999999999995
 21
-0.0000000000002256
 31
0.0
  0
LINE
  5
42CA
  8
240
  6
CONTINUOUS
 10
0.0000000000000171
 20
15.99999999999998
 30
0.0
 11
79.999999999999702
 21
16.000000000000011
 31
0.0
  0
LINE
  5
42CC
  8
240
  6
CONTINUOUS
 10
0.0000000000000159
 20
-15.99999999999998
 30
0.0
 11
80.000000000000028
 21
-15.99999999999995
 31
0.0
  0
LINE
  5
42CD
  8
240
  6
CONTINUOUS
 10
0.0000000000000159
 20
-15.99999999999998
 30
0.0
 11
-0.0000000000000151
 21
15.99999999999998
 31
0.0
  0
LINE
  5
42D0
  8
240
  6
CONTINUOUS
 10
84.500000000000455
 20
17.499999999999979
 30
0.0
 11
80.800000000000068
 21
17.499999999999979
 31
0.0
  0
LINE
  5
42D1
  8
240
  6
CONTINUOUS
 10
84.500000000000455
 20
-17.49999999999995
 30
0.0
 11
80.800000000000068
 21
-17.49999999999995
 31
0.0
  0
LINE
  5
42D2
  8
240
  6
CONTINUOUS
 10
80.000000000000057
 20
-16.699999999999982
 30
0.0
 11
80.000000000000028
 21
-15.99999999999995
 31
0.0
  0
ARC
  5
42D3
  8
240
  6
CONTINUOUS
 10
80.800000000000068
 20
-16.699999999999982
 30
0.0
 40
0.8
 50
180.0
 51
270.0
1001
ASK_MEN_XD
1005
42D1
1070
     1
1005
42D2
1070
     1
  0
LINE
  5
42D4
  8
240
  6
CONTINUOUS
 10
80.000000000000057
 20
16.699999999999971
 30
0.0
 11
79.999999999999702
 21
16.000000000000011
 31
0.0
  0
ARC
  5
42D5
  8
240
  6
CONTINUOUS
 10
80.800000000000068
 20
16.699999999999971
 30
0.0
 40
0.8
 50
90.0
 51
180.0
1001
ASK_MEN_XD
1005
42D1
1070
     1
1005
42D2
1070
     1
  0
LINE
  5
42D6
  8
241
  6
CONTINUOUS
 10
84.999999999999346
 20
17.399999999999771
 30
0.0
 11
85.000000000000028
 21
-17.400000000000102
 31
0.0
  0
LINE
  5
42D7
  8
240
  6
CONTINUOUS
 10
85.000000000000028
 20
-17.500000000000188
 30
0.0
 11
80.800000000000068
 21
-17.500000000000149
 31
0.0
  0
LINE
  5
42D8
  8
240
  6
CONTINUOUS
 10
85.000000000000142
 20
17.499999999999861
 30
0.0
 11
80.800000000000068
 21
17.499999999999861
 31
0.0
  0
LINE
  5
4346
  8
241
  6
CONTINUOUS
 10
80.000000000000028
 20
-15.999999999999931
 30
0.0
 11
80.000000000000028
 21
15.999999999999639
 31
0.0
  0
LINE
  5
43AD
  8
240
  6
CONTINUOUS
 10
115.133974596214
 20
15.99999999999979
 30
0.0
 11
101.1464101615115
 21
15.99999999999979
 31
0.0
  0
LINE
  5
43AE
  8
240
  6
CONTINUOUS
 10
115.133974596214
 20
-16.000000000000149
 30
0.0
 11
101.1464101615118
 21
-16.00000000000021
 31
0.0
  0
LINE
  5
43AF
  8
243
  6
HIDDEN2
 10
112.8999999999992
 20
14.49999999999978
 30
0.0
 11
102.8999999999992
 21
14.49999999999978
 31
0.0
  0
LINE
  5
43B0
  8
241
  6
CONTINUOUS
 10
110.8999999999992
 20
-2.0000000000001501
 30
0.0
 11
104.8999999999992
 21
-2.0000000000001501
 31
0.0
  0
ARC
  5
43B1
  8
241
  6
CONTINUOUS
 10
110.8999999999992
 20
-0.0000000000001519
 30
0.0
 40
2.0
 50
270.0
 51
89.999963675937977
  0
LINE
  5
43B2
  8
243
  6
HIDDEN2
 10
112.8999999999993
 20
-14.500000000000091
 30
0.0
 11
102.8999999999992
 21
-14.500000000000041
 31
0.0
  0
LINE
  5
43B3
  8
243
  6
HIDDEN2
 10
102.8999999999992
 20
-14.500000000000041
 30
0.0
 11
102.8999999999992
 21
-16.00000000000027
 31
0.0
  0
LINE
  5
43B4
  8
243
  6
HIDDEN2
 10
112.8999999999993
 20
-14.500000000000091
 30
0.0
 11
112.8999999999993
 21
-16.000000000000039
 31
0.0
  0
LINE
  5
43B5
  8
241
  6
CONTINUOUS
 10
90.399999999999196
 20
-16.00000000000032
 30
0.0
 11
90.399999999999196
 21
15.999999999999959
 31
0.0
  0
LINE
  5
43B6
  8
243
  6
HIDDEN2
 10
102.8999999999992
 20
14.499999999999851
 30
0.0
 11
102.9000000000005
 21
15.999999999999719
 31
0.0
  0
LINE
  5
43B7
  8
243
  6
HIDDEN2
 10
112.8999999999992
 20
14.49999999999978
 30
0.0
 11
112.8999999999981
 21
15.999999999999719
 31
0.0
  0
LINE
  5
43B8
  8
241
  6
CONTINUOUS
 10
92.099999999999199
 20
-16.00000000000032
 30
0.0
 11
92.099999999999241
 21
15.999999999999959
 31
0.0
1001
ACAD
1000
ASC_BOUNDS
1002
{
1070
    19
1005
0
1002
}
  0
ARC
  5
43B9
  8
240
  6
CONTINUOUS
 10
115.133974596214
 20
13.999999999999851
 30
0.0
 40
2.0
 50
59.999999999999048
 51
90.0
1001
ASK_MEN_XD
1005
43BA
1070
     1
1005
0
1070
     1
  0
LINE
  5
43BA
  8
240
  6
CONTINUOUS
 10
118.9999999999982
 20
14.077350269189431
 30
0.0
 11
116.133974596214
 21
15.732050807568619
 31
0.0
  0
ARC
  5
43BB
  8
240
  6
CONTINUOUS
 10
117.9999999999982
 20
12.34529946162065
 30
0.0
 40
2.0
 50
0.0000000000032569
 51
59.999999999999048
1001
ASK_MEN_XD
1005
0
1070
     1
1005
43BA
1070
     1
  0
ARC
  5
43BC
  8
240
  6
CONTINUOUS
 10
115.133974596214
 20
-14.000000000000091
 30
0.0
 40
2.0
 50
270.0
 51
300.0000000000008
1001
ASK_MEN_XD
1005
43BA
1070
     1
1005
0
1070
     1
  0
LINE
  5
43BD
  8
240
  6
CONTINUOUS
 10
118.9999999999982
 20
-14.077350269189751
 30
0.0
 11
116.133974596214
 21
-15.73205080756893
 31
0.0
  0
ARC
  5
43BE
  8
240
  6
CONTINUOUS
 10
117.9999999999982
 20
-12.3452994616209
 30
0.0
 40
2.0
 50
300.0000000000008
 51
359.99999999999682
1001
ASK_MEN_XD
1005
0
1070
     1
1005
43BA
1070
     1
  0
LINE
  5
43BF
  8
241
  6
CONTINUOUS
 10
115.6698729810761
 20
-15.926866088004701
 30
0.0
 11
115.6698729810761
 21
15.92686608800428
 31
0.0
1001
ASKOBJSC
1000
2/1
1001
ASKDWGSC
1040
1.0
  0
LINE
  5
43C0
  8
240
  6
CONTINUOUS
 10
92.599999999999184
 20
-16.50000000000027
 30
0.0
 11
98.799999999997922
 21
-16.50000000000027
 31
0.0
1001
ACAD
1000
ASC_BOUNDS
1002
{
1070
    19
1005
0
1002
}
  0
LINE
  5
43C1
  8
241
  6
CONTINUOUS
 10
99.499999999997925
 20
15.79999999999985
 30
0.0
 11
99.499999999997925
 21
-15.800000000000219
 31
0.0
1001
ACAD
1000
ASC_BOUNDS
1002
{
1070
    19
1005
0
1002
}
  0
LINE
  5
43C2
  8
240
  6
CONTINUOUS
 10
99.499999999997925
 20
-15.800000000000219
 30
0.0
 11
98.799999999997922
 21
-16.50000000000027
 31
0.0
1001
ACAD
1000
ASC_BOUNDS
1002
{
1070
    19
1005
0
1002
}
  0
LINE
  5
43C3
  8
240
  6
CONTINUOUS
 10
92.099999999999199
 20
-16.00000000000032
 30
0.0
 11
92.599999999999184
 21
-16.50000000000027
 31
0.0
1001
ACAD
1000
ASC_BOUNDS
1002
{
1070
    19
1005
0
1002
}
  0
LINE
  5
43C4
  8
240
  6
CONTINUOUS
 10
92.099999999999199
 20
-16.00000000000032
 30
0.0
 11
90.399999999999196
 21
-16.00000000000032
 31
0.0
  0
LINE
  5
43C5
  8
240
  6
CONTINUOUS
 10
90.399999999999196
 20
-16.00000000000027
 30
0.0
 11
88.999999999999375
 21
-17.400000000000109
 31
0.0
  0
LINE
  5
43C6
  8
241
  6
CONTINUOUS
 10
100.79999999999789
 20
-15.800000000000219
 30
0.0
 11
100.79999999999789
 21
15.79999999999985
 31
0.0
  0
LINE
  5
43C7
  8
240
  6
CONTINUOUS
 10
100.79999999999789
 20
-15.800000000000219
 30
0.0
 11
101.1464101615117
 21
-16.00000000000021
 31
0.0
  0
LINE
  5
43C8
  8
240
  6
CONTINUOUS
 10
100.79999999999789
 20
-15.800000000000219
 30
0.0
 11
99.499999999997925
 21
-15.800000000000219
 31
0.0
  0
LINE
  5
43C9
  8
240
  6
CONTINUOUS
 10
92.599999999999184
 20
16.500000000000021
 30
0.0
 11
98.799999999997922
 21
16.49999999999989
 31
0.0
  0
LINE
  5
43CA
  8
240
  6
CONTINUOUS
 10
99.499999999997925
 20
15.79999999999996
 30
0.0
 11
98.799999999997922
 21
16.49999999999989
 31
0.0
  0
LINE
  5
43CB
  8
240
  6
CONTINUOUS
 10
92.099999999999199
 20
16.000000000000021
 30
0.0
 11
92.599999999999184
 21
16.500000000000021
 31
0.0
  0
LINE
  5
43CC
  8
240
  6
CONTINUOUS
 10
92.099999999999199
 20
16.000000000000021
 30
0.0
 11
90.399999999999196
 21
16.000000000000021
 31
0.0
  0
LINE
  5
43CD
  8
240
  6
CONTINUOUS
 10
90.399999999999196
 20
16.000000000000021
 30
0.0
 11
88.999999999999503
 21
17.399999999999789
 31
0.0
  0
LINE
  5
43CE
  8
240
  6
CONTINUOUS
 10
100.79999999999789
 20
15.79999999999996
 30
0.0
 11
101.1464101615115
 21
15.99999999999979
 31
0.0
  0
LINE
  5
43CF
  8
240
  6
CONTINUOUS
 10
100.79999999999789
 20
15.79999999999996
 30
0.0
 11
99.499999999997925
 21
15.79999999999996
 31
0.0
  0
LINE
  5
43D0
  8
241
  6
CONTINUOUS
 10
110.8999999999992
 20
1.9999999999997919
 30
0.0
 11
104.8999999999992
 21
1.9999999999997919
 31
0.0
  0
ARC
  5
43D1
  8
241
  6
CONTINUOUS
 10
104.8999999999992
 20
-0.0000000000002087
 30
0.0
 40
2.0
 50
90.0
 51
270.00000112387471
  0
LINE
  5
43D2
  8
240
  6
CONTINUOUS
 10
119.9999999999982
 20
-12.345299461621201
 30
0.0
 11
119.9999999999982
 21
12.34529946162086
 31
0.0
  0
LINE
  5
43D3
  8
250
  6
CONTINUOUS
 10
115.6698729810761
 20
-16.000000000000082
 30
0.0
 11
144.9999999999996
 21
-16.00000000000011
 31
0.0
  0
LINE
  5
43D4
  8
250
  6
CONTINUOUS
 10
115.6698729810761
 20
15.99999999999979
 30
0.0
 11
144.9999999999996
 21
15.99999999999978
 31
0.0
  0
LINE
  5
43D5
  8
250
  6
CONTINUOUS
 10
143.9999999999996
 20
-14.00000000000011
 30
0.0
 11
143.9999999999996
 21
13.999999999999771
 31
0.0
  0
LINE
  5
43D6
  8
250
  6
CONTINUOUS
 10
144.33333333333289
 20
-14.00000000000011
 30
0.0
 11
143.9999999999996
 21
-16.00000000000011
 31
0.0
  0
LINE
  5
43D7
  8
250
  6
CONTINUOUS
 10
143.66666666666629
 20
-14.00000000000011
 30
0.0
 11
143.9999999999996
 21
-16.00000000000011
 31
0.0
  0
LINE
  5
43D8
  8
250
  6
CONTINUOUS
 10
143.9999999999996
 20
-16.00000000000011
 30
0.0
 11
143.9999999999996
 21
-14.00000000000011
 31
0.0
  0
LINE
  5
43D9
  8
250
  6
CONTINUOUS
 10
143.66666666666629
 20
13.999999999999771
 30
0.0
 11
143.9999999999996
 21
15.99999999999978
 31
0.0
  0
LINE
  5
43DA
  8
250
  6
CONTINUOUS
 10
144.33333333333289
 20
13.999999999999771
 30
0.0
 11
143.9999999999996
 21
15.99999999999978
 31
0.0
  0
LINE
  5
43DB
  8
250
  6
CONTINUOUS
 10
143.9999999999996
 20
15.99999999999978
 30
0.0
 11
143.9999999999996
 21
13.999999999999771
 31
0.0
  0
TEXT
  5
43DC
  8
250
  6
CONTINUOUS
 10
142.9999999999994
 20
-3.9333333333334748
 30
0.0
 40
2.799999999999998
  1
\U+2205
 50
90.0
  0
TEXT
  5
43DD
  8
250
  6
CONTINUOUS
 10
142.9999999999994
 20
-1.400000000000144
 30
0.0
 40
2.799999999999998
  1
32
 50
90.0
  0
LINE
  5
43DE
  8
250
  6
CONTINUOUS
 10
120.4999999999982
 20
5.9999999999998908
 30
0.0
 11
137.9999999999996
 21
5.9999999999998872
 31
0.0
  0
LINE
  5
43DF
  8
250
  6
CONTINUOUS
 10
136.9999999999996
 20
-4.0000000000002274
 30
0.0
 11
136.9999999999996
 21
3.9999999999998872
 31
0.0
  0
LINE
  5
43E0
  8
250
  6
CONTINUOUS
 10
136.66666666666629
 20
3.9999999999998872
 30
0.0
 11
136.9999999999996
 21
5.9999999999998872
 31
0.0
  0
LINE
  5
43E1
  8
250
  6
CONTINUOUS
 10
137.33333333333289
 20
3.9999999999998872
 30
0.0
 11
136.9999999999996
 21
5.9999999999998872
 31
0.0
  0
LINE
  5
43E2
  8
250
  6
CONTINUOUS
 10
136.9999999999996
 20
5.9999999999998872
 30
0.0
 11
136.9999999999996
 21
3.9999999999998872
 31
0.0
  0
TEXT
  5
43E3
  8
250
  6
CONTINUOUS
 10
135.9999999999996
 20
-3.9333333333334841
 30
0.0
 40
2.799999999999998
  1
\U+2205
 50
90.0
  0
TEXT
  5
43E4
  8
250
  6
CONTINUOUS
 10
135.9999999999996
 20
-1.400000000000154
 30
0.0
 40
2.799999999999998
  1
12
 50
90.0
  0
LINE
  5
43E5
  8
250
  6
CONTINUOUS
 10
120.4999999999982
 20
-6.0000000000003348
 30
0.0
 11
137.99999999999969
 21
-6.0000000000000346
 31
0.0
  0
LINE
  5
43E6
  8
250
  6
CONTINUOUS
 10
136.66666666666629
 20
-4.0000000000000551
 30
0.0
 11
136.99999999999969
 21
-6.0000000000000462
 31
0.0
  0
LINE
  5
43E7
  8
250
  6
CONTINUOUS
 10
137.333333333333
 20
-4.0000000000000462
 30
0.0
 11
136.99999999999969
 21
-6.0000000000000462
 31
0.0
  0
LINE
  5
43E8
  8
250
  6
CONTINUOUS
 10
136.99999999999969
 20
-6.0000000000000462
 30
0.0
 11
136.99999999999969
 21
-4.0000000000000462
 31
0.0
  0
TEXT
  5
43E9
  8
250
  6
CONTINUOUS
 10
120.7492711759316
 20
8.8635178416774671
 30
0.0
 40
2.799999999999998
  1
Coolant
  7
YOKO
 11
120.7492711759316
 21
8.8635178416774671
 31
0.0
 73
     1
  0
LINE
  5
43EA
  8
250
  6
CONTINUOUS
 10
134.27856228415121
 20
7.6216666666665871
 30
0.0
 11
136.5085622841512
 21
7.2499999999999067
 31
0.0
  0
LINE
  5
43EB
  8
250
  6
CONTINUOUS
 10
134.27856228415121
 20
6.8783333333332548
 30
0.0
 11
136.5085622841512
 21
7.2499999999999067
 31
0.0
  0
LINE
  5
43EC
  8
250
  6
CONTINUOUS
 10
136.5085622841512
 20
7.2499999999999067
 30
0.0
 11
134.27856228415121
 21
7.2499999999999067
 31
0.0
  0
LINE
  5
43ED
  8
250
  6
CONTINUOUS
 10
134.27856228415121
 20
7.2499999999999067
 30
0.0
 11
120.99999999999559
 21
7.2499999999999067
 31
0.0
  0
LINE
  5
43EE
  8
250
  6
CONTINUOUS
 10
134.27856228415129
 20
-7.6216666666668678
 30
0.0
 11
136.50856228415131
 21
-7.2500000000001856
 31
0.0
  0
LINE
  5
43EF
  8
250
  6
CONTINUOUS
 10
134.27856228415129
 20
-6.8783333333335381
 30
0.0
 11
136.50856228415131
 21
-7.2500000000001856
 31
0.0
  0
LINE
  5
43F0
  8
250
  6
CONTINUOUS
 10
136.50856228415131
 20
-7.2500000000001856
 30
0.0
 11
134.27856228415129
 21
-7.2500000000001954
 31
0.0
  0
LINE
  5
43F1
  8
250
  6
CONTINUOUS
 10
134.27856228415129
 20
-7.2500000000001954
 30
0.0
 11
120.99999999999559
 21
-7.2500000000002363
 31
0.0
  0
TEXT
  5
43F2
  8
250
  6
CONTINUOUS
 10
121.1262760792001
 20
-11.312693684519459
 30
0.0
 40
2.799999999999998
  1
Coolant
  7
YOKO
 11
121.1262760792001
 21
-11.312693684519459
 31
0.0
 73
     1
  0
LINE
  5
43F3
  8
240
  6
CONTINUOUS
 10
84.999999999999687
 20
17.399999999999771
 30
0.0
 11
88.999999999999503
 21
17.399999999999789
 31
0.0
1001
GRPNAME
1000
PASTMD06
  0
LINE
  5
43F4
  8
240
  6
CONTINUOUS
 10
84.999999999999687
 20
-17.400000000000102
 30
0.0
 11
88.999999999999375
 21
-17.400000000000109
 31
0.0
1001
GRPNAME
1000
PASTMD06
  0
LINE
  5
43F5
  8
243
  6
HIDDEN2
 10
66.530532216972347
 20
5.9999999999999094
 30
0.0
 11
119.99999999999871
 21
5.9999999999998881
 31
0.0
  0
LINE
  5
43F6
  8
243
  6
HIDDEN2
 10
66.530532216972347
 20
-6.0000000000001954
 30
0.0
 11
119.99999999999871
 21
-6.0000000000002132
 31
0.0
  0
LINE
  5
43FE
  8
240
  6
CONTINUOUS
 10
84.999999999999687
 20
-17.400000000000102
 30
0.0
 11
84.999999999999687
 21
-17.500000000000188
 31
0.0
  0
LINE
  5
43FF
  8
240
  6
CONTINUOUS
 10
84.999999999999687
 20
17.399999999999789
 30
0.0
 11
85.000000000000142
 21
17.499999999999861
 31
0.0
  0
LINE
  5
46E2
  8
250
  6
CONTINUOUS
 10
23.696156345059411
 20
-17.745403317215121
 30
0.0
 11
25.13302912
 21
-15.99999999999998
 31
0.0
  0
LINE
  5
46E3
  8
250
  6
CONTINUOUS
 10
24.339901895234082
 20
-18.117069983832881
 30
0.0
 11
25.13302912
 21
-15.99999999999998
 31
0.0
  0
LINE
  5
46E4
  8
250
  6
CONTINUOUS
 10
25.13302912
 20
-15.99999999999998
 30
0.0
 11
24.018029120146728
 21
-17.931236650523999
 31
0.0
  0
LINE
  5
46E5
  8
250
  6
CONTINUOUS
 10
24.018029120146728
 20
-17.931236650523999
 30
0.0
 11
18.056066040000001
 21
-28.257659619999981
 31
0.0
1001
ACAD
1000
DSTYLE
1002
{
1070
     6
1000
OPEN
1070
   343
1005
453A
1002
}
  0
TEXT
  5
46E6
  8
250
  6
CONTINUOUS
 10
5.5227327099999979
 20
-27.257659619999991
 30
0.0
 40
2.799999999999998
  1
ST32
  7
YOKO
1001
ITEMNAME
1000
LNSP3
  0
LINE
  5
46E7
  8
250
  6
CONTINUOUS
 10
18.056066040000001
 20
-28.257659619999981
 30
0.0
 11
3.1227327100000011
 21
-28.257659619999981
 31
0.0
1001
ITEMNAME
1000
LNSP2
  0
LINE
  5
46E8
  8
247
  6
CONTINUOUS
 10
6.7499999999299964
 20
-9.9999999999999858
 30
0.0
 11
13.442307691970001
 21
-9.9999999999999858
 31
0.0
  0
ARC
  5
46E9
  8
247
  6
CONTINUOUS
 10
6.7499999999299964
 20
-8.2500000000700133
 30
0.0
 40
1.7499999999299991
 50
90.0
 51
270.0
  0
ARC
  5
46EA
  8
247
  6
CONTINUOUS
 10
13.442307691970001
 20
-8.2500000000700133
 30
0.0
 40
1.7499999999299991
 50
270.0
 51
90.0
  0
LINE
  5
46EB
  8
247
  6
CONTINUOUS
 10
7.6153846152799911
 20
-6.5000000001400471
 30
0.0
 11
6.7551484580379917
 21
-9.5000000000199947
 31
0.0
  0
LINE
  5
46EC
  8
247
  6
CONTINUOUS
 10
8.5150161816641798
 20
-7.9230769231598748
 30
0.0
 11
7.2073238740241816
 21
-7.9230769231598748
 31
0.0
  0
ARC
  5
46ED
  8
247
  6
CONTINUOUS
 10
8.8548561839102131
 20
-7.0495986677028428
 30
0.0
 40
0.5538165441895349
 50
342.99788967529543
 51
82.924166218512752
  0
ARC
  5
46EE
  8
247
  6
CONTINUOUS
 10
8.4331216769712114
 20
-6.936033044465816
 30
0.0
 40
0.9904354236226808
 50
274.74293685220141
 51
343.84922627326631
1001
GENIUS_GENOBJ-N-FIL_13
1002
{
1000
OWNER
1000
GEN
1002
}
1001
GENIUS_GENODEF_13
1002
{
1000
HIER
1070
     0
1002
}
1002
{
1000
MANEDIT
1070
     0
1002
}
1002
{
1000
NOSEL
1070
     0
1002
}
1002
{
1000
BEHIND
1070
     0
1002
}
1002
{
1000
OTHER
1070
     0
1002
}
1002
{
1000
REACTOR
1002
}
  0
LINE
  5
46EF
  8
247
  6
CONTINUOUS
 10
8.0628407656779864
 20
-9.5000000000199947
 30
0.0
 11
6.7551484580379917
 21
-9.5000000000199947
 31
0.0
  0
LINE
  5
46F0
  8
247
  6
CONTINUOUS
 10
7.6153846152799911
 20
-6.5000000001400471
 30
0.0
 11
8.9230769229200035
 21
-6.5000000001400471
 31
0.0
  0
ARC
  5
46F1
  8
247
  6
CONTINUOUS
 10
8.43908036345303
 20
-8.4820242326654682
 30
0.0
 40
0.5640818586791229
 50
335.99094165252171
 51
82.263443459069123
  0
ARC
  5
46F2
  8
247
  6
CONTINUOUS
 10
7.9617373146529342
 20
-8.4874290391864964
 30
0.0
 40
1.0176059446230981
 50
275.70198516425808
 51
347.27733843682228
1001
GENIUS_GENOBJ-N-FIL_13
1002
{
1000
OWNER
1000
GEN
1002
}
1001
GENIUS_GENODEF_13
1002
{
1000
HIER
1070
     0
1002
}
1002
{
1000
MANEDIT
1070
     0
1002
}
1002
{
1000
NOSEL
1070
     0
1002
}
1002
{
1000
BEHIND
1070
     0
1002
}
1002
{
1000
OTHER
1070
     0
1002
}
1002
{
1000
REACTOR
1002
}
  0
LINE
  5
46F3
  8
247
  6
CONTINUOUS
 10
9.7166869194580006
 20
-9.5000000000199947
 30
0.0
 11
10.576923076699989
 21
-6.5000000001400471
 31
0.0
  0
LINE
  5
46F4
  8
247
  6
CONTINUOUS
 10
12.99999999968
 20
-6.5000000001400471
 30
0.0
 11
12.434263380543401
 21
-6.5000000001400471
 31
0.0
  0
LINE
  5
46F5
  8
247
  6
CONTINUOUS
 10
11.538461538200011
 20
-9.5000000000199947
 30
0.0
 11
12.153846153559989
 21
-9.5000000000199947
 31
0.0
  0
ARC
  5
46F6
  8
247
  6
CONTINUOUS
 10
13.29120879087713
 20
-8.5832851359733553
 30
0.0
 40
2.2526500823422122
 50
112.35948814153041
 51
164.99324854284609
  0
ARC
  5
46F7
  8
247
  6
CONTINUOUS
 10
12.62593052078677
 20
-7.3083126551946256
 30
0.0
 40
0.8906723995727782
 50
4.994589319075371
 51
65.166328957300863
1001
GENIUS_GENOBJ-N-FIL_13
1002
{
1000
OWNER
1000
GEN
1002
}
1001
GENIUS_GENODEF_13
1002
{
1000
HIER
1070
     0
1002
}
1002
{
1000
MANEDIT
1070
     0
1002
}
1002
{
1000
NOSEL
1070
     0
1002
}
1002
{
1000
BEHIND
1070
     0
1002
}
1002
{
1000
OTHER
1070
     0
1002
}
1002
{
1000
REACTOR
1002
}
  0
ARC
  5
46F8
  8
247
  6
CONTINUOUS
 10
11.77354111378742
 20
-8.1601458886677651
 30
0.0
 40
1.392781735586712
 50
285.84609655578072
 51
352.32513700416251
  0
ARC
  5
46F9
  8
247
  6
CONTINUOUS
 10
12.35778727415963
 20
-8.4592434315272644
 30
0.0
 40
1.324563662670287
 50
159.71360167048999
 51
231.7887456564128
1001
GENIUS_GENOBJ-N-FIL_13
1002
{
1000
OWNER
1000
GEN
1002
}
1001
GENIUS_GENODEF_13
1002
{
1000
HIER
1070
     0
1002
}
1002
{
1000
MANEDIT
1070
     0
1002
}
1002
{
1000
NOSEL
1070
     0
1002
}
1002
{
1000
BEHIND
1070
     0
1002
}
1002
{
1000
OTHER
1070
     0
1002
}
1002
{
1000
REACTOR
1002
}
  0
LINE
  5
46FA
  8
247
  6
CONTINUOUS
 10
12.46153846124
 20
-8.3461538462199663
 30
0.0
 11
13.153846153519989
 21
-8.3461538462199663
 31
0.0
  0
LINE
  5
46FB
  8
247
  6
CONTINUOUS
 10
6.749999999929968
 20
-6.5000000001400471
 30
0.0
 11
7.4230769229799289
 21
-6.5000000001400471
 31
0.0
  0
VIEWPORT
  5
22
 67
     1
  8
0
 10
261.51769911504419
 20
148.5
 30
0.0
 40
523.0353982300885
 41
297.0
 68
     1
 69
     1
1001
ACAD
1000
MVIEW
1002
{
1070
    16
1010
0.0
1020
0.0
1030
0.0
1010
0.0
1020
0.0
1030
1.0
1040
0.0
1040
297.0
1040
261.51769911504419
1040
148.5
1040
50.0
1040
0.0
1040
0.0
1070
     0
1070
   100
1070
     1
1070
     1
1070
     0
1070
     0
1070
     0
1070
     0
1040
0.0
1040
0.0
1040
0.0
1040
1.0
1040
1.0
1040
10.0
1040
10.0
1070
     0
1002
{
1002
}
1002
}
1001
GENIUS_GENODEF_13
1002
{
1000
HIER
1070
     0
1002
}
1002
{
1000
MANEDIT
1070
     0
1002
}
1002
{
1000
NOSEL
1070
     0
1002
}
1002
{
1000
BEHIND
1070
     0
1002
}
1002
{
1000
OTHER
1070
     0
1002
}
1002
{
1000
REACTOR
1002
}
1001
GENIUS_GENOBJ-N-SDF_13
1002
{
1000
OWNER
1000
GEN
1002
}
1001
GENIUS_GENSCREG_15
1000
PF
1040
1.0
1000
DF
1040
1.0
1000
MIN
1011
0.0
1021
0.0
1031
0.0
1021
0.0
1031
0.0
1000
MAX
1011
523.0353982300885
1021
0.0
1031
0.0
1021
297.0
1031
0.0
1000
FLAGS
1070
     4
  0
ENDSEC
  0
EOF
