  0
SECTION
  2
HEADER
  9
$ACADVER
  1
AC1009
  9
$INSBASE
 10
0.0
 20
0.0
 30
0.0
  9
$EXTMIN
 10
-200.6857142857144
 20
-16.500000000012228
 30
0.0
  9
$EXTMAX
 10
15.0
 20
61.000000000001883
 30
0.0
  9
$LIMMIN
 10
0.0
 20
0.0
  9
$LIMMAX
 10
297.0
 20
210.0
  9
$ORTHOMODE
 70
     1
  9
$REGENMODE
 70
     1
  9
$FILLMODE
 70
     1
  9
$QTEXTMODE
 70
     0
  9
$MIRRTEXT
 70
     1
  9
$DRAGMODE
 70
     2
  9
$LTSCALE
 40
10.0
  9
$OSMODE
 70
    39
  9
$ATTMODE
 70
     1
  9
$TEXTSIZE
 40
3.0
  9
$TRACEWID
 40
1.0
  9
$TEXTSTYLE
  7
YOKO
  9
$CLAYER
  8
240
  9
$CELTYPE
  6
BYLAYER
  9
$CECOLOR
 62
   256
  9
$DIMSCALE
 40
1.0
  9
$DIMASZ
 40
2.2299999999999991
  9
$DIMEXO
 40
0.5
  9
$DIMDLI
 40
7.0
  9
$DIMRND
 40
0.0
  9
$DIMDLE
 40
0.0
  9
$DIMEXE
 40
1.0
  9
$DIMTP
 40
0.0
  9
$DIMTM
 40
0.01
  9
$DIMTXT
 40
2.7999999999999989
  9
$DIMCEN
 40
0.0
  9
$DIMTSZ
 40
0.0
  9
$DIMTOL
 70
     0
  9
$DIMLIM
 70
     0
  9
$DIMTIH
 70
     0
  9
$DIMTOH
 70
     0
  9
$DIMSE1
 70
     0
  9
$DIMSE2
 70
     0
  9
$DIMTAD
 70
     3
  9
$DIMZIN
 70
     9
  9
$DIMBLK
  1
OPEN
  9
$DIMASO
 70
     1
  9
$DIMSHO
 70
     1
  9
$DIMPOST
  1

  9
$DIMAPOST
  1

  9
$DIMALT
 70
     0
  9
$DIMALTD
 70
     2
  9
$DIMALTF
 40
25.399999999999999
  9
$DIMLFAC
 40
1.0
  9
$DIMTOFL
 70
     1
  9
$DIMTVP
 40
0.0
  9
$DIMTIX
 70
     1
  9
$DIMSOXD
 70
     0
  9
$DIMSAH
 70
     0
  9
$DIMBLK1
  1

  9
$DIMBLK2
  1

  9
$DIMSTYLE
  2
BIGT
  9
$DIMCLRD
 70
   256
  9
$DIMCLRE
 70
   256
  9
$DIMCLRT
 70
    40
  9
$DIMTFAC
 40
1.0
  9
$DIMGAP
 40
1.0
  9
$LUNITS
 70
     2
  9
$LUPREC
 70
     3
  9
$SKETCHINC
 40
1.0
  9
$FILLETRAD
 40
0.0
  9
$AUNITS
 70
     0
  9
$AUPREC
 70
     3
  9
$MENU
  1
.
  9
$ELEVATION
 40
0.0
  9
$PELEVATION
 40
0.0
  9
$THICKNESS
 40
0.0
  9
$LIMCHECK
 70
     0
  9
$BLIPMODE
 70
     0
  9
$CHAMFERA
 40
0.25
  9
$CHAMFERB
 40
0.25
  9
$SKPOLY
 70
     0
  9
$TDCREATE
 40
2456115.3631441551
  9
$TDUPDATE
 40
2456115.3956699311
  9
$TDINDWG
 40
0.0306979861
  9
$TDUSRTIMER
 40
0.0306979861
  9
$USRTIMER
 70
     1
  9
$ANGBASE
 50
0.0
  9
$ANGDIR
 70
     0
  9
$PDMODE
 70
     1
  9
$PDSIZE
 40
0.0
  9
$PLINEWID
 40
0.0
  9
$COORDS
 70
     0
  9
$SPLFRAME
 70
     0
  9
$SPLINETYPE
 70
     6
  9
$SPLINESEGS
 70
     4
  9
$ATTDIA
 70
     1
  9
$ATTREQ
 70
     1
  9
$HANDLING
 70
     1
  9
$HANDSEED
  5
18B7
  9
$SURFTAB1
 70
     6
  9
$SURFTAB2
 70
     6
  9
$SURFTYPE
 70
     6
  9
$SURFU
 70
     6
  9
$SURFV
 70
     6
  9
$UCSNAME
  2

  9
$UCSORG
 10
0.0
 20
0.0
 30
0.0
  9
$UCSXDIR
 10
1.0
 20
0.0
 30
0.0
  9
$UCSYDIR
 10
0.0
 20
1.0
 30
0.0
  9
$PUCSNAME
  2

  9
$PUCSORG
 10
0.0
 20
0.0
 30
0.0
  9
$PUCSXDIR
 10
1.0
 20
0.0
 30
0.0
  9
$PUCSYDIR
 10
0.0
 20
1.0
 30
0.0
  9
$USERI1
 70
     1
  9
$USERI2
 70
     0
  9
$USERI3
 70
     0
  9
$USERI4
 70
     0
  9
$USERI5
 70
     0
  9
$USERR1
 40
0.0
  9
$USERR2
 40
0.0
  9
$USERR3
 40
0.0
  9
$USERR4
 40
0.0
  9
$USERR5
 40
0.0
  9
$WORLDVIEW
 70
     1
  9
$SHADEDGE
 70
     3
  9
$SHADEDIF
 70
    70
  9
$TILEMODE
 70
     1
  9
$MAXACTVP
 70
    16
  9
$PLIMCHECK
 70
     0
  9
$PEXTMIN
 10
1.0000000000000000E+020
 20
1.0000000000000000E+020
 30
1.0000000000000000E+020
  9
$PEXTMAX
 10
-1.0000000000000000E+020
 20
-1.0000000000000000E+020
 30
-1.0000000000000000E+020
  9
$PLIMMIN
 10
0.0
 20
0.0
  9
$PLIMMAX
 10
420.0
 20
297.0
  9
$UNITMODE
 70
     0
  9
$VISRETAIN
 70
     1
  9
$PLINEGEN
 70
     0
  9
$PSLTSCALE
 70
     1
  0
ENDSEC
  0
SECTION
  2
TABLES
  0
TABLE
  2
VPORT
 70
     3
  0
VPORT
  2
*ACTIVE
 70
     0
 10
0.0
 20
0.0
 11
1.0
 21
1.0
 12
-92.844222611915555
 22
22.247772609404961
 13
0.0
 23
0.0
 14
7.0
 24
7.0
 15
7.0
 25
7.0
 16
0.0
 26
0.0
 36
1.0
 17
0.0
 27
0.0
 37
0.0
 40
140.1282607944845
 41
1.5459518599562361
 42
50.0
 43
0.0
 44
0.0
 50
0.0
 51
0.0
 71
     0
 72
  2000
 73
     1
 74
     0
 75
     0
 76
     1
 77
     0
 78
     0
  0
ENDTAB
  0
TABLE
  2
LTYPE
 70
    15
  0
LTYPE
  2
CONTINUOUS
 70
     0
  3
Solid line
 72
    65
 73
     0
 40
0.0
  0
LTYPE
  2
CENTER2
 70
     0
  3
___ _ ___ _ ___ _ ___ _ ___ _ ___ _ ___ _ ___ _
 72
    65
 73
     4
 40
1.125
 49
0.75
 49
-0.125
 49
0.125
 49
-0.125
  0
LTYPE
  2
HIDDEN2
 70
     0
  3
_ _ _ _ _ _ _ _ _ _ _ _ _ _ _ _ _ _ _ _ _ _ _ _
 72
    65
 73
     2
 40
0.1875
 49
0.125
 49
-0.0625
  0
LTYPE
  2
PHANTOM2
 70
     0
  3
___ _ _ ___ _ _ ___ _ _ ___ _ _ ___ _ _ ___ _ _
 72
    65
 73
     6
 40
1.25
 49
0.625
 49
-0.125
 49
0.125
 49
-0.125
 49
0.125
 49
-0.125
  0
LTYPE
  2
CENTER
 70
     0
  3
____ _ ____ _ ____ _ ____ _ ____ _ ____ _ ____ 
 72
    65
 73
     4
 40
2.0
 49
1.25
 49
-0.25
 49
0.25
 49
-0.25
  0
LTYPE
  2
AM_ISO02W050
 70
     0
  3
__ __ __ __ __ __ __ __ __ __ __ __ __ __ __
 72
    65
 73
     2
 40
7.5
 49
6.0
 49
-1.5
  0
LTYPE
  2
AMCONSTR
 70
     0
  3
_______________________
 72
    65
 73
     2
 40
9999.0
 49
9999.0
 49
0.0
  0
LTYPE
  2
ACISOWELD
 70
     0
  3
_ _ _ _ _
 72
    65
 73
     2
 40
2.0
 49
2.0
 49
-1.0
  0
LTYPE
  2
ACISOTGB
 70
     0
  3
__ . . __ . .
 72
    65
 73
     6
 40
9.0
 49
4.0
 49
-1.0
 49
1.0
 49
-1.0
 49
1.0
 49
-1.0
  0
LTYPE
  2
ACISOTGL
 70
     0
  3
_ _ _ _ _
 72
    65
 73
     2
 40
3.0
 49
2.0
 49
-1.0
  0
LTYPE
  2
ACJISTGB
 70
     0
  3
__ . . __ . .
 72
    65
 73
     6
 40
9.0
 49
4.0
 49
-1.0
 49
1.0
 49
-1.0
 49
1.0
 49
-1.0
  0
LTYPE
  2
ACJISTGL
 70
     0
  3
_ _ _ _ _
 72
    65
 73
     2
 40
3.0
 49
2.0
 49
-1.0
  0
LTYPE
  2
HIDDEN
 70
     0
  3
Hidden __ __ __ __ __ __ __ __ __ __ __ __ __ _
 72
    65
 73
     2
 40
9.5249999999999986
 49
6.3499999999999988
 49
-3.1749999999999989
  0
ENDTAB
  0
TABLE
  2
LAYER
 70
     7
  0
LAYER
  2
0
 70
     0
 62
     7
  6
CONTINUOUS
  0
LAYER
  2
DEFPOINTS
 70
     0
 62
     7
  6
CONTINUOUS
  0
LAYER
  2
245
 70
     0
 62
     2
  6
CENTER2
  0
LAYER
  2
240
 70
     0
 62
     4
  6
CONTINUOUS
  0
LAYER
  2
241
 70
     0
 62
   211
  6
CONTINUOUS
  0
LAYER
  2
242
 70
     0
 62
     3
  6
CONTINUOUS
  0
LAYER
  2
250
 70
     0
 62
     3
  6
CONTINUOUS
  0
ENDTAB
  0
TABLE
  2
STYLE
 70
     8
  0
STYLE
  2
STANDARD
 70
     0
 40
0.0
 41
1.0
 50
0.0
 71
     0
 42
3.0
  3
romans.shx
  4
extfont.shx
  0
STYLE
  2
ACISOTS
 70
     0
 40
1.0
 41
1.0
 50
0.0
 71
     0
 42
3.0
  3
amgdt.shx
  4
extfont.shx
  0
STYLE
  2
ACISOGDT
 70
     0
 40
0.0
 41
1.0
 50
0.0
 71
     0
 42
3.0
  3
amgdt.shx
  4
extfont.shx
  0
STYLE
  2
ACJISTS
 70
     0
 40
1.0
 41
1.0
 50
0.0
 71
     0
 42
3.0
  3
amgdt.shx
  4
extfont.shx
  0
STYLE
  2
ACJISGDT
 70
     0
 40
0.0
 41
1.0
 50
0.0
 71
     0
 42
3.0
  3
amgdt.shx
  4
extfont.shx
  0
STYLE
  2
YOKO
 70
     0
 40
0.0
 41
1.0
 50
0.0
 71
     0
 42
3.0
  3
romans.shx
  4
extfont.shx
  0
ENDTAB
  0
TABLE
  2
VIEW
 70
     0
  0
ENDTAB
  0
TABLE
  2
UCS
 70
     0
  0
ENDTAB
  0
TABLE
  2
APPID
 70
    28
  0
APPID
  2
ACAD
 70
     0
  0
APPID
  2
GLOBAL
 70
     0
  0
APPID
  2
DETAIL
 70
     0
  0
APPID
  2
GRPNAME
 70
     0
  0
APPID
  2
GPARA
 70
     0
  0
APPID
  2
MCAD_NO_VIS
 70
     0
  0
APPID
  2
ACAD_TEMP_GRAPHIC
 70
     0
  0
APPID
  2
ACATTRIBSERVICES
 70
     0
  0
APPID
  2
GENIUS_GENSCREG_15
 70
     0
  0
APPID
  2
GENIUS_GENODEF_13
 70
     0
  0
APPID
  2
GENIUS_GENOBJ-N-SDF_13
 70
     0
  0
APPID
  2
GENIUS_GENREC_14
 70
     0
  0
APPID
  2
GENIUS_GENOBJ-N-REC_13
 70
     0
  0
APPID
  2
GENIUS_GENDIMSH_14
 70
     0
  0
APPID
  2
GENIUS_GENOBJ-N-DIM_13
 70
     0
  0
APPID
  2
GENIUS_GENDIM_13
 70
     0
  0
APPID
  2
GENIUS_GENDTOL_13
 70
     0
  0
APPID
  2
GENIUS_GENOLIS_13
 70
     0
  0
APPID
  2
GENIUS_GENOENT_13
 70
     0
  0
APPID
  2
GENIUS_GENOBJ-F-FEM_13
 70
     0
  0
APPID
  2
GENIUS_GENOREF_13
 70
     0
  0
APPID
  2
GENIUS_GEFFEM_13
 70
     0
  0
APPID
  2
GENIUS_GEFFEMP_13
 70
     0
  0
APPID
  2
AD_DRAW
 70
     0
  0
APPID
  2
DESIGNERASSEMBLIES
 70
     0
  0
APPID
  2
ACADM_DIM_EDIT
 70
     0
  0
APPID
  2
AMDT_DM_ADJ
 70
     0
  0
APPID
  2
GENIUS_GENOBJ-N-FIL_13
 70
     0
  0
ENDTAB
  0
TABLE
  2
DIMSTYLE
 70
    29
  0
DIMSTYLE
  2
BIGT
 70
     0
  3

  4

  5
OPEN
  6

  7

 40
1.0
 41
2.2299999999999991
 42
0.5
 43
7.0
 44
1.0
 45
0.0
 46
0.0
 47
0.0
 48
0.01
140
2.7999999999999989
141
0.0
142
0.0
143
25.399999999999999
144
1.0
145
0.0
146
1.0
147
1.0
 71
     0
 72
     0
 73
     0
 74
     0
 75
     0
 76
     0
 77
     3
 78
     9
170
     0
171
     2
172
     1
173
     0
174
     1
175
     0
176
   256
177
   256
178
    40
  0
DIMSTYLE
  2
AM_ISO
 70
     0
  3

  4
"
  5

  6

  7

 40
1.0
 41
2.5
 42
1.0
 43
10.0
 44
1.0
 45
0.0
 46
0.0
 47
0.1
 48
0.1
140
3.5
141
0.0
142
0.0
143
0.0393701
144
1.0
145
0.0
146
0.71
147
1.5
 71
     0
 72
     0
 73
     0
 74
     0
 75
     0
 76
     0
 77
     1
 78
     8
170
     0
171
     2
172
     1
173
     0
174
     0
175
     0
176
   256
177
   256
178
     2
  0
DIMSTYLE
  2
AM_ISO$3
 70
     0
  3

  4
"
  5

  6

  7

 40
1.0
 41
2.5
 42
1.0
 43
10.0
 44
1.0
 45
0.0
 46
0.0
 47
0.1
 48
0.1
140
3.5
141
0.0
142
0.0
143
0.0393701
144
1.0
145
0.0
146
0.71
147
1.5
 71
     0
 72
     0
 73
     0
 74
     1
 75
     0
 76
     0
 77
     1
 78
     8
170
     0
171
     2
172
     0
173
     0
174
     0
175
     0
176
   256
177
   256
178
     2
  0
DIMSTYLE
  2
AM_ISO$4
 70
     0
  3

  4
"
  5

  6

  7

 40
1.0
 41
2.5
 42
1.0
 43
10.0
 44
1.0
 45
0.0
 46
0.0
 47
0.1
 48
0.1
140
3.5
141
0.0
142
0.0
143
0.0393701
144
1.0
145
0.0
146
0.71
147
1.5
 71
     0
 72
     0
 73
     0
 74
     1
 75
     0
 76
     0
 77
     1
 78
     8
170
     0
171
     2
172
     0
173
     0
174
     0
175
     0
176
   256
177
   256
178
     2
  0
DIMSTYLE
  2
AM_ISO$6
 70
     0
  3

  4
"
  5

  6

  7

 40
1.0
 41
2.5
 42
1.0
 43
10.0
 44
1.0
 45
0.0
 46
0.0
 47
0.1
 48
0.1
140
3.5
141
0.0
142
0.0
143
0.0393701
144
1.0
145
0.0
146
0.71
147
1.5
 71
     0
 72
     0
 73
     0
 74
     0
 75
     0
 76
     0
 77
     0
 78
     8
170
     0
171
     2
172
     1
173
     0
174
     0
175
     0
176
   256
177
   256
178
     2
  0
DIMSTYLE
  2
AM_ISO$7
 70
     0
  3

  4
"
  5

  6

  7

 40
1.0
 41
2.5
 42
1.0
 43
10.0
 44
1.0
 45
0.0
 46
0.0
 47
0.1
 48
0.1
140
5.0
141
0.0
142
0.0
143
0.0393701
144
1.0
145
0.0
146
0.71
147
1.5
 71
     0
 72
     0
 73
     0
 74
     0
 75
     0
 76
     0
 77
     1
 78
     8
170
     0
171
     2
172
     1
173
     0
174
     0
175
     0
176
   256
177
   256
178
     2
  0
DIMSTYLE
  2
AM_ISO$SF
 70
     0
  3

  4
"
  5

  6

  7

 40
1.0
 41
2.5
 42
1.0
 43
10.0
 44
1.0
 45
0.0
 46
0.0
 47
0.1
 48
0.1
140
3.5
141
0.0
142
0.0
143
0.0393701
144
1.0
145
0.0
146
0.71
147
1.5
 71
     0
 72
     0
 73
     0
 74
     0
 75
     1
 76
     1
 77
     1
 78
     8
170
     0
171
     2
172
     1
173
     0
174
     0
175
     0
176
   256
177
   256
178
     2
  0
DIMSTYLE
  2
AM_ISO$SH
 70
     0
  3

  4
"
  5

  6
GENAXEH
  7

 40
1.0
 41
2.5
 42
1.0
 43
10.0
 44
1.0
 45
0.0
 46
0.0
 47
0.1
 48
0.1
140
3.5
141
0.0
142
0.0
143
0.0393701
144
2.0
145
0.0
146
0.71
147
1.5
 71
     0
 72
     0
 73
     0
 74
     0
 75
     1
 76
     1
 77
     1
 78
     8
170
     0
171
     2
172
     1
173
     1
174
     0
175
     0
176
   256
177
   256
178
     2
  0
DIMSTYLE
  2
BIGT$2
 70
     0
  3

  4

  5
OPEN
  6

  7

 40
1.0
 41
2.2299999999999991
 42
0.5
 43
7.0
 44
1.0
 45
0.0
 46
0.0
 47
0.0
 48
0.01
140
2.7999999999999989
141
0.0
142
0.0
143
25.399999999999999
144
1.0
145
0.0
146
1.0
147
1.0
 71
     0
 72
     0
 73
     0
 74
     0
 75
     0
 76
     0
 77
     3
 78
     9
170
     0
171
     2
172
     1
173
     0
174
     0
175
     0
176
   256
177
   256
178
    40
  0
DIMSTYLE
  2
BIGT$3
 70
     0
  3

  4

  5
OPEN
  6

  7

 40
1.0
 41
2.2299999999999991
 42
0.5
 43
2.5
 44
1.0
 45
0.0
 46
0.0
 47
0.0
 48
0.01
140
2.7999999999999989
141
0.0
142
0.0
143
25.399999999999999
144
1.0
145
0.0
146
1.0
147
1.0
 71
     0
 72
     0
 73
     0
 74
     0
 75
     0
 76
     0
 77
     3
 78
     9
170
     0
171
     2
172
     1
173
     0
174
     0
175
     0
176
   256
177
   256
178
    40
  0
DIMSTYLE
  2
BIGT$7
 70
     0
  3

  4

  5
OPEN
  6

  7

 40
0.0
 41
2.2299999999999991
 42
0.5
 43
7.0
 44
1.0
 45
0.0
 46
0.0
 47
0.0
 48
0.01
140
2.7999999999999989
141
0.0
142
0.0
143
25.399999999999999
144
1.0
145
0.0
146
1.0
147
1.0
 71
     0
 72
     0
 73
     0
 74
     0
 75
     0
 76
     0
 77
     3
 78
     9
170
     0
171
     2
172
     0
173
     0
174
     0
175
     0
176
   256
177
   256
178
    40
  0
DIMSTYLE
  2
BIGT$6
 70
     0
  3

  4

  5
OPEN
  6

  7

 40
1.0
 41
2.2299999999999991
 42
0.5
 43
2.5
 44
1.0
 45
0.0
 46
0.0
 47
0.0
 48
0.01
140
2.7999999999999989
141
0.0
142
0.0
143
25.399999999999999
144
1.0
145
0.0
146
1.0
147
1.0
 71
     0
 72
     0
 73
     0
 74
     0
 75
     0
 76
     0
 77
     3
 78
     9
170
     0
171
     2
172
     1
173
     0
174
     0
175
     0
176
   256
177
   256
178
    40
  0
DIMSTYLE
  2
BIGT$0
 70
     0
  3

  4

  5
OPEN
  6

  7

 40
1.0
 41
2.2299999999999991
 42
0.5
 43
7.0
 44
1.0
 45
0.0
 46
0.0
 47
0.0
 48
0.01
140
2.7999999999999989
141
0.0
142
0.0
143
25.399999999999999
144
1.0
145
0.0
146
1.0
147
1.0
 71
     0
 72
     0
 73
     0
 74
     0
 75
     0
 76
     0
 77
     3
 78
     9
170
     0
171
     2
172
     1
173
     0
174
     0
175
     0
176
   256
177
   256
178
    40
  0
DIMSTYLE
  2
BIGT$4
 70
     0
  3

  4

  5
OPEN
  6

  7

 40
1.0
 41
2.2299999999999991
 42
0.5
 43
2.5
 44
1.0
 45
0.0
 46
0.0
 47
0.0
 48
0.01
140
2.7999999999999989
141
0.0
142
0.0
143
25.399999999999999
144
1.0
145
0.0
146
1.0
147
1.0
 71
     0
 72
     0
 73
     0
 74
     0
 75
     0
 76
     0
 77
     3
 78
     9
170
     0
171
     2
172
     1
173
     0
174
     0
175
     0
176
   256
177
   256
178
    40
  0
DIMSTYLE
  2
BIGT$SH
 70
     0
  3

  4

  5
OPEN
  6

  7

 40
1.0
 41
2.2299999999999991
 42
0.5
 43
7.0
 44
1.0
 45
0.0
 46
0.0
 47
0.0
 48
0.0
140
2.7999999999999989
141
0.0
142
0.0
143
25.399999999999999
144
1.0
145
0.0
146
1.0
147
1.0
 71
     0
 72
     0
 73
     0
 74
     0
 75
     0
 76
     0
 77
     3
 78
     9
170
     0
171
     2
172
     1
173
     0
174
     0
175
     0
176
   256
177
   256
178
    40
  0
DIMSTYLE
  2
BIGT$SF
 70
     0
  3

  4

  5
OPEN
  6

  7

 40
1.0
 41
2.2299999999999991
 42
0.5
 43
7.0
 44
1.0
 45
0.0
 46
0.0
 47
0.0
 48
0.0
140
2.7999999999999989
141
0.0
142
0.0
143
25.399999999999999
144
1.0
145
0.0
146
1.0
147
1.0
 71
     0
 72
     0
 73
     0
 74
     0
 75
     0
 76
     0
 77
     3
 78
     9
170
     0
171
     2
172
     1
173
     0
174
     0
175
     0
176
   256
177
   256
178
    40
  0
DIMSTYLE
  2
TECHNICAL_OSAKA
 70
     0
  3

  4
"
  5
OPEN30
  6

  7

 40
1.0
 41
2.5
 42
1.0
 43
10.0
 44
1.0
 45
0.0
 46
0.0
 47
0.1
 48
0.1
140
2.7999999999999989
141
0.0
142
0.0
143
0.0393701
144
1.0
145
0.0
146
0.71
147
1.5
 71
     0
 72
     0
 73
     0
 74
     0
 75
     0
 76
     0
 77
     3
 78
     8
170
     0
171
     2
172
     1
173
     0
174
     0
175
     0
176
   256
177
   256
178
    40
  0
DIMSTYLE
  2
TECHNICAL_OSAKA$3
 70
     0
  3

  4
"
  5
OPEN30
  6

  7

 40
1.0
 41
2.5
 42
1.0
 43
10.0
 44
1.0
 45
0.0
 46
0.0
 47
0.1
 48
0.1
140
2.7999999999999989
141
0.0
142
0.0
143
0.0393701
144
1.0
145
0.0
146
0.71
147
1.5
 71
     0
 72
     0
 73
     0
 74
     1
 75
     0
 76
     0
 77
     3
 78
     8
170
     0
171
     2
172
     0
173
     0
174
     0
175
     0
176
   256
177
   256
178
    40
  0
DIMSTYLE
  2
TECHNICAL_OSAKA$4
 70
     0
  3

  4
"
  5
OPEN30
  6

  7

 40
1.0
 41
2.5
 42
1.0
 43
10.0
 44
1.0
 45
0.0
 46
0.0
 47
0.1
 48
0.1
140
2.7999999999999989
141
0.0
142
0.0
143
0.0393701
144
1.0
145
0.0
146
0.71
147
1.5
 71
     0
 72
     0
 73
     0
 74
     1
 75
     0
 76
     0
 77
     3
 78
     8
170
     0
171
     2
172
     0
173
     0
174
     0
175
     0
176
   256
177
   256
178
    40
  0
DIMSTYLE
  2
TECHNICAL_OSAKA$6
 70
     0
  3

  4
"
  5
OPEN30
  6

  7

 40
1.0
 41
2.5
 42
1.0
 43
10.0
 44
1.0
 45
0.0
 46
0.0
 47
0.1
 48
0.1
140
2.7999999999999989
141
0.0
142
0.0
143
0.0393701
144
1.0
145
0.0
146
0.71
147
1.5
 71
     0
 72
     0
 73
     0
 74
     0
 75
     0
 76
     0
 77
     0
 78
     8
170
     0
171
     2
172
     1
173
     0
174
     0
175
     0
176
   256
177
   256
178
    40
  0
DIMSTYLE
  2
TECHNICAL_OSAKA$7
 70
     0
  3

  4
"
  5
OPEN30
  6

  7

 40
1.0
 41
2.5
 42
1.0
 43
10.0
 44
1.0
 45
0.0
 46
0.0
 47
0.1
 48
0.1
140
2.7999999999999989
141
0.0
142
0.0
143
0.0393701
144
1.0
145
0.0
146
0.71
147
1.5
 71
     0
 72
     0
 73
     0
 74
     0
 75
     0
 76
     0
 77
     3
 78
     8
170
     0
171
     2
172
     1
173
     0
174
     0
175
     0
176
   256
177
   256
178
    40
  0
DIMSTYLE
  2
TECHNICAL_OSAKA$SF
 70
     0
  3

  4
"
  5
OPEN30
  6
OPEN30
  7
OPEN30
 40
1.0
 41
2.5
 42
1.0
 43
10.0
 44
1.0
 45
0.0
 46
0.0
 47
0.1
 48
0.1
140
3.5
141
0.0
142
0.0
143
0.0393701
144
1.0
145
0.0
146
0.71
147
1.5
 71
     0
 72
     0
 73
     0
 74
     0
 75
     1
 76
     1
 77
     3
 78
     8
170
     0
171
     2
172
     1
173
     0
174
     0
175
     0
176
   256
177
   256
178
    40
  0
DIMSTYLE
  2
TECHNICAL_OSAKA$SH
 70
     0
  3

  4
"
  5
OPEN30
  6
GENAXEH
  7
OPEN30
 40
1.0
 41
2.5
 42
1.0
 43
10.0
 44
1.0
 45
0.0
 46
0.0
 47
0.1
 48
0.1
140
3.5
141
0.0
142
0.0
143
0.0393701
144
2.0
145
0.0
146
0.71
147
1.5
 71
     0
 72
     0
 73
     0
 74
     0
 75
     1
 76
     1
 77
     3
 78
     8
170
     0
171
     2
172
     1
173
     1
174
     0
175
     0
176
   256
177
   256
178
    40
  0
ENDTAB
  0
ENDSEC
  0
SECTION
  2
BLOCKS
  0
BLOCK
  8
0
  2
$MODEL_SPACE
 70
     0
 10
0.0
 20
0.0
 30
0.0
  3
$MODEL_SPACE
  1

  0
ENDBLK
  5
1C
  8
0
  0
BLOCK
 67
     1
  8
0
  2
$PAPER_SPACE
 70
     0
 10
0.0
 20
0.0
 30
0.0
  3
$PAPER_SPACE
  1

  0
ENDBLK
  5
19
 67
     1
  8
0
  0
BLOCK
  8
0
  2
_OPEN
 70
     0
 10
0.0
 20
0.0
 30
0.0
  3
_OPEN
  1

  0
LINE
  5
184D
  8
0
  6
BYBLOCK
 62
     0
 10
-1.0
 20
0.1666666666666666
 30
0.0
 11
0.0
 21
0.0
 31
0.0
  0
LINE
  5
184E
  8
0
  6
BYBLOCK
 62
     0
 10
-1.0
 20
-0.1666666666666666
 30
0.0
 11
0.0
 21
0.0
 31
0.0
  0
LINE
  5
184F
  8
0
  6
BYBLOCK
 62
     0
 10
0.0
 20
0.0
 30
0.0
 11
-1.0
 21
0.0
 31
0.0
  0
ENDBLK
  5
1850
  8
0
  0
BLOCK
  8
0
  2
GENAXEH
 70
     0
 10
0.0
 20
0.0
 30
0.0
  3
GENAXEH
  1

  0
LINE
  5
1878
  8
0
 10
-1.0
 20
0.0
 30
0.0
 11
1.0
 21
0.0
 31
0.0
  0
ENDBLK
  5
1879
  8
0
  0
BLOCK
  8
0
  2
_OPEN30
 70
     0
 10
0.0
 20
0.0
 30
0.0
  3
_OPEN30
  1

  0
LINE
  5
189D
  8
0
  6
BYBLOCK
 62
     0
 10
-1.0
 20
0.26794919
 30
0.0
 11
0.0
 21
0.0
 31
0.0
  0
LINE
  5
189E
  8
0
  6
BYBLOCK
 62
     0
 10
0.0
 20
0.0
 30
0.0
 11
-1.0
 21
-0.26794919
 31
0.0
  0
LINE
  5
189F
  8
0
  6
BYBLOCK
 62
     0
 10
0.0
 20
0.0
 30
0.0
 11
-1.0
 21
0.0
 31
0.0
  0
ENDBLK
  5
18A0
  8
0
  0
ENDSEC
  0
SECTION
  2
ENTITIES
  0
ARC
  5
142D
  8
240
  6
CONTINUOUS
 10
-179.4999999999998
 20
14.556624327027871
 30
0.0
 40
0.5
 50
119.9999999999995
 51
179.9999999999994
  0
LINE
  5
142E
  8
241
  6
CONTINUOUS
 10
-178.0000000000002
 20
-15.702738620154699
 30
0.0
 11
-177.9999999999998
 21
15.803252126339
 31
0.0
  0
LINE
  5
142F
  8
241
  6
CONTINUOUS
 10
-48.000000000000171
 20
-15.87616986092034
 30
0.0
 11
-47.999999999999822
 21
15.98171652200163
 31
0.0
  0
LINE
  5
1430
  8
240
  6
CONTINUOUS
 10
-48.0
 20
-15.99999999999951
 30
0.0
 11
-177.7320508075691
 21
-15.999999999998121
 31
0.0
  0
LINE
  5
1432
  8
240
  6
CONTINUOUS
 10
-48.0
 20
-15.99999999999951
 30
0.0
 11
-47.307179676973021
 21
-15.5999999999995
 31
0.0
  0
LINE
  5
1439
  8
240
  6
CONTINUOUS
 10
-180.00000000000011
 20
-14.556624327024061
 30
0.0
 11
-179.9999999999998
 21
14.556624327027871
 31
0.0
  0
ARC
  5
143A
  8
240
  6
CONTINUOUS
 10
-179.50000000000011
 20
-14.556624327024069
 30
0.0
 40
0.499999999999998
 50
179.9999999999994
 51
239.99999999999949
  0
ARC
  5
143B
  8
240
  6
CONTINUOUS
 10
-177.7320508075691
 20
-14.999999999998121
 30
0.0
 40
1.0
 50
239.99999999999949
 51
269.99999999999937
  0
LINE
  5
143C
  8
240
  6
CONTINUOUS
 10
-178.2320508075691
 20
-15.866025403782571
 30
0.0
 11
-179.75000000000011
 21
-14.989637028916279
 31
0.0
  0
LINE
  5
1445
  8
240
  6
CONTINUOUS
 10
-47.999999999999659
 20
16.00000000000048
 30
0.0
 11
-177.73205080756881
 21
16.000000000001862
 31
0.0
  0
ARC
  5
1446
  8
240
  6
CONTINUOUS
 10
-177.73205080756881
 20
15.00000000000186
 30
0.0
 40
0.9999999999999959
 50
89.999999999999403
 51
119.9999999999995
  0
LINE
  5
1447
  8
240
  6
CONTINUOUS
 10
-179.7499999999998
 20
14.989637028920081
 30
0.0
 11
-178.23205080756881
 21
15.86602540378632
 31
0.0
  0
LINE
  5
1499
  8
245
 10
3.000000000000028
 20
-0.0000000000000355
 30
0.0
 11
-182.75484587404699
 21
0.0000000000019185
 31
0.0
  0
LINE
  5
14C7
  8
241
 10
-46.000000000000142
 20
-15.731716522000671
 30
0.0
 11
-45.999999999999801
 21
15.73171652200166
 31
0.0
  0
LINE
  5
14C8
  8
240
 10
-46.259807621135913
 20
-15.599999999999399
 30
0.0
 11
-46.00000000000005
 21
-15.749999999999529
 31
0.0
  0
LINE
  5
14C9
  8
240
 10
-47.307179676973021
 20
-15.5999999999995
 30
0.0
 11
-46.259807621135913
 21
-15.599999999999399
 31
0.0
  0
LINE
  5
14CE
  8
240
 10
-47.30717967697273
 20
15.60000000000046
 30
0.0
 11
-46.259807621135622
 21
15.60000000000036
 31
0.0
  0
LINE
  5
14D1
  8
240
 10
-46.259807621135622
 20
15.60000000000036
 30
0.0
 11
-45.999999999999879
 21
15.75000000000041
 31
0.0
  0
LINE
  5
14D4
  8
240
  6
CONTINUOUS
 10
-47.999999999999659
 20
16.00000000000048
 30
0.0
 11
-47.30717967697273
 21
15.60000000000046
 31
0.0
  0
ARC
  5
14DC
  8
240
 10
-24.55000000000021
 20
-16.249999999999741
 30
0.0
 40
1.0
 50
30.000000000001709
 51
149.9999999999996
  0
ARC
  5
14DD
  8
240
 10
-24.549999999999869
 20
16.250000000000242
 30
0.0
 40
1.0
 50
209.99999999999909
 51
329.9999999999971
  0
LINE
  5
14DE
  8
240
 10
-12.723671166801861
 20
-15.749999999999851
 30
0.0
 11
-23.683974596215791
 21
-15.74999999999973
 31
0.0
  0
LINE
  5
14DF
  8
240
 10
-25.41602540378463
 20
-15.74999999999971
 30
0.0
 11
-46.00000000000005
 21
-15.749999999999529
 31
0.0
  0
LINE
  5
14E0
  8
240
 10
-12.72367116681229
 20
15.750000000000041
 30
0.0
 11
-23.683974596215482
 21
15.750000000000149
 31
0.0
  0
LINE
  5
14E1
  8
240
 10
-25.416025403784289
 20
15.750000000000229
 30
0.0
 11
-45.999999999999879
 21
15.75000000000041
 31
0.0
  0
LINE
  5
14E2
  8
241
 10
-23.683974596215791
 20
-15.74999999999976
 30
0.0
 11
-23.68397459621545
 21
13.01555213349039
 31
0.0
  0
LINE
  5
14E5
  8
241
 10
-25.41602540378463
 20
-15.749999999999741
 30
0.0
 11
-25.416025403784349
 21
13.540463278362919
 31
0.0
  0
LINE
  5
1537
  8
241
 10
-11.690000000001129
 20
-2.235404953311714
 30
0.0
 11
-11.69000000000133
 21
-15.99465610262398
 31
0.0
  0
LINE
  5
1538
  8
241
 10
-12.623012701883621
 20
9.6634436699433337
 30
0.0
 11
-12.623012701883789
 21
-15.754352035240951
 31
0.0
  0
LINE
  5
1539
  8
240
 10
-1.049999999999897
 20
8.7516706654521954
 30
0.0
 11
-1.050000000000068
 21
-8.7516706654517691
 31
0.0
  0
LINE
  5
153A
  8
241
 10
-1.5775316903634291
 20
-15.71352780992525
 30
0.0
 11
-11.69000000000133
 21
-15.999999999999901
 31
0.0
  0
LINE
  5
153B
  8
241
 10
-1.0500000000001251
 20
-12.800000000041891
 30
0.0
 11
-1.0917646159560661
 21
-15.222347725440139
 31
0.0
  0
ARC
  5
153C
  8
241
 10
-1.591690316230568
 20
-15.213728316814739
 30
0.0
 40
0.5
 50
271.6226759227203
 51
359.01223960035969
  0
LINE
  5
153D
  8
241
 10
-12.62301270188385
 20
-15.749999999999851
 30
0.0
 11
-11.69000000000133
 21
-15.999999999999901
 31
0.0
  0
ARC
  5
1540
  8
241
 10
-3.5461815875838729
 20
4.8228144058380593
 30
0.0
 40
2.0
 50
3.0000000000000999
 51
73.140169264321628
  0
LINE
  5
1541
  8
241
 10
-11.690000000001129
 20
-2.235404953311714
 30
0.0
 11
-1.0500000000000109
 21
-2.2354049533119991
 31
0.0
  0
ARC
  5
1542
  8
241
 10
1.7779999999999629
 20
-1.2320091706489
 30
0.0
 40
3.0
 50
182.99999999999849
 51
199.4956783158739
  0
LINE
  5
1543
  8
241
 10
-1.5489225180747319
 20
4.9274863183238864
 30
0.0
 11
-1.2178886042638051
 21
-1.3890170393777761
 31
0.0
  0
LINE
  5
1544
  8
241
 10
-11.690000000001129
 20
-2.235404953311714
 30
0.0
 11
-12.623012701893289
 21
-1.232009170648247
 31
0.0
  0
ARC
  5
1549
  8
241
 10
-25.049999999999841
 20
15.51936319589562
 30
0.0
 40
2.0
 50
179.9999999999977
 51
253.1401692643233
  0
LINE
  5
154A
  8
241
 10
-27.049999999999809
 20
15.750000000000281
 30
0.0
 11
-27.049999999999841
 21
15.519363195895719
 31
0.0
  0
LINE
  5
154D
  8
241
 10
-2.966118960228556
 20
6.736848718055426
 30
0.0
 11
-25.630062627355191
 21
13.60532888367827
 31
0.0
  0
LINE
  5
15BE
  8
245
 10
-10.091586579101881
 20
11.62499999999994
 30
0.0
 11
-4.011463088756158
 21
11.62499999999994
 31
0.0
  0
LINE
  5
15BF
  8
245
 10
-7.1059999999999937
 20
14.78878974114232
 30
0.0
 11
-7.1059999999999937
 21
8.5371732759253671
 31
0.0
  0
LINE
  5
15C1
  8
240
 10
-12.46102490213206
 20
16.500000000000028
 30
0.0
 11
0.0
 21
16.500000000000028
 31
0.0
  0
LINE
  5
15C2
  8
241
 10
-3.834439998669438
 20
7.0000000000000284
 30
0.0
 11
-2.6999999999999309
 21
7.0000000000000284
 31
0.0
  0
LINE
  5
15C3
  8
240
 10
0.0
 20
16.500000000000028
 30
0.0
 11
0.0
 21
11.75000000000003
 31
0.0
  0
LINE
  5
15C4
  8
240
 10
0.0
 20
11.75000000000003
 30
0.0
 11
-1.049999999999897
 21
8.7516706654521954
 31
0.0
  0
LINE
  5
15C5
  8
241
 10
-14.211999999999961
 20
10.14499833231085
 30
0.0
 11
-14.211999999999991
 21
11.499999999999901
 31
0.0
  0
LINE
  5
15C6
  8
241
 10
-14.211999999999991
 20
11.499999999999901
 30
0.0
 11
-12.72367116681232
 21
15.74999999999997
 31
0.0
  0
CIRCLE
  5
15C7
  8
241
 10
-7.1059999999999937
 20
11.62499999999994
 30
0.0
 40
2.75
  0
LINE
  5
15C8
  8
242
 10
-11.64257464690513
 20
16.343901884555521
 30
0.0
 11
-2.3763622594267408
 21
14.5766126916493
 31
0.0
  0
LINE
  5
15C9
  8
242
 10
-1.5638238472612891
 20
13.5791815922185
 30
0.0
 11
-1.6508138925254341
 21
7.8331076569208866
 31
0.0
  0
LINE
  5
15CA
  8
242
 10
-2.4818765982014379
 20
7.1560981154445491
 30
0.0
 11
-7.5204654316129051
 21
8.1170779873087611
 31
0.0
  0
LINE
  5
15CB
  8
242
 10
-12.564790925963051
 20
9.6457991188011931
 30
0.0
 11
-12.473637352581189
 21
15.66689234307918
 31
0.0
  0
LINE
  5
15CC
  8
240
 10
-12.72367116681229
 20
15.750000000000041
 30
0.0
 11
-12.46102490213206
 21
16.500000000000028
 31
0.0
  0
LINE
  5
15CD
  8
241
 10
-2.6999999999999309
 20
7.0000000000000284
 30
0.0
 11
-1.663426342974389
 21
7.0000000000000284
 31
0.0
  0
ARC
  5
15CE
  8
242
 10
-2.5637092716839902
 20
13.59431889802223
 30
0.0
 40
1.0
 50
359.132663138787
 51
79.202000811977854
1001
GENIUS_GENODEF_13
1002
{
1000
HIER
1070
     0
1002
}
1002
{
1000
MANEDIT
1070
     0
1002
}
1002
{
1000
NOSEL
1070
     0
1002
}
1002
{
1000
BEHIND
1070
     0
1002
}
1002
{
1000
OTHER
1070
     0
1002
}
1002
{
1000
REACTOR
1002
}
1001
GENIUS_GENOBJ-N-FIL_13
1002
{
1000
OWNER
1000
GEN
1002
}
  0
ARC
  5
15CF
  8
242
 10
-11.773717555485289
 20
15.65629622901656
 30
0.0
 40
0.7
 50
79.202000811977854
 51
179.13266313878691
1001
GENIUS_GENODEF_13
1002
{
1000
HIER
1070
     0
1002
}
1002
{
1000
MANEDIT
1070
     0
1002
}
1002
{
1000
NOSEL
1070
     0
1002
}
1002
{
1000
BEHIND
1070
     0
1002
}
1002
{
1000
OTHER
1070
     0
1002
}
1002
{
1000
REACTOR
1002
}
1001
GENIUS_GENOBJ-N-FIL_13
1002
{
1000
OWNER
1000
GEN
1002
}
  0
ARC
  5
15D0
  8
242
 10
-2.350733689621165
 20
7.8437037709834811
 30
0.0
 40
0.7
 50
259.20200081198101
 51
359.13266313878739
1001
GENIUS_GENOBJ-N-FIL_13
1002
{
1000
OWNER
1000
GEN
1002
}
1001
GENIUS_GENODEF_13
1002
{
1000
HIER
1070
     0
1002
}
1002
{
1000
MANEDIT
1070
     0
1002
}
1002
{
1000
NOSEL
1070
     0
1002
}
1002
{
1000
BEHIND
1070
     0
1002
}
1002
{
1000
OTHER
1070
     0
1002
}
1002
{
1000
REACTOR
1002
}
  0
LINE
  5
15DA
  8
240
 10
-12.46102490211649
 20
-16.500000000012228
 30
0.0
 11
0.0000000000155751
 21
-16.500000000000099
 31
0.0
  0
LINE
  5
15DB
  8
240
 10
0.0000000000155751
 20
-16.500000000000099
 30
0.0
 11
0.0000000000110276
 21
-11.750000000000099
 31
0.0
  0
LINE
  5
15DC
  8
240
 10
-12.723671166801861
 20
-15.749999999999851
 30
0.0
 11
-12.46102490211649
 21
-16.500000000012228
 31
0.0
  0
LINE
  5
15DE
  8
241
 10
-1.0500000000004659
 20
8.7516706654506038
 30
0.0
 11
-1.663426342974389
 21
7.0000000000000284
 31
0.0
  0
LINE
  5
15DF
  8
240
 10
0.0
 20
-11.750000000000099
 30
0.0
 11
-1.050000000000068
 21
-8.7516706654517691
 31
0.0
  0
LINE
  5
15FA
  8
241
 10
-12.723671166801861
 20
-15.749999999999851
 30
0.0
 11
-12.62301270188385
 21
-15.749999999999851
 31
0.0
  0
LINE
  5
15FB
  8
241
 10
-1.050000000000068
 20
-8.7516706654517691
 30
0.0
 11
-1.0500000000001251
 21
-12.800000000041891
 31
0.0
  0
TEXT
  5
1770
  8
241
 10
-201.40000000000001
 20
56.000000000001869
 30
0.0
 40
5.0
  1
ST32-FCR33102-180
  7
YOKO
 11
-201.40000000000001
 21
56.000000000001869
 31
0.0
 73
     1
  0
LINE
  5
1772
  8
250
 10
0.0
 20
17.000000000000028
 30
0.0
 11
0.0000000000000008
 21
29.500000000000028
 31
0.0
  0
LINE
  5
1773
  8
250
 10
-10.0
 20
17.000000000000028
 30
0.0
 11
-10.0
 21
29.500000000000028
 31
0.0
  0
LINE
  5
1774
  8
250
 10
-2.2299999999999991
 20
28.500000000000028
 30
0.0
 11
-7.7699999999999987
 21
28.500000000000028
 31
0.0
  0
LINE
  5
1778
  8
250
 10
-47.999999999999659
 20
16.50000000000048
 30
0.0
 11
-47.999999999999659
 21
36.500000000000291
 31
0.0
  0
LINE
  5
1779
  8
250
 10
0.0
 20
17.000000000000028
 30
0.0
 11
0.0000000000000012
 21
36.500000000000291
 31
0.0
  0
LINE
  5
177A
  8
250
 10
-45.769999999999662
 20
35.500000000000291
 30
0.0
 11
-2.2299999999999982
 21
35.500000000000291
 31
0.0
  0
LINE
  5
177E
  8
250
 10
-179.9999999999998
 20
15.056624327027871
 30
0.0
 11
-179.9999999999998
 21
36.50000000000086
 31
0.0
  0
LINE
  5
177F
  8
250
 10
-47.999999999999659
 20
16.50000000000048
 30
0.0
 11
-47.999999999999659
 21
36.50000000000086
 31
0.0
  0
LINE
  5
1780
  8
250
 10
-177.76999999999981
 20
35.500000000000853
 30
0.0
 11
-50.229999999999649
 21
35.500000000000853
 31
0.0
  0
LINE
  5
1784
  8
250
 10
-179.9999999999998
 20
15.056624327027871
 30
0.0
 11
-179.9999999999998
 21
43.0
 31
0.0
  0
LINE
  5
1785
  8
250
 10
0.0
 20
17.000000000000028
 30
0.0
 11
0.0000000000000016
 21
43.0
 31
0.0
  0
LINE
  5
1786
  8
250
 10
-177.76999999999981
 20
42.0
 30
0.0
 11
-2.2299999999999982
 21
42.0
 31
0.0
  0
LINE
  5
178A
  8
250
 10
0.5
 20
16.500000000000028
 30
0.0
 11
15.0
 21
16.500000000000021
 31
0.0
  0
LINE
  5
178B
  8
250
 10
0.5000000000155751
 20
-16.500000000000099
 30
0.0
 11
15.0
 21
-16.500000000000099
 31
0.0
  0
LINE
  5
178C
  8
250
 10
14.0
 20
14.270000000000019
 30
0.0
 11
13.999999999999989
 21
-14.270000000000101
 31
0.0
  0
LINE
  5
1790
  8
250
 10
-178.23205080756881
 20
16.000000000001862
 30
0.0
 11
-190.73205080756901
 21
16.000000000001862
 31
0.0
  0
LINE
  5
1791
  8
250
 10
-178.2320508075691
 20
-15.999999999998121
 30
0.0
 11
-190.73205080756901
 21
-15.999999999998121
 31
0.0
  0
LINE
  5
1792
  8
250
 10
-189.73205080756901
 20
13.770000000001859
 30
0.0
 11
-189.73205080756901
 21
-13.76999999999812
 31
0.0
  0
TEXT
  5
1796
  8
250
 10
-7.8666666666666654
 20
29.500000000000028
 30
0.0
 40
2.7999999999999989
  1
10
  0
LINE
  5
1797
  8
250
 10
-7.7699999999999987
 20
28.128333333333359
 30
0.0
 11
-10.0
 21
28.500000000000028
 31
0.0
  0
LINE
  5
1798
  8
250
 10
-7.7699999999999987
 20
28.871666666666691
 30
0.0
 11
-10.0
 21
28.500000000000028
 31
0.0
  0
LINE
  5
1799
  8
250
 10
-10.0
 20
28.500000000000028
 30
0.0
 11
-7.7699999999999987
 21
28.500000000000028
 31
0.0
  0
LINE
  5
179A
  8
250
 10
-2.2299999999999991
 20
28.871666666666691
 30
0.0
 11
0.0000000000000007
 21
28.500000000000028
 31
0.0
  0
LINE
  5
179B
  8
250
 10
-2.2299999999999991
 20
28.128333333333359
 30
0.0
 11
0.0000000000000007
 21
28.500000000000028
 31
0.0
  0
LINE
  5
179C
  8
250
 10
0.0000000000000007
 20
28.500000000000028
 30
0.0
 11
-2.2299999999999991
 21
28.500000000000028
 31
0.0
  0
TEXT
  5
179D
  8
250
 10
-26.666666666666501
 20
36.500000000000291
 30
0.0
 40
2.7999999999999989
  1
48
  0
LINE
  5
179E
  8
250
 10
-2.2299999999999982
 20
35.871666666666947
 30
0.0
 11
0.0000000000000012
 21
35.500000000000291
 31
0.0
  0
LINE
  5
179F
  8
250
 10
-2.2299999999999982
 20
35.128333333333607
 30
0.0
 11
0.0000000000000012
 21
35.500000000000291
 31
0.0
  0
LINE
  5
17A0
  8
250
 10
0.0000000000000012
 20
35.500000000000291
 30
0.0
 11
-2.2299999999999982
 21
35.500000000000291
 31
0.0
  0
LINE
  5
17A1
  8
250
 10
-45.769999999999662
 20
35.128333333333607
 30
0.0
 11
-47.999999999999659
 21
35.500000000000291
 31
0.0
  0
LINE
  5
17A2
  8
250
 10
-45.769999999999662
 20
35.871666666666947
 30
0.0
 11
-47.999999999999659
 21
35.500000000000291
 31
0.0
  0
LINE
  5
17A3
  8
250
 10
-47.999999999999659
 20
35.500000000000291
 30
0.0
 11
-45.769999999999662
 21
35.500000000000291
 31
0.0
  0
TEXT
  5
17A4
  8
250
 10
-118.1999999999997
 20
36.50000000000086
 30
0.0
 40
2.7999999999999989
  1
132
  0
LINE
  5
17A5
  8
250
 10
-50.229999999999649
 20
35.871666666667522
 30
0.0
 11
-47.999999999999659
 21
35.500000000000853
 31
0.0
  0
LINE
  5
17A6
  8
250
 10
-50.229999999999649
 20
35.128333333334183
 30
0.0
 11
-47.999999999999659
 21
35.500000000000853
 31
0.0
  0
LINE
  5
17A7
  8
250
 10
-47.999999999999659
 20
35.500000000000853
 30
0.0
 11
-50.229999999999649
 21
35.500000000000853
 31
0.0
  0
LINE
  5
17A8
  8
250
 10
-177.76999999999981
 20
35.128333333334183
 30
0.0
 11
-179.9999999999998
 21
35.500000000000853
 31
0.0
  0
LINE
  5
17A9
  8
250
 10
-177.76999999999981
 20
35.871666666667522
 30
0.0
 11
-179.9999999999998
 21
35.500000000000853
 31
0.0
  0
LINE
  5
17AA
  8
250
 10
-179.9999999999998
 20
35.500000000000853
 30
0.0
 11
-177.76999999999981
 21
35.500000000000853
 31
0.0
  0
TEXT
  5
17AB
  8
250
 10
-94.199999999999918
 20
43.0
 30
0.0
 40
2.7999999999999989
  1
180
  0
LINE
  5
17AC
  8
250
 10
-2.2299999999999982
 20
42.371666666666663
 30
0.0
 11
0.0000000000000016
 21
42.0
 31
0.0
  0
LINE
  5
17AD
  8
250
 10
-2.2299999999999982
 20
41.62833333333333
 30
0.0
 11
0.0000000000000016
 21
42.0
 31
0.0
  0
LINE
  5
17AE
  8
250
 10
0.0000000000000016
 20
42.0
 30
0.0
 11
-2.2299999999999982
 21
42.0
 31
0.0
  0
LINE
  5
17AF
  8
250
 10
-177.76999999999981
 20
41.62833333333333
 30
0.0
 11
-179.9999999999998
 21
42.0
 31
0.0
  0
LINE
  5
17B0
  8
250
 10
-177.76999999999981
 20
42.371666666666663
 30
0.0
 11
-179.9999999999998
 21
42.0
 31
0.0
  0
LINE
  5
17B1
  8
250
 10
-179.9999999999998
 20
42.0
 30
0.0
 11
-177.76999999999981
 21
42.0
 31
0.0
  0
TEXT
  5
17B2
  8
250
 10
13.0
 20
-3.8000000000000358
 30
0.0
 40
2.7999999999999989
  1
\U+220533
 50
90.0
  0
LINE
  5
17B3
  8
250
 10
14.371666666666661
 20
-14.270000000000101
 30
0.0
 11
13.999999999999989
 21
-16.500000000000099
 31
0.0
  0
LINE
  5
17B4
  8
250
 10
13.62833333333333
 20
-14.270000000000101
 30
0.0
 11
13.999999999999989
 21
-16.500000000000099
 31
0.0
  0
LINE
  5
17B5
  8
250
 10
13.999999999999989
 20
-16.500000000000099
 30
0.0
 11
13.999999999999989
 21
-14.270000000000101
 31
0.0
  0
LINE
  5
17B6
  8
250
 10
13.628333333333339
 20
14.270000000000019
 30
0.0
 11
14.0
 21
16.500000000000021
 31
0.0
  0
LINE
  5
17B7
  8
250
 10
14.37166666666667
 20
14.270000000000019
 30
0.0
 11
14.0
 21
16.500000000000021
 31
0.0
  0
LINE
  5
17B8
  8
250
 10
14.0
 20
16.500000000000021
 30
0.0
 11
14.0
 21
14.270000000000019
 31
0.0
  0
TEXT
  5
17B9
  8
250
 10
-190.73205080756901
 20
-3.7999999999981582
 30
0.0
 40
2.7999999999999989
  1
\U+220532
 50
90.0
  0
LINE
  5
17BA
  8
250
 10
-189.36038414090231
 20
-13.76999999999812
 30
0.0
 11
-189.73205080756901
 21
-15.999999999998121
 31
0.0
  0
LINE
  5
17BB
  8
250
 10
-190.10371747423571
 20
-13.76999999999812
 30
0.0
 11
-189.73205080756901
 21
-15.999999999998121
 31
0.0
  0
LINE
  5
17BC
  8
250
 10
-189.73205080756901
 20
-15.999999999998121
 30
0.0
 11
-189.73205080756901
 21
-13.76999999999812
 31
0.0
  0
LINE
  5
17BD
  8
250
 10
-190.10371747423571
 20
13.770000000001859
 30
0.0
 11
-189.73205080756901
 21
16.000000000001862
 31
0.0
  0
LINE
  5
17BE
  8
250
 10
-189.36038414090231
 20
13.770000000001859
 30
0.0
 11
-189.73205080756901
 21
16.000000000001862
 31
0.0
  0
LINE
  5
17BF
  8
250
 10
-189.73205080756901
 20
16.000000000001862
 30
0.0
 11
-189.73205080756901
 21
13.770000000001859
 31
0.0
  0
VIEWPORT
  5
22
 67
     1
  8
0
 10
261.51769911504419
 20
148.5
 30
0.0
 40
523.0353982300885
 41
297.0
 68
     1
 69
     1
1001
ACAD
1000
MVIEW
1002
{
1070
    16
1010
0.0
1020
0.0
1030
0.0
1010
0.0
1020
0.0
1030
1.0
1040
0.0
1040
297.0
1040
261.51769911504419
1040
148.5
1040
50.0
1040
0.0
1040
0.0
1070
     0
1070
   100
1070
     1
1070
     1
1070
     0
1070
     0
1070
     0
1070
     0
1040
0.0
1040
0.0
1040
0.0
1040
1.0
1040
1.0
1040
10.0
1040
10.0
1070
     0
1002
{
1002
}
1002
}
1001
GENIUS_GENODEF_13
1002
{
1000
HIER
1070
     0
1002
}
1002
{
1000
MANEDIT
1070
     0
1002
}
1002
{
1000
NOSEL
1070
     0
1002
}
1002
{
1000
BEHIND
1070
     0
1002
}
1002
{
1000
OTHER
1070
     0
1002
}
1002
{
1000
REACTOR
1002
}
1001
GENIUS_GENOBJ-N-SDF_13
1002
{
1000
OWNER
1000
GEN
1002
}
1001
GENIUS_GENSCREG_15
1000
PF
1040
1.0
1000
DF
1040
1.0
1000
MIN
1011
0.0
1021
0.0
1031
0.0
1021
0.0
1031
0.0
1000
MAX
1011
523.0353982300885
1021
0.0
1031
0.0
1021
297.0
1031
0.0
1000
FLAGS
1070
     2
  0
ENDSEC
  0
EOF
