  0
SECTION
  2
HEADER
  9
$ACADVER
  1
AC1009
  9
$INSBASE
 10
0.0
 20
0.0
 30
0.0
  9
$EXTMIN
 10
-14.29999999999999
 20
-26.017036690000001
 30
0.0
  9
$EXTMAX
 10
141.0
 20
61.000000000000007
 30
0.0
  9
$LIMMIN
 10
0.0
 20
0.0
  9
$LIMMAX
 10
420.0
 20
297.0
  9
$ORTHOMODE
 70
     0
  9
$REGENMODE
 70
     1
  9
$FILLMODE
 70
     1
  9
$QTEXTMODE
 70
     0
  9
$MIRRTEXT
 70
     1
  9
$DRAGMODE
 70
     2
  9
$LTSCALE
 40
10.0
  9
$OSMODE
 70
    55
  9
$ATTMODE
 70
     1
  9
$TEXTSIZE
 40
3.0
  9
$TRACEWID
 40
1.0
  9
$TEXTSTYLE
  7
YOKO
  9
$CLAYER
  8
240
  9
$CELTYPE
  6
BYLAYER
  9
$CECOLOR
 62
   256
  9
$DIMSCALE
 40
1.0
  9
$DIMASZ
 40
2.2299999999999991
  9
$DIMEXO
 40
0.5
  9
$DIMDLI
 40
2.5
  9
$DIMRND
 40
0.0
  9
$DIMDLE
 40
0.0
  9
$DIMEXE
 40
1.0
  9
$DIMTP
 40
0.0
  9
$DIMTM
 40
0.0
  9
$DIMTXT
 40
2.799999999999998
  9
$DIMCEN
 40
0.0
  9
$DIMTSZ
 40
0.0
  9
$DIMTOL
 70
     0
  9
$DIMLIM
 70
     0
  9
$DIMTIH
 70
     0
  9
$DIMTOH
 70
     0
  9
$DIMSE1
 70
     0
  9
$DIMSE2
 70
     0
  9
$DIMTAD
 70
     3
  9
$DIMZIN
 70
     8
  9
$DIMBLK
  1

  9
$DIMASO
 70
     1
  9
$DIMSHO
 70
     1
  9
$DIMPOST
  1

  9
$DIMAPOST
  1

  9
$DIMALT
 70
     0
  9
$DIMALTD
 70
     2
  9
$DIMALTF
 40
25.399999999999999
  9
$DIMLFAC
 40
1.0
  9
$DIMTOFL
 70
     1
  9
$DIMTVP
 40
0.0
  9
$DIMTIX
 70
     1
  9
$DIMSOXD
 70
     0
  9
$DIMSAH
 70
     1
  9
$DIMBLK1
  1
OPEN
  9
$DIMBLK2
  1
OPEN
  9
$DIMSTYLE
  2
BIGT
  9
$DIMCLRD
 70
   256
  9
$DIMCLRE
 70
   256
  9
$DIMCLRT
 70
    40
  9
$DIMTFAC
 40
1.0
  9
$DIMGAP
 40
1.0
  9
$LUNITS
 70
     2
  9
$LUPREC
 70
     3
  9
$SKETCHINC
 40
1.0
  9
$FILLETRAD
 40
0.0
  9
$AUNITS
 70
     0
  9
$AUPREC
 70
     3
  9
$MENU
  1
.
  9
$ELEVATION
 40
0.0
  9
$PELEVATION
 40
0.0
  9
$THICKNESS
 40
0.0
  9
$LIMCHECK
 70
     0
  9
$BLIPMODE
 70
     0
  9
$CHAMFERA
 40
10.0
  9
$CHAMFERB
 40
10.0
  9
$SKPOLY
 70
     0
  9
$TDCREATE
 40
2455145.7147097341
  9
$TDUPDATE
 40
2457806.7135803821
  9
$TDINDWG
 40
0.0727037153
  9
$TDUSRTIMER
 40
0.0727034838
  9
$USRTIMER
 70
     1
  9
$ANGBASE
 50
0.0
  9
$ANGDIR
 70
     0
  9
$PDMODE
 70
     1
  9
$PDSIZE
 40
-5.0
  9
$PLINEWID
 40
0.0
  9
$COORDS
 70
     1
  9
$SPLFRAME
 70
     0
  9
$SPLINETYPE
 70
     6
  9
$SPLINESEGS
 70
     8
  9
$ATTDIA
 70
     1
  9
$ATTREQ
 70
     1
  9
$HANDLING
 70
     1
  9
$HANDSEED
  5
11CB
  9
$SURFTAB1
 70
     6
  9
$SURFTAB2
 70
     6
  9
$SURFTYPE
 70
     6
  9
$SURFU
 70
     6
  9
$SURFV
 70
     6
  9
$UCSNAME
  2

  9
$UCSORG
 10
0.0
 20
0.0
 30
0.0
  9
$UCSXDIR
 10
1.0
 20
0.0
 30
0.0
  9
$UCSYDIR
 10
0.0
 20
1.0
 30
0.0
  9
$PUCSNAME
  2

  9
$PUCSORG
 10
0.0
 20
0.0
 30
0.0
  9
$PUCSXDIR
 10
1.0
 20
0.0
 30
0.0
  9
$PUCSYDIR
 10
0.0
 20
1.0
 30
0.0
  9
$USERI1
 70
     1
  9
$USERI2
 70
     0
  9
$USERI3
 70
     0
  9
$USERI4
 70
     0
  9
$USERI5
 70
     0
  9
$USERR1
 40
0.0
  9
$USERR2
 40
0.0
  9
$USERR3
 40
0.0
  9
$USERR4
 40
0.0
  9
$USERR5
 40
0.0
  9
$WORLDVIEW
 70
     1
  9
$SHADEDGE
 70
     3
  9
$SHADEDIF
 70
    70
  9
$TILEMODE
 70
     1
  9
$MAXACTVP
 70
    16
  9
$PLIMCHECK
 70
     0
  9
$PEXTMIN
 10
1.0000000000000000E+020
 20
1.0000000000000000E+020
 30
1.0000000000000000E+020
  9
$PEXTMAX
 10
-1.0000000000000000E+020
 20
-1.0000000000000000E+020
 30
-1.0000000000000000E+020
  9
$PLIMMIN
 10
0.0
 20
0.0
  9
$PLIMMAX
 10
420.0
 20
297.0
  9
$UNITMODE
 70
     0
  9
$VISRETAIN
 70
     0
  9
$PLINEGEN
 70
     0
  9
$PSLTSCALE
 70
     1
  0
ENDSEC
  0
SECTION
  2
TABLES
  0
TABLE
  2
VPORT
 70
     1
  0
VPORT
  2
*ACTIVE
 70
     0
 10
0.0
 20
0.0
 11
1.0
 21
1.0
 12
74.591570116348151
 22
15.71448264518839
 13
0.0
 23
0.0
 14
7.0
 24
7.0
 15
7.0
 25
7.0
 16
0.0
 26
0.0
 36
1.0
 17
0.0
 27
0.0
 37
0.0
 40
110.2748125137073
 41
1.73922902494331
 42
50.0
 43
0.0
 44
0.0
 50
0.0
 51
0.0
 71
     0
 72
  2000
 73
     1
 74
     0
 75
     0
 76
     0
 77
     0
 78
     0
  0
ENDTAB
  0
TABLE
  2
LTYPE
 70
    18
  0
LTYPE
  2
CONTINUOUS
 70
     0
  3
Solid line
 72
    65
 73
     0
 40
0.0
  0
LTYPE
  2
CENTER2
 70
     0
  3
___ _ ___ _ ___ _ ___ _ ___ _ ___ _ ___ _ ___ _
 72
    65
 73
     4
 40
1.125
 49
0.75
 49
-0.125
 49
0.125
 49
-0.125
  0
LTYPE
  2
PHANTOM2
 70
     0
  3
___ _ _ ___ _ _ ___ _ _ ___ _ _ ___ _ _ ___ _ _
 72
    65
 73
     6
 40
1.25
 49
0.625
 49
-0.125
 49
0.125
 49
-0.125
 49
0.125
 49
-0.125
  0
LTYPE
  2
HIDDEN2
 70
     0
  3
_ _ _ _ _ _ _ _ _ _ _ _ _ _ _ _ _ _ _ _ _ _ _ _
 72
    65
 73
     2
 40
0.1875
 49
0.125
 49
-0.0625
  0
LTYPE
  2
AMCONSTR
 70
     0
  3
_______________________
 72
    65
 73
     2
 40
9999.0
 49
9999.0
 49
0.0
  0
LTYPE
  2
AM_ISO02W050
 70
     0
  3
__ __ __ __ __ __ __ __ __ __ __ __ __ __ __
 72
    65
 73
     2
 40
7.5
 49
6.0
 49
-1.5
  0
LTYPE
  2
HIDDEN
 70
     0
  3
Hidden __ __ __ __ __ __ __ __ __ __ __ __ __ _
 72
    65
 73
     2
 40
9.5249999999999986
 49
6.349999999999997
 49
-3.174999999999998
  0
LTYPE
  2
CENTER
 70
     0
  3
____ _ ____ _ ____ _ ____ _ ____ _ ____ _ ____ 
 72
    65
 73
     4
 40
2.0
 49
1.25
 49
-0.25
 49
0.25
 49
-0.25
  0
LTYPE
  2
ACJISTGB
 70
     0
  3
__ . . __ . .
 72
    65
 73
     6
 40
9.0
 49
4.0
 49
-1.0
 49
1.0
 49
-1.0
 49
1.0
 49
-1.0
  0
LTYPE
  2
ACJISTGL
 70
     0
  3
_ _ _ _ _
 72
    65
 73
     2
 40
3.0
 49
2.0
 49
-1.0
  0
LTYPE
  2
ACANSTGB
 70
     0
  3
__ . . __ . .
 72
    65
 73
     6
 40
0.35433070866
 49
0.15748031496
 49
-0.03937007874
 49
0.03937007874
 49
-0.03937007874
 49
0.03937007874
 49
-0.03937007874
  0
LTYPE
  2
ACANSTGL
 70
     0
  3
_ _ _ _ _
 72
    65
 73
     2
 40
0.11811023622
 49
0.07874015748
 49
-0.03937007874
  0
LTYPE
  2
AMZIGZAG2
 70
     0
  3
/\/-/\/-/\/-/\/-/\/-/\/
 72
    65
 73
     2
 40
0.4401
 49
0.0001
 49
-0.4400000000000002
  0
LTYPE
  2
AM_ISO08W050
 70
     0
  3
____ . ____ . ____ . ____ . ____ . ____ . ____
 72
    65
 73
     4
 40
18.0
 49
12.0
 49
-1.5
 49
3.0
 49
-1.5
  0
LTYPE
  2
AM_ISO09W050
 70
     0
  3
_____ . . _____ . . _____ . . ____ .. ____
 72
    65
 73
     6
 40
22.5
 49
12.0
 49
-1.5
 49
3.0
 49
-1.5
 49
3.0
 49
-1.5
  0
LTYPE
  2
AM_ISO08W050X2
 70
     0
  3
__ . __ . __ . __ . __ . __
 72
    65
 73
     4
 40
9.0
 49
6.0
 49
-0.75
 49
1.5
 49
-0.75
  0
LTYPE
  2
AM_ISO02W050X2
 70
     0
  3
 _ _ _ _ _ _ _ _ _ _ _ _
 72
    65
 73
     2
 40
3.75
 49
3.0
 49
-0.75
  0
LTYPE
  2
AMZIGZAG
 70
     0
  3
/\/-/\/-/\/-/\/-/\/-/\/
 72
    65
 73
     2
 40
11.0001
 49
0.0001
 49
-11.0
  0
ENDTAB
  0
TABLE
  2
LAYER
 70
     7
  0
LAYER
  2
0
 70
     0
 62
     7
  6
CONTINUOUS
  0
LAYER
  2
240
 70
     0
 62
     4
  6
CONTINUOUS
  0
LAYER
  2
241
 70
     0
 62
   211
  6
CONTINUOUS
  0
LAYER
  2
245
 70
     0
 62
     2
  6
CENTER2
  0
LAYER
  2
250
 70
     0
 62
     3
  6
CONTINUOUS
  0
LAYER
  2
DEFPOINTS
 70
     0
 62
     7
  6
CONTINUOUS
  0
LAYER
  2
247
 70
     0
 62
    60
  6
CONTINUOUS
  0
ENDTAB
  0
TABLE
  2
STYLE
 70
     8
  0
STYLE
  2
STANDARD
 70
     0
 40
0.0
 41
1.0
 50
0.0
 71
     0
 42
3.0
  3
romans.shx
  4
BIGFONT.SHX
  0
STYLE
  2
ANNOTATIVE
 70
     0
 40
0.0
 41
1.0
 50
0.0
 71
     0
 42
0.2
  3
txt
  4

  0
STYLE
  2
YOKO
 70
     0
 40
0.0
 41
1.0
 50
0.0
 71
     0
 42
3.0
  3
romans.shx
  4
extfont.shx
  0
STYLE
  2
ACJISGDT
 70
     0
 40
0.0
 41
1.0
 50
0.0
 71
     0
 42
3.0
  3
amgdt.shx
  4
extfont.shx
  0
STYLE
  2
ACJISTS
 70
     0
 40
1.0
 41
1.0
 50
0.0
 71
     0
 42
3.0
  3
amgdt.shx
  4
extfont.shx
  0
STYLE
  2
ACANSGDT
 70
     0
 40
0.0
 41
1.0
 50
0.0
 71
     0
 42
3.0
  3
amgdt.shx
  4

  0
STYLE
  2

 70
     1
 40
0.0
 41
1.0
 50
0.0
 71
     0
 42
3.0
  3
genltshp.shx
  4

  0
STYLE
  2
ACANSTS
 70
     0
 40
0.0
 41
1.0
 50
0.0
 71
     0
 42
3.0
  3
romans.shx
  4
extfont.shx
  0
ENDTAB
  0
TABLE
  2
VIEW
 70
     1
  0
VIEW
  2
OLE1
 70
     0
 40
107.24546117
 10
63.352259160000003
 20
17.494841359999999
 41
156.14494606
 11
0.0
 21
0.0
 31
1.0
 12
0.0
 22
0.0
 32
0.0
 42
50.0
 43
0.0
 44
0.0
 50
0.0
 71
     0
  0
ENDTAB
  0
TABLE
  2
UCS
 70
     0
  0
ENDTAB
  0
TABLE
  2
APPID
 70
    41
  0
APPID
  2
ACAD
 70
     0
  0
APPID
  2
ACADANNOTATIVE
 70
     0
  0
APPID
  2
GLOBAL
 70
     0
  0
APPID
  2
DETAIL
 70
     0
  0
APPID
  2
GRPNAME
 70
     0
  0
APPID
  2
GPARA
 70
     0
  0
APPID
  2
DCO15
 70
     0
  0
APPID
  2
ITEMNAME
 70
     0
  0
APPID
  2
GRADE_0
 70
     0
  0
APPID
  2
HATCH_TYPE
 70
     0
  0
APPID
  2
HATCH_DISPLAY
 70
     0
  0
APPID
  2
HATCH_DISTANCE
 70
     0
  0
APPID
  2
CONTENTBLOCKICON
 70
     0
  0
APPID
  2
MCAD_NO_VIS
 70
     0
  0
APPID
  2
ACAD_TEMP_GRAPHIC
 70
     0
  0
APPID
  2
ACATTRIBSERVICES
 70
     0
  0
APPID
  2
GENIUS_GENSCREG_15
 70
     0
  0
APPID
  2
GENIUS_GENODEF_13
 70
     0
  0
APPID
  2
GENIUS_GENOBJ-N-SDF_13
 70
     0
  0
APPID
  2
GENIUS_GENREC_14
 70
     0
  0
APPID
  2
GENIUS_GENOBJ-N-REC_13
 70
     0
  0
APPID
  2
GENIUS_GENDIMSH_14
 70
     0
  0
APPID
  2
GENIUS_GENOBJ-N-DIM_13
 70
     0
  0
APPID
  2
GENIUS_GENDIM_13
 70
     0
  0
APPID
  2
GENIUS_GENDTOL_13
 70
     0
  0
APPID
  2
GENIUS_GENOLIS_13
 70
     0
  0
APPID
  2
GENIUS_GENOENT_13
 70
     0
  0
APPID
  2
GENIUS_GENOBJ-F-FEM_13
 70
     0
  0
APPID
  2
GENIUS_GENOREF_13
 70
     0
  0
APPID
  2
GENIUS_GEFFEM_13
 70
     0
  0
APPID
  2
GENIUS_GEFFEMP_13
 70
     0
  0
APPID
  2
AD_DRAW
 70
     0
  0
APPID
  2
DESIGNERASSEMBLIES
 70
     0
  0
APPID
  2
ACADM_DIM_EDIT
 70
     0
  0
APPID
  2
AMDT_DM_ADJ
 70
     0
  0
APPID
  2
GENIUS_GENOBJ-N-FIL_13
 70
     0
  0
APPID
  2
ACAD_DSTYLE_DIMBREAK
 70
     0
  0
APPID
  2
ACAD_DSTYLE_DIMJAG
 70
     0
  0
APPID
  2
ACAD_NAV_VCDISPLAY
 70
     0
  0
APPID
  2
ACAD_EXEMPT_FROM_CAD_STANDARDS
 70
     0
  0
APPID
  2
ACAD_MLEADERVER
 70
     0
  0
ENDTAB
  0
TABLE
  2
DIMSTYLE
 70
    17
  0
DIMSTYLE
  2
STANDARD
 70
     0
  3

  4

  5

  6

  7

 40
1.0
 41
0.18
 42
0.0625
 43
0.38
 44
0.18
 45
0.0
 46
0.0
 47
0.0
 48
0.0
140
0.18
141
0.09
142
0.0
143
25.399999999999999
144
1.0
145
0.0
146
1.0
147
0.09
 71
     0
 72
     0
 73
     1
 74
     1
 75
     0
 76
     0
 77
     0
 78
     0
170
     0
171
     2
172
     0
173
     0
174
     0
175
     0
176
     0
177
     0
178
     0
  0
DIMSTYLE
  2
ANNOTATIVE
 70
     0
  3

  4

  5

  6

  7

 40
1.0
 41
0.18
 42
0.0625
 43
0.38
 44
0.18
 45
0.0
 46
0.0
 47
0.0
 48
0.0
140
0.18
141
0.09
142
0.0
143
25.399999999999999
144
1.0
145
0.0
146
1.0
147
0.09
 71
     0
 72
     0
 73
     1
 74
     1
 75
     0
 76
     0
 77
     0
 78
     0
170
     0
171
     2
172
     0
173
     0
174
     0
175
     0
176
     0
177
     0
178
     0
  0
DIMSTYLE
  2
BIGT
 70
     0
  3

  4

  5

  6

  7

 40
1.0
 41
2.2299999999999991
 42
0.5
 43
7.0
 44
1.0
 45
0.0
 46
0.0
 47
0.0
 48
0.01
140
2.799999999999998
141
0.0
142
0.0
143
25.399999999999999
144
1.0
145
0.0
146
1.0
147
1.0
 71
     0
 72
     0
 73
     0
 74
     0
 75
     0
 76
     0
 77
     3
 78
     9
170
     0
171
     2
172
     1
173
     0
174
     1
175
     0
176
   256
177
   256
178
    40
  0
DIMSTYLE
  2
BIGT$0
 70
     0
  3

  4

  5

  6

  7

 40
1.0
 41
2.2299999999999991
 42
0.5
 43
7.0
 44
1.0
 45
0.0
 46
0.0
 47
0.0
 48
0.01
140
2.799999999999998
141
0.0
142
0.0
143
25.399999999999999
144
1.0
145
0.0
146
1.0
147
1.0
 71
     0
 72
     0
 73
     0
 74
     0
 75
     0
 76
     0
 77
     3
 78
     9
170
     0
171
     2
172
     1
173
     0
174
     0
175
     0
176
   256
177
   256
178
    40
  0
DIMSTYLE
  2
BIGT$2
 70
     0
  3

  4

  5

  6

  7

 40
1.0
 41
2.2299999999999991
 42
0.5
 43
7.0
 44
1.0
 45
0.0
 46
0.0
 47
0.0
 48
0.01
140
2.799999999999998
141
0.0
142
0.0
143
25.399999999999999
144
1.0
145
0.0
146
1.0
147
1.0
 71
     0
 72
     0
 73
     0
 74
     0
 75
     0
 76
     0
 77
     3
 78
     9
170
     0
171
     2
172
     1
173
     0
174
     0
175
     0
176
   256
177
   256
178
    40
  0
DIMSTYLE
  2
BIGT$3
 70
     0
  3

  4

  5

  6

  7

 40
1.0
 41
2.2299999999999991
 42
0.5
 43
2.5
 44
1.0
 45
0.0
 46
0.0
 47
0.0
 48
0.01
140
2.799999999999998
141
0.0
142
0.0
143
25.399999999999999
144
1.0
145
0.0
146
1.0
147
1.0
 71
     0
 72
     0
 73
     0
 74
     0
 75
     0
 76
     0
 77
     3
 78
     9
170
     0
171
     2
172
     1
173
     0
174
     0
175
     0
176
   256
177
   256
178
    40
  0
DIMSTYLE
  2
BIGT$4
 70
     0
  3

  4

  5

  6

  7

 40
1.0
 41
2.2299999999999991
 42
0.5
 43
2.5
 44
1.0
 45
0.0
 46
0.0
 47
0.0
 48
0.01
140
2.799999999999998
141
0.0
142
0.0
143
25.399999999999999
144
1.0
145
0.0
146
1.0
147
1.0
 71
     0
 72
     0
 73
     0
 74
     0
 75
     0
 76
     0
 77
     3
 78
     9
170
     0
171
     2
172
     1
173
     0
174
     0
175
     0
176
   256
177
   256
178
    40
  0
DIMSTYLE
  2
BIGT$6
 70
     0
  3

  4

  5

  6

  7

 40
1.0
 41
2.2299999999999991
 42
0.5
 43
2.5
 44
1.0
 45
0.0
 46
0.0
 47
0.0
 48
0.01
140
2.799999999999998
141
0.0
142
0.0
143
25.399999999999999
144
1.0
145
0.0
146
1.0
147
1.0
 71
     0
 72
     0
 73
     0
 74
     0
 75
     0
 76
     0
 77
     3
 78
     9
170
     0
171
     2
172
     1
173
     0
174
     0
175
     0
176
   256
177
   256
178
    40
  0
DIMSTYLE
  2
BIGT$7
 70
     0
  3

  4

  5

  6

  7

 40
0.0
 41
2.2299999999999991
 42
0.5
 43
7.0
 44
1.0
 45
0.0
 46
0.0
 47
0.0
 48
0.01
140
2.799999999999998
141
0.0
142
0.0
143
25.399999999999999
144
1.0
145
0.0
146
1.0
147
1.0
 71
     0
 72
     0
 73
     0
 74
     0
 75
     0
 76
     0
 77
     3
 78
     9
170
     0
171
     2
172
     0
173
     0
174
     0
175
     0
176
   256
177
   256
178
    40
  0
DIMSTYLE
  2
BIGT$SF
 70
     0
  3

  4

  5

  6

  7

 40
1.0
 41
2.2299999999999991
 42
0.5
 43
7.0
 44
1.0
 45
0.0
 46
0.0
 47
0.0
 48
0.0
140
2.799999999999998
141
0.0
142
0.0
143
25.399999999999999
144
1.0
145
0.0
146
1.0
147
1.0
 71
     0
 72
     0
 73
     0
 74
     0
 75
     0
 76
     0
 77
     3
 78
     9
170
     0
171
     2
172
     1
173
     0
174
     0
175
     0
176
   256
177
   256
178
    40
  0
DIMSTYLE
  2
BIGT$SH
 70
     0
  3

  4

  5

  6

  7

 40
1.0
 41
2.2299999999999991
 42
0.5
 43
7.0
 44
1.0
 45
0.0
 46
0.0
 47
0.0
 48
0.0
140
2.799999999999998
141
0.0
142
0.0
143
25.399999999999999
144
1.0
145
0.0
146
1.0
147
1.0
 71
     0
 72
     0
 73
     0
 74
     0
 75
     0
 76
     0
 77
     3
 78
     9
170
     0
171
     2
172
     1
173
     0
174
     0
175
     0
176
   256
177
   256
178
    40
  0
DIMSTYLE
  2
AM_ANSI
 70
     0
  3

  4
mm
  5

  6

  7

 40
1.0
 41
0.1
 42
0.05
 43
0.5
 44
0.1
 45
0.0
 46
0.0
 47
0.1
 48
0.1
140
0.12
141
0.0
142
0.0
143
25.399999999999999
144
1.0
145
0.0
146
0.71
147
0.06
 71
     0
 72
     0
 73
     1
 74
     1
 75
     0
 76
     0
 77
     0
 78
     7
170
     0
171
     2
172
     0
173
     0
174
     0
175
     0
176
   256
177
   256
178
     2
  0
DIMSTYLE
  2
AM_ANSI$3
 70
     0
  3

  4
mm
  5

  6

  7

 40
1.0
 41
0.1
 42
0.05
 43
0.5
 44
0.1
 45
0.0
 46
0.0
 47
0.1
 48
0.1
140
0.12
141
0.0
142
0.0
143
25.399999999999999
144
1.0
145
0.0
146
0.71
147
0.06
 71
     0
 72
     0
 73
     1
 74
     1
 75
     0
 76
     0
 77
     0
 78
     7
170
     0
171
     2
172
     0
173
     0
174
     0
175
     0
176
   256
177
   256
178
     2
  0
DIMSTYLE
  2
AM_ANSI$4
 70
     0
  3

  4
mm
  5

  6

  7

 40
1.0
 41
0.1
 42
0.05
 43
0.5
 44
0.1
 45
0.0
 46
0.0
 47
0.1
 48
0.1
140
0.12
141
0.0
142
0.0
143
25.399999999999999
144
1.0
145
0.0
146
0.71
147
0.06
 71
     0
 72
     0
 73
     1
 74
     1
 75
     0
 76
     0
 77
     0
 78
     7
170
     0
171
     2
172
     0
173
     0
174
     0
175
     0
176
   256
177
   256
178
     2
  0
DIMSTYLE
  2
AM_ANSI$7
 70
     0
  3

  4
mm
  5

  6

  7

 40
1.0
 41
0.1
 42
0.05
 43
0.5
 44
0.1
 45
0.0
 46
0.0
 47
0.1
 48
0.1
140
0.24
141
0.0
142
0.0
143
25.399999999999999
144
1.0
145
0.0
146
0.71
147
0.06
 71
     0
 72
     0
 73
     1
 74
     1
 75
     0
 76
     0
 77
     0
 78
     7
170
     0
171
     2
172
     0
173
     0
174
     0
175
     0
176
   256
177
   256
178
     2
  0
DIMSTYLE
  2
AM_ANSI$SF
 70
     0
  3

  4
mm
  5

  6

  7

 40
1.0
 41
0.1
 42
0.05
 43
0.5
 44
0.1
 45
0.0
 46
0.0
 47
0.1
 48
0.1
140
0.12
141
0.0
142
0.0
143
25.399999999999999
144
1.0
145
0.0
146
0.71
147
0.06
 71
     0
 72
     0
 73
     1
 74
     1
 75
     1
 76
     1
 77
     0
 78
     7
170
     0
171
     2
172
     0
173
     0
174
     0
175
     0
176
   256
177
   256
178
     2
  0
DIMSTYLE
  2
AM_ANSI$SH
 70
     0
  3

  4
mm
  5

  6

  7

 40
1.0
 41
0.1
 42
0.05
 43
0.5
 44
0.1
 45
0.0
 46
0.0
 47
0.1
 48
0.1
140
0.12
141
0.0
142
0.0
143
25.399999999999999
144
1.0
145
0.0
146
0.71
147
0.06
 71
     0
 72
     0
 73
     1
 74
     1
 75
     1
 76
     1
 77
     0
 78
     7
170
     0
171
     2
172
     0
173
     1
174
     0
175
     0
176
   256
177
   256
178
     2
  0
ENDTAB
  0
ENDSEC
  0
SECTION
  2
BLOCKS
  0
BLOCK
  8
0
  2
$MODEL_SPACE
 70
     0
 10
0.0
 20
0.0
 30
0.0
  3
$MODEL_SPACE
  1

  0
ENDBLK
  5
10A5
  8
0
  0
BLOCK
 67
     1
  8
0
  2
$PAPER_SPACE
 70
     0
 10
0.0
 20
0.0
 30
0.0
  3
$PAPER_SPACE
  1

  0
ENDBLK
  5
10A1
 67
     1
  8
0
  0
BLOCK
  8
0
  2
_OPEN
 70
     0
 10
0.0
 20
0.0
 30
0.0
  3
_OPEN
  1

  0
LINE
  5
C7F
  8
0
  6
BYBLOCK
 62
     0
 10
-1.0
 20
0.1666666666666666
 30
0.0
 11
0.0
 21
0.0
 31
0.0
  0
LINE
  5
C80
  8
0
  6
BYBLOCK
 62
     0
 10
-1.0
 20
-0.1666666666666666
 30
0.0
 11
0.0
 21
0.0
 31
0.0
  0
LINE
  5
C81
  8
0
  6
BYBLOCK
 62
     0
 10
0.0
 20
0.0
 30
0.0
 11
-1.0
 21
0.0
 31
0.0
  0
ENDBLK
  5
C82
  8
0
  0
BLOCK
  8
0
  2
矢印なし
 70
     0
 10
0.0
 20
0.0
 30
0.0
  3
矢印なし
  1

  0
ENDBLK
  5
6E5
  8
0
  0
BLOCK
  8
0
  2
_ACMFILLEDHALF
 70
     0
 10
0.0
 20
0.0
 30
0.0
  3
_ACMFILLEDHALF
  1

  0
TRACE
  5
F4C
  8
240
 62
     0
 10
-0.8
 20
0.0
 30
0.0
 11
-1.0
 21
0.166666666
 31
0.0
 12
0.0
 22
0.0
 32
0.0
 13
0.0
 23
0.0
 33
0.0
  0
LINE
  5
F4D
  8
240
 62
     0
 10
-1.0
 20
0.0
 30
0.0
 11
-0.8
 21
0.0
 31
0.0
  0
ENDBLK
  5
F4B
  8
0
  0
ENDSEC
  0
SECTION
  2
ENTITIES
  0
INSERT
  5
6E6
  8
245
  2
矢印なし
 10
175.62382697000001
 20
90.551235719999994
 30
0.0
  0
LINE
  5
983
  8
250
  6
CONTINUOUS
 10
7.5787339400000002
 20
-26.017036690000001
 30
0.0
 11
-7.3545993999999979
 21
-26.017036690000001
 31
0.0
1001
ITEMNAME
1000
LNSP2
  0
TEXT
  5
98C
  8
241
  6
CONTINUOUS
 10
0.0
 20
56.0
 30
0.0
 40
5.0
  1
ST32-FCM32113-130
  7
YOKO
 11
0.0
 21
56.0
 31
0.0
 73
     1
  0
LINE
  5
CE5
  8
240
  6
CONTINUOUS
 10
94.999999990000006
 20
16.0
 30
0.0
 11
0.0
 21
16.0
 31
0.0
  0
LINE
  5
CE6
  8
240
  6
CONTINUOUS
 10
94.999999990000006
 20
-16.0
 30
0.0
 11
0.0
 21
-16.0
 31
0.0
  0
LINE
  5
CE7
  8
245
  6
CENTER2
 10
131.0
 20
0.0
 30
0.0
 11
-1.0
 21
0.0
 31
0.0
  0
LINE
  5
CEA
  8
240
  6
CONTINUOUS
 10
0.0
 20
16.0
 30
0.0
 11
0.0
 21
-16.0
 31
0.0
  0
LINE
  5
CEE
  8
241
  6
CONTINUOUS
 10
95.0
 20
-15.981716520000001
 30
0.0
 11
95.0
 21
15.981716520000001
 31
0.0
  0
LINE
  5
CEF
  8
240
  6
CONTINUOUS
 10
96.039230480000001
 20
-15.4
 30
0.0
 11
94.999999990000006
 21
-16.0
 31
0.0
  0
LINE
  5
CF2
  8
240
  6
CONTINUOUS
 10
117.49029678926981
 20
15.4
 30
0.0
 11
96.039230489999994
 21
15.4
 31
0.0
  0
LINE
  5
CF3
  8
240
  6
CONTINUOUS
 10
117.35358982
 20
-15.4
 30
0.0
 11
96.039230489999994
 21
-15.4
 31
0.0
  0
LINE
  5
CF6
  8
241
  6
CONTINUOUS
 10
96.039230480000001
 20
-15.4
 30
0.0
 11
96.039230480000001
 21
15.4
 31
0.0
  0
LINE
  5
CF7
  8
240
  6
CONTINUOUS
 10
96.039230489999994
 20
15.4
 30
0.0
 11
94.999999990000006
 21
16.0
 31
0.0
  0
ARC
  5
D64
  8
241
  6
CONTINUOUS
 10
107.9645568990492
 20
-9.4792274768600802
 30
0.0
 40
4.5645568990493111
 50
79.999982399905917
 51
251.76021479350999
  0
LINE
  5
D65
  8
241
  6
CONTINUOUS
 10
111.11954680193411
 20
-15.32500000000001
 30
0.0
 11
106.5358757519589
 21
-13.81443795209737
 31
0.0
  0
LINE
  5
D66
  8
241
  6
CONTINUOUS
 10
118.5737001845132
 20
-3.6720239803061561
 30
0.0
 11
129.40000000000001
 21
-5.5809927390155281
 31
0.0
  0
LINE
  5
D67
  8
241
  6
CONTINUOUS
 10
117.55360950603691
 20
-6.843062290144502
 30
0.0
 11
129.40000000000001
 21
-11.15479581344106
 31
0.0
  0
LINE
  5
D68
  8
240
  6
CONTINUOUS
 10
129.40000000000001
 20
-11.15479581344105
 30
0.0
 11
130.00000000000011
 21
-11.37317795400083
 31
0.0
  0
LINE
  5
D69
  8
241
  6
CONTINUOUS
 10
117.20710221830799
 20
-6.47396504030465
 30
0.0
 11
108.75718388642611
 21
-4.984016453610935
 31
0.0
  0
LINE
  5
D6A
  8
241
  6
CONTINUOUS
 10
117.55360950603691
 20
-6.843062290144502
 30
0.0
 11
117.06877723739071
 21
-6.7575732800642081
 31
0.0
  0
LINE
  5
D6B
  8
241
  6
CONTINUOUS
 10
118.5737001845132
 20
-3.6720239803061561
 30
0.0
 11
117.06877723739071
 21
-6.7575732800642081
 31
0.0
  0
LINE
  5
D6C
  8
241
  6
CONTINUOUS
 10
129.39105095233469
 20
-5.5794147804604961
 30
0.0
 11
129.40000000000001
 21
-5.664559281466218
 31
0.0
  0
LINE
  5
D6D
  8
240
  6
CONTINUOUS
 10
129.40000000000001
 20
-5.664559281466218
 30
0.0
 11
130.0
 21
-11.37317795400083
 31
0.0
  0
LINE
  5
D6E
  8
240
  6
CONTINUOUS
 10
129.40000000000001
 20
-15.29999999999999
 30
0.0
 11
129.40000000000001
 21
-11.15479581344105
 31
0.0
  0
LINE
  5
D6F
  8
240
  6
CONTINUOUS
 10
129.40000000000001
 20
-5.664559281466218
 30
0.0
 11
129.40000000000001
 21
5.761749670647303
 31
0.0
  0
LINE
  5
D70
  8
240
  6
CONTINUOUS
 10
129.09999999999999
 20
6.5000000000000231
 30
0.0
 11
129.09999999999999
 21
5.8487585017123891
 31
0.0
  0
LINE
  5
D71
  8
241
  6
CONTINUOUS
 10
103.40000000000001
 20
15.32500000000004
 30
0.0
 11
103.40000000000001
 21
14.804875013105139
 31
0.0
  0
LINE
  5
D72
  8
241
  6
CONTINUOUS
 10
129.09999999999999
 20
5.8487585017123891
 30
0.0
 11
104.8428989424991
 21
12.88403186184803
 31
0.0
  0
ARC
  5
D75
  8
241
  6
CONTINUOUS
 10
105.40000000000001
 20
14.804875013105139
 30
0.0
 40
2.0
 50
180.0
 51
253.82628522745151
  0
LINE
  5
D78
  8
240
  6
CONTINUOUS
 10
129.72170321072991
 20
13.299999999999979
 30
0.0
 11
129.7217032107298
 21
6.5000000000000284
 31
0.0
  0
LINE
  5
D79
  8
240
  6
CONTINUOUS
 10
130.0
 20
13.631661198420099
 30
0.0
 11
129.72170321072991
 21
13.299999999999979
 31
0.0
  0
LINE
  5
D7A
  8
240
  6
CONTINUOUS
 10
130.0
 20
16.0
 30
0.0
 11
130.0
 21
13.631661198420099
 31
0.0
  0
LINE
  5
D7B
  8
240
  6
CONTINUOUS
 10
117.49029678926981
 20
16.000000000000021
 30
0.0
 11
130.0
 21
16.0
 31
0.0
  0
LINE
  5
D7C
  8
240
  6
CONTINUOUS
 10
117.49029678926981
 20
15.4
 30
0.0
 11
117.49029678926981
 21
16.000000000000021
 31
0.0
  0
LINE
  5
D7D
  8
240
  6
CONTINUOUS
 10
129.7217032107298
 20
6.5000000000000284
 30
0.0
 11
129.09999999999999
 21
6.5000000000000231
 31
0.0
  0
CIRCLE
  5
D7E
  8
241
  6
CONTINUOUS
 10
123.6059999999998
 20
11.13300000000001
 30
0.0
 40
2.8999999999999999
  0
LINE
  5
D7F
  8
241
  6
CONTINUOUS
 10
129.09999999999999
 20
6.5000000000000231
 30
0.0
 11
126.85456758705151
 21
6.5000000000000231
 31
0.0
  0
LINE
  5
D80
  8
241
  6
CONTINUOUS
 10
117.49029678926981
 20
15.325000000000429
 30
0.0
 11
117.49029678926981
 21
9.2159141863062235
 31
0.0
  0
LINE
  5
D81
  8
241
  6
CONTINUOUS
 10
117.49029678926981
 20
16.000000000000021
 30
0.0
 11
122.9615072214668
 21
13.960477508030589
 31
0.0
  0
LINE
  5
D82
  8
241
  6
CONTINUOUS
 10
125.9440551858147
 20
12.84866253910379
 30
0.0
 11
129.72170321072991
 21
11.440455304335741
 31
0.0
  0
LINE
  5
D83
  8
241
  6
CONTINUOUS
 10
117.49029678926981
 20
11.0595446956643
 30
0.0
 11
121.0708467346078
 21
9.7248104101463717
 31
0.0
  0
LINE
  5
D84
  8
241
  6
CONTINUOUS
 10
124.6007639285091
 20
8.4089506747239522
 30
0.0
 11
129.7217032107298
 21
6.5000000000000284
 31
0.0
  0
LINE
  5
D85
  8
240
  6
CONTINUOUS
 10
129.40000000000001
 20
-15.29999999999999
 30
0.0
 11
118.10000003
 21
-15.6
 31
0.0
1001
GRPNAME
1000
PASTMD0V
  0
LINE
  5
D86
  8
240
  6
CONTINUOUS
 10
117.35358982
 20
-15.4
 30
0.0
 11
118.10000003
 21
-15.6
 31
0.0
1001
GRPNAME
1000
PASTMD0V
1001
GENIUS_GENOREF_13
1005
D88
  0
POINT
  5
D88
  8
0
 10
65.000000000000014
 20
0.0
 30
0.0
1001
GENIUS_GENOENT_13
1002
{
1000
MYREF
1005
D88
1002
}
1002
{
1000
GRP
1005
0
1002
}
1001
GENIUS_GENOLIS_13
1002
{
1000
ENT
1005
D86
1005
0
1002
}
1001
GENIUS_GENOBJ-N-FIL_13
1002
{
1000
OWNER
1000
GEN
1002
}
1001
GENIUS_GENODEF_13
1002
{
1000
HIER
1070
     1
1002
}
1002
{
1000
MANEDIT
1070
     1
1002
}
1002
{
1000
NOSEL
1070
     0
1002
}
1002
{
1000
BEHIND
1070
     0
1002
}
1002
{
1000
OTHER
1070
     0
1002
}
1002
{
1000
REACTOR
1002
}
  0
TEXT
  5
D8D
  8
250
  6
CONTINUOUS
 10
-4.9545994000000011
 20
-25.017036690000001
 30
0.0
 40
2.799999999999998
  1
ST32
  7
YOKO
1001
ITEMNAME
1000
LNSP3
1001
ACAD
1000
MTEXTBEGIN
1070
    73
1070
     1
1070
    44
1040
1.0
1070
    74
1070
     0
1000
MTEXTEND
1000
MTEXTBEGIN
1070
    73
1070
     1
1070
    44
1040
1.0
1070
    74
1070
     0
1000
MTEXTEND
1000
MTEXTBEGIN
1070
    73
1070
     1
1070
    44
1040
1.0
1070
    74
1070
     0
1000
MTEXTEND
1000
MTEXTBEGIN
1070
    73
1070
     1
1070
    44
1040
1.0
1070
    74
1070
     0
1000
MTEXTEND
1000
MTEXTBEGIN
1070
    73
1070
     1
1070
    44
1040
1.0
1070
    74
1070
     0
1000
MTEXTEND
1000
MTEXTBEGIN
1070
    73
1070
     1
1070
    44
1040
1.0
1070
    74
1070
     0
1000
MTEXTEND
1000
MTEXTBEGIN
1070
    73
1070
     1
1070
    44
1040
1.0
1070
    74
1070
     0
1000
MTEXTEND
  0
LINE
  5
D8E
  8
250
  6
CONTINUOUS
 10
0.0
 20
16.5
 30
0.0
 11
0.0
 21
43.0
 31
0.0
  0
LINE
  5
D8F
  8
250
  6
CONTINUOUS
 10
130.0
 20
16.5
 30
0.0
 11
130.0
 21
43.0
 31
0.0
  0
LINE
  5
D90
  8
250
  6
CONTINUOUS
 10
2.2299999999999991
 20
42.0
 30
0.0
 11
127.77
 21
42.0
 31
0.0
  0
LINE
  5
D94
  8
250
  6
CONTINUOUS
 10
94.999999990000006
 20
16.5
 30
0.0
 11
94.999999990000006
 21
36.0
 31
0.0
  0
LINE
  5
D95
  8
250
  6
CONTINUOUS
 10
130.0
 20
16.5
 30
0.0
 11
130.0
 21
36.0
 31
0.0
  0
LINE
  5
D96
  8
250
  6
CONTINUOUS
 10
97.229999989999996
 20
35.0
 30
0.0
 11
127.77
 21
35.0
 31
0.0
  0
LINE
  5
D9A
  8
250
  6
CONTINUOUS
 10
119.0
 20
16.5
 30
0.0
 11
119.0
 21
29.0
 31
0.0
  0
LINE
  5
D9B
  8
250
  6
CONTINUOUS
 10
130.0
 20
16.5
 30
0.0
 11
130.0
 21
29.0
 31
0.0
  0
LINE
  5
D9C
  8
250
  6
CONTINUOUS
 10
121.23
 20
28.0
 30
0.0
 11
127.77
 21
28.0
 31
0.0
  0
LINE
  5
DA1
  8
250
  6
CONTINUOUS
 10
130.5
 20
16.0
 30
0.0
 11
141.0
 21
16.0
 31
0.0
  0
LINE
  5
DA2
  8
250
  6
CONTINUOUS
 10
140.0
 20
-13.77
 30
0.0
 11
140.0
 21
13.77
 31
0.0
  0
LINE
  5
DAC
  8
250
  6
CONTINUOUS
 10
12.24707276992102
 20
-17.9312366503937
 30
0.0
 11
7.5787339400000002
 21
-26.017036690000001
 31
0.0
1001
ACAD
1000
DSTYLE
1002
{
1070
     6
1000
OPEN
1070
   343
1005
594
1002
}
  0
LINE
  5
DAD
  8
250
  6
CONTINUOUS
 10
11.92519999485541
 20
-17.745403317047199
 30
0.0
 11
13.362072769999999
 21
-16.0
 31
0.0
  0
LINE
  5
DAE
  8
250
  6
CONTINUOUS
 10
12.56894554498664
 20
-18.117069983740201
 30
0.0
 11
13.362072769999999
 21
-16.0
 31
0.0
  0
LINE
  5
DAF
  8
250
  6
CONTINUOUS
 10
13.362072769999999
 20
-16.0
 30
0.0
 11
12.24707276992102
 21
-17.9312366503937
 31
0.0
  0
TEXT
  5
DB0
  8
250
  6
CONTINUOUS
 10
60.799999999999997
 20
43.0
 30
0.0
 40
2.799999999999998
  1
130
1001
ACAD
1000
MTEXTBEGIN
1070
    73
1070
     1
1070
    44
1040
1.0
1070
    74
1070
     0
1000
MTEXTEND
  0
LINE
  5
DB1
  8
250
  6
CONTINUOUS
 10
127.77
 20
42.371666666666663
 30
0.0
 11
130.0
 21
42.0
 31
0.0
  0
LINE
  5
DB2
  8
250
  6
CONTINUOUS
 10
127.77
 20
41.62833333333333
 30
0.0
 11
130.0
 21
42.0
 31
0.0
  0
LINE
  5
DB3
  8
250
  6
CONTINUOUS
 10
130.0
 20
42.0
 30
0.0
 11
127.77
 21
42.0
 31
0.0
  0
LINE
  5
DB4
  8
250
  6
CONTINUOUS
 10
2.2299999999999991
 20
41.62833333333333
 30
0.0
 11
0.0
 21
42.0
 31
0.0
  0
LINE
  5
DB5
  8
250
  6
CONTINUOUS
 10
2.2299999999999991
 20
42.371666666666663
 30
0.0
 11
0.0
 21
42.0
 31
0.0
  0
LINE
  5
DB6
  8
250
  6
CONTINUOUS
 10
0.0
 20
42.0
 30
0.0
 11
2.2299999999999991
 21
42.0
 31
0.0
  0
TEXT
  5
DB7
  8
250
  6
CONTINUOUS
 10
109.3333333333333
 20
36.0
 30
0.0
 40
2.799999999999998
  1
35
1001
ACAD
1000
MTEXTBEGIN
1070
    73
1070
     1
1070
    44
1040
1.0
1070
    74
1070
     0
1000
MTEXTEND
  0
LINE
  5
DB8
  8
250
  6
CONTINUOUS
 10
127.77
 20
35.37166666666667
 30
0.0
 11
130.0
 21
35.0
 31
0.0
  0
LINE
  5
DB9
  8
250
  6
CONTINUOUS
 10
127.77
 20
34.62833333333333
 30
0.0
 11
130.0
 21
35.0
 31
0.0
  0
LINE
  5
DBA
  8
250
  6
CONTINUOUS
 10
130.0
 20
35.0
 30
0.0
 11
127.77
 21
35.0
 31
0.0
  0
LINE
  5
DBB
  8
250
  6
CONTINUOUS
 10
97.229999990000024
 20
34.62833333333333
 30
0.0
 11
94.999999990000006
 21
35.0
 31
0.0
  0
LINE
  5
DBC
  8
250
  6
CONTINUOUS
 10
97.229999990000024
 20
35.37166666666667
 30
0.0
 11
94.999999990000006
 21
35.0
 31
0.0
  0
LINE
  5
DBD
  8
250
  6
CONTINUOUS
 10
94.999999990000006
 20
35.0
 30
0.0
 11
97.229999990000024
 21
35.0
 31
0.0
  0
TEXT
  5
DBE
  8
250
  6
CONTINUOUS
 10
122.0333333333333
 20
29.0
 30
0.0
 40
2.799999999999998
  1
11
1001
ACAD
1000
MTEXTBEGIN
1070
    73
1070
     1
1070
    44
1040
1.0
1070
    74
1070
     0
1000
MTEXTEND
1000
MTEXTBEGIN
1070
    73
1070
     1
1070
    44
1040
1.0
1070
    74
1070
     0
1000
MTEXTEND
  0
LINE
  5
DBF
  8
250
  6
CONTINUOUS
 10
127.77
 20
28.371666666666659
 30
0.0
 11
130.0
 21
28.0
 31
0.0
  0
LINE
  5
DC0
  8
250
  6
CONTINUOUS
 10
127.77
 20
27.62833333333333
 30
0.0
 11
130.0
 21
28.0
 31
0.0
  0
LINE
  5
DC1
  8
250
  6
CONTINUOUS
 10
130.0
 20
28.0
 30
0.0
 11
127.77
 21
28.0
 31
0.0
  0
LINE
  5
DC2
  8
250
  6
CONTINUOUS
 10
121.23
 20
27.62833333333333
 30
0.0
 11
119.0
 21
28.0
 31
0.0
  0
LINE
  5
DC3
  8
250
  6
CONTINUOUS
 10
121.23
 20
28.371666666666659
 30
0.0
 11
119.0
 21
28.0
 31
0.0
  0
LINE
  5
DC4
  8
250
  6
CONTINUOUS
 10
119.0
 20
28.0
 30
0.0
 11
121.23
 21
28.0
 31
0.0
  0
TEXT
  5
DC5
  8
250
  6
CONTINUOUS
 10
139.0
 20
-3.7999999999999989
 30
0.0
 40
2.799999999999998
  1
\U+2205
 50
90.0
1001
ACAD
1000
MTEXTBEGIN
1070
    73
1070
     1
1070
    44
1040
1.0
1070
    74
1070
     0
1000
MTEXTEND
  0
TEXT
  5
DC6
  8
250
  6
CONTINUOUS
 10
139.0
 20
-1.2666666666666651
 30
0.0
 40
2.799999999999998
  1
32
 50
90.0
1001
ACAD
1000
MTEXTBEGIN
1070
    73
1070
     1
1070
    44
1040
1.0
1070
    74
1070
     0
1000
MTEXTEND
  0
LINE
  5
DC7
  8
250
  6
CONTINUOUS
 10
139.6283333333333
 20
13.77
 30
0.0
 11
140.0
 21
16.0
 31
0.0
  0
LINE
  5
DC8
  8
250
  6
CONTINUOUS
 10
140.37166666666661
 20
13.77
 30
0.0
 11
140.0
 21
16.0
 31
0.0
  0
LINE
  5
DC9
  8
250
  6
CONTINUOUS
 10
140.0
 20
16.0
 30
0.0
 11
140.0
 21
13.77
 31
0.0
  0
LINE
  5
F72
  8
240
  6
CONTINUOUS
 10
129.09999999999999
 20
5.8487585017123891
 30
0.0
 11
129.40000000000001
 21
5.761749670647303
 31
0.0
  0
LINE
  5
FBD
  8
247
  6
CONTINUOUS
 10
6.7499999999299964
 20
-10.0
 30
0.0
 11
13.442307691970001
 21
-10.0
 31
0.0
  0
ARC
  5
FBE
  8
247
  6
CONTINUOUS
 10
6.7499999999299964
 20
-8.2500000000700311
 30
0.0
 40
1.7499999999299991
 50
90.0
 51
270.0
  0
ARC
  5
FBF
  8
247
  6
CONTINUOUS
 10
13.442307691970001
 20
-8.2500000000700311
 30
0.0
 40
1.7499999999299991
 50
270.0
 51
90.0
  0
LINE
  5
FC0
  8
247
  6
CONTINUOUS
 10
7.6153846152799911
 20
-6.5000000001400622
 30
0.0
 11
6.7551484580379917
 21
-9.5000000000200089
 31
0.0
  0
LINE
  5
FC1
  8
247
  6
CONTINUOUS
 10
8.5150161816641798
 20
-7.9230769231598961
 30
0.0
 11
7.2073238740241816
 21
-7.9230769231598961
 31
0.0
  0
ARC
  5
FC2
  8
247
  6
CONTINUOUS
 10
8.8548561839102131
 20
-7.049598667702865
 30
0.0
 40
0.5538165441895349
 50
342.99788967529543
 51
82.924166218512752
  0
ARC
  5
FC3
  8
247
  6
CONTINUOUS
 10
8.4331216769712114
 20
-6.9360330444658302
 30
0.0
 40
0.9904354236226808
 50
274.74293685220141
 51
343.84922627326642
1001
GENIUS_GENOBJ-N-FIL_13
1002
{
1000
OWNER
1000
GEN
1002
}
1001
GENIUS_GENODEF_13
1002
{
1000
HIER
1070
     0
1002
}
1002
{
1000
MANEDIT
1070
     0
1002
}
1002
{
1000
NOSEL
1070
     0
1002
}
1002
{
1000
BEHIND
1070
     0
1002
}
1002
{
1000
OTHER
1070
     0
1002
}
1002
{
1000
REACTOR
1002
}
  0
LINE
  5
FC4
  8
247
  6
CONTINUOUS
 10
8.0628407656779864
 20
-9.5000000000200089
 30
0.0
 11
6.7551484580379917
 21
-9.5000000000200089
 31
0.0
  0
LINE
  5
FC5
  8
247
  6
CONTINUOUS
 10
7.6153846152799911
 20
-6.5000000001400622
 30
0.0
 11
8.9230769229200035
 21
-6.5000000001400622
 31
0.0
  0
ARC
  5
FC6
  8
247
  6
CONTINUOUS
 10
8.43908036345303
 20
-8.4820242326654807
 30
0.0
 40
0.5640818586791229
 50
335.99094165252171
 51
82.263443459069123
  0
ARC
  5
FC7
  8
247
  6
CONTINUOUS
 10
7.9617373146529342
 20
-8.4874290391865088
 30
0.0
 40
1.0176059446230981
 50
275.70198516425808
 51
347.27733843682228
1001
GENIUS_GENOBJ-N-FIL_13
1002
{
1000
OWNER
1000
GEN
1002
}
1001
GENIUS_GENODEF_13
1002
{
1000
HIER
1070
     0
1002
}
1002
{
1000
MANEDIT
1070
     0
1002
}
1002
{
1000
NOSEL
1070
     0
1002
}
1002
{
1000
BEHIND
1070
     0
1002
}
1002
{
1000
OTHER
1070
     0
1002
}
1002
{
1000
REACTOR
1002
}
  0
LINE
  5
FC8
  8
247
  6
CONTINUOUS
 10
9.7166869194580006
 20
-9.5000000000200089
 30
0.0
 11
10.576923076699989
 21
-6.5000000001400622
 31
0.0
  0
LINE
  5
FC9
  8
247
  6
CONTINUOUS
 10
12.99999999968
 20
-6.5000000001400622
 30
0.0
 11
12.434263380543401
 21
-6.5000000001400622
 31
0.0
  0
LINE
  5
FCA
  8
247
  6
CONTINUOUS
 10
11.538461538200011
 20
-9.5000000000200089
 30
0.0
 11
12.153846153559989
 21
-9.5000000000200089
 31
0.0
  0
ARC
  5
FCB
  8
247
  6
CONTINUOUS
 10
13.29120879087713
 20
-8.5832851359733695
 30
0.0
 40
2.2526500823422122
 50
112.35948814153041
 51
164.99324854284609
  0
ARC
  5
FCC
  8
247
  6
CONTINUOUS
 10
12.62593052078677
 20
-7.3083126551946389
 30
0.0
 40
0.8906723995727782
 50
4.9945893190753647
 51
65.166328957300863
1001
GENIUS_GENOBJ-N-FIL_13
1002
{
1000
OWNER
1000
GEN
1002
}
1001
GENIUS_GENODEF_13
1002
{
1000
HIER
1070
     0
1002
}
1002
{
1000
MANEDIT
1070
     0
1002
}
1002
{
1000
NOSEL
1070
     0
1002
}
1002
{
1000
BEHIND
1070
     0
1002
}
1002
{
1000
OTHER
1070
     0
1002
}
1002
{
1000
REACTOR
1002
}
  0
ARC
  5
FCD
  8
247
  6
CONTINUOUS
 10
11.77354111378742
 20
-8.1601458886677847
 30
0.0
 40
1.392781735586712
 50
285.84609655578078
 51
352.32513700416251
  0
ARC
  5
FCE
  8
247
  6
CONTINUOUS
 10
12.35778727415963
 20
-8.4592434315272822
 30
0.0
 40
1.324563662670287
 50
159.71360167049011
 51
231.7887456564128
1001
GENIUS_GENOBJ-N-FIL_13
1002
{
1000
OWNER
1000
GEN
1002
}
1001
GENIUS_GENODEF_13
1002
{
1000
HIER
1070
     0
1002
}
1002
{
1000
MANEDIT
1070
     0
1002
}
1002
{
1000
NOSEL
1070
     0
1002
}
1002
{
1000
BEHIND
1070
     0
1002
}
1002
{
1000
OTHER
1070
     0
1002
}
1002
{
1000
REACTOR
1002
}
  0
LINE
  5
FCF
  8
247
  6
CONTINUOUS
 10
12.46153846124
 20
-8.3461538462199751
 30
0.0
 11
13.153846153519989
 21
-8.3461538462199751
 31
0.0
  0
LINE
  5
FD0
  8
247
  6
CONTINUOUS
 10
6.749999999929968
 20
-6.5000000001400622
 30
0.0
 11
7.4230769229799289
 21
-6.5000000001400622
 31
0.0
  0
VIEWPORT
  5
22
 67
     1
  8
0
 10
261.51769911999997
 20
148.5
 30
0.0
 40
523.03539823000006
 41
297.0
 68
     1
 69
     1
1001
ACAD
1000
MVIEW
1002
{
1070
    16
1010
0.0
1020
0.0
1030
0.0
1010
0.0
1020
0.0
1030
1.0
1040
0.0
1040
297.0
1040
261.51769911999997
1040
148.5
1040
50.0
1040
0.0
1040
0.0
1070
     0
1070
   100
1070
     1
1070
     1
1070
     0
1070
     0
1070
     0
1070
     0
1040
0.0
1040
0.0
1040
0.0
1040
1.0
1040
1.0
1040
10.0
1040
10.0
1070
     0
1002
{
1002
}
1002
}
1001
GENIUS_GENODEF_13
1002
{
1000
HIER
1070
     0
1002
}
1002
{
1000
MANEDIT
1070
     0
1002
}
1002
{
1000
NOSEL
1070
     0
1002
}
1002
{
1000
BEHIND
1070
     0
1002
}
1002
{
1000
OTHER
1070
     0
1002
}
1002
{
1000
REACTOR
1002
}
1001
GENIUS_GENOBJ-N-SDF_13
1002
{
1000
OWNER
1000
GEN
1002
}
1001
GENIUS_GENSCREG_15
1000
PF
1040
1.0
1000
DF
1040
1.0
1000
MIN
1011
0.0000000049999471
1021
0.0
1031
0.0
1021
0.0
1031
0.0
1000
MAX
1011
523.035398235
1021
0.0
1031
0.0
1021
297.0
1031
0.0
1000
FLAGS
1070
     4
  0
ENDSEC
  0
EOF
