  0
SECTION
  2
HEADER
  9
$ACADVER
  1
AC1009
  9
$INSBASE
 10
0.0
 20
0.0
 30
0.0
  9
$EXTMIN
 10
-318.80000000000001
 20
-26.35457580422894
 30
0.0
  9
$EXTMAX
 10
23.999999999999339
 20
61.000000000000007
 30
0.0
  9
$LIMMIN
 10
0.0
 20
0.0
  9
$LIMMAX
 10
297.0
 20
210.0
  9
$ORTHOMODE
 70
     0
  9
$REGENMODE
 70
     1
  9
$FILLMODE
 70
     1
  9
$QTEXTMODE
 70
     0
  9
$MIRRTEXT
 70
     1
  9
$DRAGMODE
 70
     2
  9
$LTSCALE
 40
10.0
  9
$OSMODE
 70
  2799
  9
$ATTMODE
 70
     1
  9
$TEXTSIZE
 40
3.0
  9
$TRACEWID
 40
1.0
  9
$TEXTSTYLE
  7
YOKO
  9
$CLAYER
  8
245
  9
$CELTYPE
  6
BYLAYER
  9
$CECOLOR
 62
   256
  9
$DIMSCALE
 40
1.0
  9
$DIMASZ
 40
2.2299999999999991
  9
$DIMEXO
 40
0.5
  9
$DIMDLI
 40
7.0
  9
$DIMRND
 40
0.0
  9
$DIMDLE
 40
0.0
  9
$DIMEXE
 40
1.0
  9
$DIMTP
 40
0.0
  9
$DIMTM
 40
0.01
  9
$DIMTXT
 40
2.7999999999999989
  9
$DIMCEN
 40
0.0
  9
$DIMTSZ
 40
0.0
  9
$DIMTOL
 70
     0
  9
$DIMLIM
 70
     0
  9
$DIMTIH
 70
     0
  9
$DIMTOH
 70
     0
  9
$DIMSE1
 70
     0
  9
$DIMSE2
 70
     0
  9
$DIMTAD
 70
     3
  9
$DIMZIN
 70
     9
  9
$DIMBLK
  1
OPEN
  9
$DIMASO
 70
     1
  9
$DIMSHO
 70
     1
  9
$DIMPOST
  1

  9
$DIMAPOST
  1

  9
$DIMALT
 70
     0
  9
$DIMALTD
 70
     2
  9
$DIMALTF
 40
25.399999999999999
  9
$DIMLFAC
 40
1.0
  9
$DIMTOFL
 70
     1
  9
$DIMTVP
 40
0.0
  9
$DIMTIX
 70
     1
  9
$DIMSOXD
 70
     0
  9
$DIMSAH
 70
     0
  9
$DIMBLK1
  1

  9
$DIMBLK2
  1

  9
$DIMSTYLE
  2
BIGT
  9
$DIMCLRD
 70
   256
  9
$DIMCLRE
 70
   256
  9
$DIMCLRT
 70
    40
  9
$DIMTFAC
 40
1.0
  9
$DIMGAP
 40
1.0
  9
$LUNITS
 70
     2
  9
$LUPREC
 70
     3
  9
$SKETCHINC
 40
1.0
  9
$FILLETRAD
 40
0.0
  9
$AUNITS
 70
     0
  9
$AUPREC
 70
     3
  9
$MENU
  1
.
  9
$ELEVATION
 40
0.0
  9
$PELEVATION
 40
0.0
  9
$THICKNESS
 40
0.0
  9
$LIMCHECK
 70
     0
  9
$BLIPMODE
 70
     0
  9
$CHAMFERA
 40
0.25
  9
$CHAMFERB
 40
0.25
  9
$SKPOLY
 70
     0
  9
$TDCREATE
 40
2455006.493242546
  9
$TDUPDATE
 40
2455006.4978450462
  9
$TDINDWG
 40
0.0040006481
  9
$TDUSRTIMER
 40
0.0040006481
  9
$USRTIMER
 70
     1
  9
$ANGBASE
 50
0.0
  9
$ANGDIR
 70
     0
  9
$PDMODE
 70
     1
  9
$PDSIZE
 40
0.0
  9
$PLINEWID
 40
0.0
  9
$COORDS
 70
     0
  9
$SPLFRAME
 70
     0
  9
$SPLINETYPE
 70
     6
  9
$SPLINESEGS
 70
     4
  9
$ATTDIA
 70
     1
  9
$ATTREQ
 70
     1
  9
$HANDLING
 70
     1
  9
$HANDSEED
  5
17D3
  9
$SURFTAB1
 70
     6
  9
$SURFTAB2
 70
     6
  9
$SURFTYPE
 70
     6
  9
$SURFU
 70
     6
  9
$SURFV
 70
     6
  9
$UCSNAME
  2

  9
$UCSORG
 10
0.0
 20
0.0
 30
0.0
  9
$UCSXDIR
 10
1.0
 20
0.0
 30
0.0
  9
$UCSYDIR
 10
0.0
 20
1.0
 30
0.0
  9
$PUCSNAME
  2

  9
$PUCSORG
 10
0.0
 20
0.0
 30
0.0
  9
$PUCSXDIR
 10
1.0
 20
0.0
 30
0.0
  9
$PUCSYDIR
 10
0.0
 20
1.0
 30
0.0
  9
$USERI1
 70
     1
  9
$USERI2
 70
     0
  9
$USERI3
 70
     0
  9
$USERI4
 70
     0
  9
$USERI5
 70
     0
  9
$USERR1
 40
0.0
  9
$USERR2
 40
0.0
  9
$USERR3
 40
0.0
  9
$USERR4
 40
0.0
  9
$USERR5
 40
0.0
  9
$WORLDVIEW
 70
     1
  9
$SHADEDGE
 70
     3
  9
$SHADEDIF
 70
    70
  9
$TILEMODE
 70
     1
  9
$MAXACTVP
 70
    16
  9
$PLIMCHECK
 70
     0
  9
$PEXTMIN
 10
1.0000000000000000E+020
 20
1.0000000000000000E+020
 30
1.0000000000000000E+020
  9
$PEXTMAX
 10
-1.0000000000000000E+020
 20
-1.0000000000000000E+020
 30
-1.0000000000000000E+020
  9
$PLIMMIN
 10
0.0
 20
0.0
  9
$PLIMMAX
 10
420.0
 20
297.0
  9
$UNITMODE
 70
     0
  9
$VISRETAIN
 70
     1
  9
$PLINEGEN
 70
     0
  9
$PSLTSCALE
 70
     1
  0
ENDSEC
  0
SECTION
  2
TABLES
  0
TABLE
  2
VPORT
 70
     3
  0
VPORT
  2
*ACTIVE
 70
     0
 10
0.0
 20
0.0
 11
1.0
 21
1.0
 12
-147.39649165735639
 22
17.321091085114858
 13
0.0
 23
0.0
 14
7.0
 24
7.0
 15
7.0
 25
7.0
 16
0.0
 26
0.0
 36
1.0
 17
0.0
 27
0.0
 37
0.0
 40
216.56839395748139
 41
1.589155370177268
 42
50.0
 43
0.0
 44
0.0
 50
0.0
 51
0.0
 71
     0
 72
  2000
 73
     1
 74
     0
 75
     0
 76
     1
 77
     0
 78
     0
  0
ENDTAB
  0
TABLE
  2
LTYPE
 70
    13
  0
LTYPE
  2
CONTINUOUS
 70
     0
  3
Solid line
 72
    65
 73
     0
 40
0.0
  0
LTYPE
  2
CENTER2
 70
     0
  3
___ _ ___ _ ___ _ ___ _ ___ _ ___ _ ___ _ ___ _
 72
    65
 73
     4
 40
1.125
 49
0.75
 49
-0.125
 49
0.125
 49
-0.125
  0
LTYPE
  2
HIDDEN2
 70
     0
  3
_ _ _ _ _ _ _ _ _ _ _ _ _ _ _ _ _ _ _ _ _ _ _ _
 72
    65
 73
     2
 40
0.1875
 49
0.125
 49
-0.0625
  0
LTYPE
  2
PHANTOM2
 70
     0
  3
___ _ _ ___ _ _ ___ _ _ ___ _ _ ___ _ _ ___ _ _
 72
    65
 73
     6
 40
1.25
 49
0.625
 49
-0.125
 49
0.125
 49
-0.125
 49
0.125
 49
-0.125
  0
LTYPE
  2
CENTER
 70
     0
  3
____ _ ____ _ ____ _ ____ _ ____ _ ____ _ ____ 
 72
    65
 73
     4
 40
2.0
 49
1.25
 49
-0.25
 49
0.25
 49
-0.25
  0
LTYPE
  2
AM_ISO02W050
 70
     0
  3
__ __ __ __ __ __ __ __ __ __ __ __ __ __ __
 72
    65
 73
     2
 40
7.5
 49
6.0
 49
-1.5
  0
LTYPE
  2
AMCONSTR
 70
     0
  3
_______________________
 72
    65
 73
     2
 40
9999.0
 49
9999.0
 49
0.0
  0
LTYPE
  2
ACISOWELD
 70
     0
  3
_ _ _ _ _
 72
    65
 73
     2
 40
2.0
 49
2.0
 49
-1.0
  0
LTYPE
  2
ACISOTGB
 70
     0
  3
__ . . __ . .
 72
    65
 73
     6
 40
9.0
 49
4.0
 49
-1.0
 49
1.0
 49
-1.0
 49
1.0
 49
-1.0
  0
LTYPE
  2
ACISOTGL
 70
     0
  3
_ _ _ _ _
 72
    65
 73
     2
 40
3.0
 49
2.0
 49
-1.0
  0
LTYPE
  2
ACJISTGB
 70
     0
  3
__ . . __ . .
 72
    65
 73
     6
 40
9.0
 49
4.0
 49
-1.0
 49
1.0
 49
-1.0
 49
1.0
 49
-1.0
  0
LTYPE
  2
ACJISTGL
 70
     0
  3
_ _ _ _ _
 72
    65
 73
     2
 40
3.0
 49
2.0
 49
-1.0
  0
LTYPE
  2
HIDDEN
 70
     0
  3
Hidden __ __ __ __ __ __ __ __ __ __ __ __ __ _
 72
    65
 73
     2
 40
9.5249999999999986
 49
6.3499999999999988
 49
-3.1749999999999989
  0
ENDTAB
  0
TABLE
  2
LAYER
 70
     7
  0
LAYER
  2
0
 70
     0
 62
     7
  6
CONTINUOUS
  0
LAYER
  2
DEFPOINTS
 70
     0
 62
     7
  6
CONTINUOUS
  0
LAYER
  2
245
 70
     0
 62
     2
  6
CENTER2
  0
LAYER
  2
240
 70
     0
 62
     4
  6
CONTINUOUS
  0
LAYER
  2
241
 70
     0
 62
   211
  6
CONTINUOUS
  0
LAYER
  2
247
 70
     0
 62
    60
  6
CONTINUOUS
  0
LAYER
  2
250
 70
     0
 62
     3
  6
CONTINUOUS
  0
ENDTAB
  0
TABLE
  2
STYLE
 70
     6
  0
STYLE
  2
STANDARD
 70
     0
 40
0.0
 41
1.0
 50
0.0
 71
     0
 42
3.0
  3
romans.shx
  4
extfont.shx
  0
STYLE
  2
ACISOTS
 70
     0
 40
1.0
 41
1.0
 50
0.0
 71
     0
 42
3.0
  3
amgdt.shx
  4
extfont.shx
  0
STYLE
  2
ACISOGDT
 70
     0
 40
0.0
 41
1.0
 50
0.0
 71
     0
 42
3.0
  3
amgdt.shx
  4
extfont.shx
  0
STYLE
  2
ACJISTS
 70
     0
 40
1.0
 41
1.0
 50
0.0
 71
     0
 42
3.0
  3
amgdt.shx
  4
extfont.shx
  0
STYLE
  2
ACJISGDT
 70
     0
 40
0.0
 41
1.0
 50
0.0
 71
     0
 42
3.0
  3
amgdt.shx
  4
extfont.shx
  0
STYLE
  2
YOKO
 70
     0
 40
0.0
 41
1.0
 50
0.0
 71
     0
 42
3.0
  3
romans.shx
  4
extfont.shx
  0
ENDTAB
  0
TABLE
  2
VIEW
 70
     0
  0
ENDTAB
  0
TABLE
  2
UCS
 70
     0
  0
ENDTAB
  0
TABLE
  2
APPID
 70
    32
  0
APPID
  2
ACAD
 70
     0
  0
APPID
  2
GLOBAL
 70
     0
  0
APPID
  2
DETAIL
 70
     0
  0
APPID
  2
GRPNAME
 70
     0
  0
APPID
  2
GPARA
 70
     0
  0
APPID
  2
MCAD_NO_VIS
 70
     0
  0
APPID
  2
ACAD_TEMP_GRAPHIC
 70
     0
  0
APPID
  2
ACATTRIBSERVICES
 70
     0
  0
APPID
  2
GENIUS_GENSCREG_15
 70
     0
  0
APPID
  2
GENIUS_GENODEF_13
 70
     0
  0
APPID
  2
GENIUS_GENOBJ-N-SDF_13
 70
     0
  0
APPID
  2
GENIUS_GENREC_14
 70
     0
  0
APPID
  2
GENIUS_GENOBJ-N-REC_13
 70
     0
  0
APPID
  2
GENIUS_GENDIMSH_14
 70
     0
  0
APPID
  2
GENIUS_GENOBJ-N-DIM_13
 70
     0
  0
APPID
  2
GENIUS_GENDIM_13
 70
     0
  0
APPID
  2
GENIUS_GENDTOL_13
 70
     0
  0
APPID
  2
GENIUS_GENOLIS_13
 70
     0
  0
APPID
  2
GENIUS_GENOENT_13
 70
     0
  0
APPID
  2
GENIUS_GENOBJ-F-FEM_13
 70
     0
  0
APPID
  2
GENIUS_GENOREF_13
 70
     0
  0
APPID
  2
GENIUS_GEFFEM_13
 70
     0
  0
APPID
  2
GENIUS_GEFFEMP_13
 70
     0
  0
APPID
  2
AD_DRAW
 70
     0
  0
APPID
  2
DESIGNERASSEMBLIES
 70
     0
  0
APPID
  2
ACADM_DIM_EDIT
 70
     0
  0
APPID
  2
AMDT_DM_ADJ
 70
     0
  0
APPID
  2
ITEMNAME
 70
     0
  0
APPID
  2
GENIUS_GENOBJ-N-FIL_13
 70
     0
  0
APPID
  2
HATCH_TYPE
 70
     0
  0
APPID
  2
HATCH_DISPLAY
 70
     0
  0
APPID
  2
HATCH_DISTANCE
 70
     0
  0
ENDTAB
  0
TABLE
  2
DIMSTYLE
 70
    23
  0
DIMSTYLE
  2
BIGT
 70
     0
  3

  4

  5
OPEN
  6

  7

 40
1.0
 41
2.2299999999999991
 42
0.5
 43
7.0
 44
1.0
 45
0.0
 46
0.0
 47
0.0
 48
0.01
140
2.7999999999999989
141
0.0
142
0.0
143
25.399999999999999
144
1.0
145
0.0
146
1.0
147
1.0
 71
     0
 72
     0
 73
     0
 74
     0
 75
     0
 76
     0
 77
     3
 78
     9
170
     0
171
     2
172
     1
173
     0
174
     1
175
     0
176
   256
177
   256
178
    40
  0
DIMSTYLE
  2
AM_ISO
 70
     0
  3

  4
"
  5

  6

  7

 40
1.0
 41
2.5
 42
1.0
 43
10.0
 44
1.0
 45
0.0
 46
0.0
 47
0.1
 48
0.1
140
3.5
141
0.0
142
0.0
143
0.0393701
144
1.0
145
0.0
146
0.71
147
1.5
 71
     0
 72
     0
 73
     0
 74
     0
 75
     0
 76
     0
 77
     1
 78
     8
170
     0
171
     2
172
     1
173
     0
174
     0
175
     0
176
   256
177
   256
178
     2
  0
DIMSTYLE
  2
AM_ISO$3
 70
     0
  3

  4
"
  5

  6

  7

 40
1.0
 41
2.5
 42
1.0
 43
10.0
 44
1.0
 45
0.0
 46
0.0
 47
0.1
 48
0.1
140
3.5
141
0.0
142
0.0
143
0.0393701
144
1.0
145
0.0
146
0.71
147
1.5
 71
     0
 72
     0
 73
     0
 74
     1
 75
     0
 76
     0
 77
     1
 78
     8
170
     0
171
     2
172
     0
173
     0
174
     0
175
     0
176
   256
177
   256
178
     2
  0
DIMSTYLE
  2
AM_ISO$4
 70
     0
  3

  4
"
  5

  6

  7

 40
1.0
 41
2.5
 42
1.0
 43
10.0
 44
1.0
 45
0.0
 46
0.0
 47
0.1
 48
0.1
140
3.5
141
0.0
142
0.0
143
0.0393701
144
1.0
145
0.0
146
0.71
147
1.5
 71
     0
 72
     0
 73
     0
 74
     1
 75
     0
 76
     0
 77
     1
 78
     8
170
     0
171
     2
172
     0
173
     0
174
     0
175
     0
176
   256
177
   256
178
     2
  0
DIMSTYLE
  2
AM_ISO$6
 70
     0
  3

  4
"
  5

  6

  7

 40
1.0
 41
2.5
 42
1.0
 43
10.0
 44
1.0
 45
0.0
 46
0.0
 47
0.1
 48
0.1
140
3.5
141
0.0
142
0.0
143
0.0393701
144
1.0
145
0.0
146
0.71
147
1.5
 71
     0
 72
     0
 73
     0
 74
     0
 75
     0
 76
     0
 77
     0
 78
     8
170
     0
171
     2
172
     1
173
     0
174
     0
175
     0
176
   256
177
   256
178
     2
  0
DIMSTYLE
  2
AM_ISO$7
 70
     0
  3

  4
"
  5

  6

  7

 40
1.0
 41
2.5
 42
1.0
 43
10.0
 44
1.0
 45
0.0
 46
0.0
 47
0.1
 48
0.1
140
5.0
141
0.0
142
0.0
143
0.0393701
144
1.0
145
0.0
146
0.71
147
1.5
 71
     0
 72
     0
 73
     0
 74
     0
 75
     0
 76
     0
 77
     1
 78
     8
170
     0
171
     2
172
     1
173
     0
174
     0
175
     0
176
   256
177
   256
178
     2
  0
DIMSTYLE
  2
AM_ISO$SF
 70
     0
  3

  4
"
  5

  6

  7

 40
1.0
 41
2.5
 42
1.0
 43
10.0
 44
1.0
 45
0.0
 46
0.0
 47
0.1
 48
0.1
140
3.5
141
0.0
142
0.0
143
0.0393701
144
1.0
145
0.0
146
0.71
147
1.5
 71
     0
 72
     0
 73
     0
 74
     0
 75
     1
 76
     1
 77
     1
 78
     8
170
     0
171
     2
172
     1
173
     0
174
     0
175
     0
176
   256
177
   256
178
     2
  0
DIMSTYLE
  2
AM_ISO$SH
 70
     0
  3

  4
"
  5

  6
GENAXEH
  7

 40
1.0
 41
2.5
 42
1.0
 43
10.0
 44
1.0
 45
0.0
 46
0.0
 47
0.1
 48
0.1
140
3.5
141
0.0
142
0.0
143
0.0393701
144
2.0
145
0.0
146
0.71
147
1.5
 71
     0
 72
     0
 73
     0
 74
     0
 75
     1
 76
     1
 77
     1
 78
     8
170
     0
171
     2
172
     1
173
     1
174
     0
175
     0
176
   256
177
   256
178
     2
  0
DIMSTYLE
  2
BIGT$2
 70
     0
  3

  4

  5
OPEN
  6

  7

 40
1.0
 41
2.2299999999999991
 42
0.5
 43
7.0
 44
1.0
 45
0.0
 46
0.0
 47
0.0
 48
0.01
140
2.7999999999999989
141
0.0
142
0.0
143
25.399999999999999
144
1.0
145
0.0
146
1.0
147
1.0
 71
     0
 72
     0
 73
     0
 74
     0
 75
     0
 76
     0
 77
     3
 78
     9
170
     0
171
     2
172
     1
173
     0
174
     0
175
     0
176
   256
177
   256
178
    40
  0
DIMSTYLE
  2
BIGT$3
 70
     0
  3

  4

  5
OPEN
  6

  7

 40
1.0
 41
2.2299999999999991
 42
0.5
 43
2.5
 44
1.0
 45
0.0
 46
0.0
 47
0.0
 48
0.01
140
2.7999999999999989
141
0.0
142
0.0
143
25.399999999999999
144
1.0
145
0.0
146
1.0
147
1.0
 71
     0
 72
     0
 73
     0
 74
     0
 75
     0
 76
     0
 77
     3
 78
     9
170
     0
171
     2
172
     1
173
     0
174
     0
175
     0
176
   256
177
   256
178
    40
  0
DIMSTYLE
  2
BIGT$7
 70
     0
  3

  4

  5
OPEN
  6

  7

 40
0.0
 41
2.2299999999999991
 42
0.5
 43
7.0
 44
1.0
 45
0.0
 46
0.0
 47
0.0
 48
0.01
140
2.7999999999999989
141
0.0
142
0.0
143
25.399999999999999
144
1.0
145
0.0
146
1.0
147
1.0
 71
     0
 72
     0
 73
     0
 74
     0
 75
     0
 76
     0
 77
     3
 78
     9
170
     0
171
     2
172
     0
173
     0
174
     0
175
     0
176
   256
177
   256
178
    40
  0
DIMSTYLE
  2
BIGT$6
 70
     0
  3

  4

  5
OPEN
  6

  7

 40
1.0
 41
2.2299999999999991
 42
0.5
 43
2.5
 44
1.0
 45
0.0
 46
0.0
 47
0.0
 48
0.01
140
2.7999999999999989
141
0.0
142
0.0
143
25.399999999999999
144
1.0
145
0.0
146
1.0
147
1.0
 71
     0
 72
     0
 73
     0
 74
     0
 75
     0
 76
     0
 77
     3
 78
     9
170
     0
171
     2
172
     1
173
     0
174
     0
175
     0
176
   256
177
   256
178
    40
  0
DIMSTYLE
  2
BIGT$0
 70
     0
  3

  4

  5
OPEN
  6

  7

 40
1.0
 41
2.2299999999999991
 42
0.5
 43
7.0
 44
1.0
 45
0.0
 46
0.0
 47
0.0
 48
0.01
140
2.7999999999999989
141
0.0
142
0.0
143
25.399999999999999
144
1.0
145
0.0
146
1.0
147
1.0
 71
     0
 72
     0
 73
     0
 74
     0
 75
     0
 76
     0
 77
     3
 78
     9
170
     0
171
     2
172
     1
173
     0
174
     0
175
     0
176
   256
177
   256
178
    40
  0
DIMSTYLE
  2
BIGT$4
 70
     0
  3

  4

  5
OPEN
  6

  7

 40
1.0
 41
2.2299999999999991
 42
0.5
 43
2.5
 44
1.0
 45
0.0
 46
0.0
 47
0.0
 48
0.01
140
2.7999999999999989
141
0.0
142
0.0
143
25.399999999999999
144
1.0
145
0.0
146
1.0
147
1.0
 71
     0
 72
     0
 73
     0
 74
     0
 75
     0
 76
     0
 77
     3
 78
     9
170
     0
171
     2
172
     1
173
     0
174
     0
175
     0
176
   256
177
   256
178
    40
  0
DIMSTYLE
  2
BIGT$SH
 70
     0
  3

  4

  5
OPEN
  6

  7

 40
1.0
 41
2.2299999999999991
 42
0.5
 43
7.0
 44
1.0
 45
0.0
 46
0.0
 47
0.0
 48
0.0
140
2.7999999999999989
141
0.0
142
0.0
143
25.399999999999999
144
1.0
145
0.0
146
1.0
147
1.0
 71
     0
 72
     0
 73
     0
 74
     0
 75
     0
 76
     0
 77
     3
 78
     9
170
     0
171
     2
172
     1
173
     0
174
     0
175
     0
176
   256
177
   256
178
    40
  0
DIMSTYLE
  2
BIGT$SF
 70
     0
  3

  4

  5
OPEN
  6

  7

 40
1.0
 41
2.2299999999999991
 42
0.5
 43
7.0
 44
1.0
 45
0.0
 46
0.0
 47
0.0
 48
0.0
140
2.7999999999999989
141
0.0
142
0.0
143
25.399999999999999
144
1.0
145
0.0
146
1.0
147
1.0
 71
     0
 72
     0
 73
     0
 74
     0
 75
     0
 76
     0
 77
     3
 78
     9
170
     0
171
     2
172
     1
173
     0
174
     0
175
     0
176
   256
177
   256
178
    40
  0
DIMSTYLE
  2
TECHNICAL_OSAKA
 70
     0
  3

  4
"
  5
OPEN30
  6

  7

 40
1.0
 41
2.5
 42
1.0
 43
10.0
 44
1.0
 45
0.0
 46
0.0
 47
0.1
 48
0.1
140
2.7999999999999989
141
0.0
142
0.0
143
0.0393701
144
1.0
145
0.0
146
0.71
147
1.5
 71
     0
 72
     0
 73
     0
 74
     0
 75
     0
 76
     0
 77
     3
 78
     8
170
     0
171
     2
172
     1
173
     0
174
     0
175
     0
176
   256
177
   256
178
    40
  0
DIMSTYLE
  2
TECHNICAL_OSAKA$3
 70
     0
  3

  4
"
  5
OPEN30
  6

  7

 40
1.0
 41
2.5
 42
1.0
 43
10.0
 44
1.0
 45
0.0
 46
0.0
 47
0.1
 48
0.1
140
2.7999999999999989
141
0.0
142
0.0
143
0.0393701
144
1.0
145
0.0
146
0.71
147
1.5
 71
     0
 72
     0
 73
     0
 74
     1
 75
     0
 76
     0
 77
     3
 78
     8
170
     0
171
     2
172
     0
173
     0
174
     0
175
     0
176
   256
177
   256
178
    40
  0
DIMSTYLE
  2
TECHNICAL_OSAKA$4
 70
     0
  3

  4
"
  5
OPEN30
  6

  7

 40
1.0
 41
2.5
 42
1.0
 43
10.0
 44
1.0
 45
0.0
 46
0.0
 47
0.1
 48
0.1
140
2.7999999999999989
141
0.0
142
0.0
143
0.0393701
144
1.0
145
0.0
146
0.71
147
1.5
 71
     0
 72
     0
 73
     0
 74
     1
 75
     0
 76
     0
 77
     3
 78
     8
170
     0
171
     2
172
     0
173
     0
174
     0
175
     0
176
   256
177
   256
178
    40
  0
DIMSTYLE
  2
TECHNICAL_OSAKA$6
 70
     0
  3

  4
"
  5
OPEN30
  6

  7

 40
1.0
 41
2.5
 42
1.0
 43
10.0
 44
1.0
 45
0.0
 46
0.0
 47
0.1
 48
0.1
140
2.7999999999999989
141
0.0
142
0.0
143
0.0393701
144
1.0
145
0.0
146
0.71
147
1.5
 71
     0
 72
     0
 73
     0
 74
     0
 75
     0
 76
     0
 77
     0
 78
     8
170
     0
171
     2
172
     1
173
     0
174
     0
175
     0
176
   256
177
   256
178
    40
  0
DIMSTYLE
  2
TECHNICAL_OSAKA$7
 70
     0
  3

  4
"
  5
OPEN30
  6

  7

 40
1.0
 41
2.5
 42
1.0
 43
10.0
 44
1.0
 45
0.0
 46
0.0
 47
0.1
 48
0.1
140
2.7999999999999989
141
0.0
142
0.0
143
0.0393701
144
1.0
145
0.0
146
0.71
147
1.5
 71
     0
 72
     0
 73
     0
 74
     0
 75
     0
 76
     0
 77
     3
 78
     8
170
     0
171
     2
172
     1
173
     0
174
     0
175
     0
176
   256
177
   256
178
    40
  0
DIMSTYLE
  2
TECHNICAL_OSAKA$SF
 70
     0
  3

  4
"
  5
OPEN30
  6
OPEN30
  7
OPEN30
 40
1.0
 41
2.5
 42
1.0
 43
10.0
 44
1.0
 45
0.0
 46
0.0
 47
0.1
 48
0.1
140
3.5
141
0.0
142
0.0
143
0.0393701
144
1.0
145
0.0
146
0.71
147
1.5
 71
     0
 72
     0
 73
     0
 74
     0
 75
     1
 76
     1
 77
     3
 78
     8
170
     0
171
     2
172
     1
173
     0
174
     0
175
     0
176
   256
177
   256
178
    40
  0
DIMSTYLE
  2
TECHNICAL_OSAKA$SH
 70
     0
  3

  4
"
  5
OPEN30
  6
GENAXEH
  7
OPEN30
 40
1.0
 41
2.5
 42
1.0
 43
10.0
 44
1.0
 45
0.0
 46
0.0
 47
0.1
 48
0.1
140
3.5
141
0.0
142
0.0
143
0.0393701
144
2.0
145
0.0
146
0.71
147
1.5
 71
     0
 72
     0
 73
     0
 74
     0
 75
     1
 76
     1
 77
     3
 78
     8
170
     0
171
     2
172
     1
173
     1
174
     0
175
     0
176
   256
177
   256
178
    40
  0
ENDTAB
  0
ENDSEC
  0
SECTION
  2
BLOCKS
  0
BLOCK
  8
0
  2
$MODEL_SPACE
 70
     0
 10
0.0
 20
0.0
 30
0.0
  3
$MODEL_SPACE
  1

  0
ENDBLK
  5
1C
  8
0
  0
BLOCK
 67
     1
  8
0
  2
$PAPER_SPACE
 70
     0
 10
0.0
 20
0.0
 30
0.0
  3
$PAPER_SPACE
  1

  0
ENDBLK
  5
19
 67
     1
  8
0
  0
BLOCK
  8
0
  2
_OPEN
 70
     0
 10
0.0
 20
0.0
 30
0.0
  3
_OPEN
  1

  0
LINE
  5
1769
  8
0
  6
BYBLOCK
 62
     0
 10
-1.0
 20
0.1666666666666666
 30
0.0
 11
0.0
 21
0.0
 31
0.0
  0
LINE
  5
176A
  8
0
  6
BYBLOCK
 62
     0
 10
-1.0
 20
-0.1666666666666666
 30
0.0
 11
0.0
 21
0.0
 31
0.0
  0
LINE
  5
176B
  8
0
  6
BYBLOCK
 62
     0
 10
0.0
 20
0.0
 30
0.0
 11
-1.0
 21
0.0
 31
0.0
  0
ENDBLK
  5
176C
  8
0
  0
BLOCK
  8
0
  2
GENAXEH
 70
     0
 10
0.0
 20
0.0
 30
0.0
  3
GENAXEH
  1

  0
LINE
  5
1794
  8
0
 10
-1.0
 20
0.0
 30
0.0
 11
1.0
 21
0.0
 31
0.0
  0
ENDBLK
  5
1795
  8
0
  0
BLOCK
  8
0
  2
_OPEN30
 70
     0
 10
0.0
 20
0.0
 30
0.0
  3
_OPEN30
  1

  0
LINE
  5
17B9
  8
0
  6
BYBLOCK
 62
     0
 10
-1.0
 20
0.26794919
 30
0.0
 11
0.0
 21
0.0
 31
0.0
  0
LINE
  5
17BA
  8
0
  6
BYBLOCK
 62
     0
 10
0.0
 20
0.0
 30
0.0
 11
-1.0
 21
-0.26794919
 31
0.0
  0
LINE
  5
17BB
  8
0
  6
BYBLOCK
 62
     0
 10
0.0
 20
0.0
 30
0.0
 11
-1.0
 21
0.0
 31
0.0
  0
ENDBLK
  5
17BC
  8
0
  0
ENDSEC
  0
SECTION
  2
ENTITIES
  0
LINE
  5
13F0
  8
240
  6
CONTINUOUS
 10
-298.00000000000063
 20
-16.0
 30
0.0
 11
-299.75000000000063
 21
-14.9896370289181
 31
0.0
  0
LINE
  5
13F1
  8
240
  6
CONTINUOUS
 10
-299.75000000000063
 20
14.98963702891813
 30
0.0
 11
-298.00000000000063
 21
15.999999999999989
 31
0.0
  0
LINE
  5
13F2
  8
241
 10
-298.00000000000063
 20
-16.0
 30
0.0
 11
-298.00000000000063
 21
16.0
 31
0.0
1001
GRPNAME
1000
PASTMD04
  0
LINE
  5
13F3
  8
240
  6
CONTINUOUS
 10
-298.00000000000063
 20
-16.0
 30
0.0
 11
-180.0000000000006
 21
-16.0
 31
0.0
  0
LINE
  5
13F4
  8
240
  6
CONTINUOUS
 10
-298.00000000000063
 20
16.0
 30
0.0
 11
-180.0000000000006
 21
16.0
 31
0.0
  0
LINE
  5
13F5
  8
240
  6
CONTINUOUS
 10
-300.00000000000063
 20
-14.556624327025879
 30
0.0
 11
-300.00000000000063
 21
14.55662432702592
 31
0.0
1001
GRPNAME
1000
PASTMD04
  0
LINE
  5
13F6
  8
247
 10
-233.12774292194479
 20
13.04027652563186
 30
0.0
 11
-233.12774292194479
 21
13.04027652563186
 31
0.0
1001
HATCH_DISTANCE
1040
1.0
1001
HATCH_DISPLAY
1070
     0
1001
HATCH_TYPE
1070
     7
  0
LINE
  5
13F7
  8
247
 10
-233.2190324422084
 20
13.329777715817411
 30
0.0
 11
-233.12774292194479
 21
13.04027652563186
 31
0.0
1001
HATCH_DISTANCE
1040
1.0
1001
HATCH_DISPLAY
1070
     0
1001
HATCH_TYPE
1070
     7
  0
LINE
  5
13F8
  8
247
 10
-233.2190324422084
 20
13.329777715817411
 30
0.0
 11
-233.2190324422084
 21
13.329777715817411
 31
0.0
1001
HATCH_DISTANCE
1040
1.0
1001
HATCH_DISPLAY
1070
     0
1001
HATCH_TYPE
1070
     7
  0
LINE
  5
13F9
  8
247
 10
-233.12774292194479
 20
13.04027652563186
 30
0.0
 11
-233.2190324422084
 21
13.329777715817411
 31
0.0
1001
HATCH_DISTANCE
1040
1.0
1001
HATCH_DISPLAY
1070
     0
1001
HATCH_TYPE
1070
     7
  0
LINE
  5
13FA
  8
247
 10
-233.12774292194479
 20
13.04027652563186
 30
0.0
 11
-233.12774292194479
 21
13.04027652563186
 31
0.0
  0
LINE
  5
13FB
  8
247
 10
-233.2190324422084
 20
13.329777715817411
 30
0.0
 11
-233.12774292194479
 21
13.04027652563186
 31
0.0
  0
LINE
  5
13FC
  8
247
 10
-233.2190324422084
 20
13.329777715817411
 30
0.0
 11
-233.2190324422084
 21
13.329777715817411
 31
0.0
  0
LINE
  5
13FD
  8
247
 10
-233.12774292194479
 20
13.04027652563186
 30
0.0
 11
-233.2190324422084
 21
13.329777715817411
 31
0.0
  0
LINE
  5
13FE
  8
247
 10
-233.12774292194479
 20
13.04027652563186
 30
0.0
 11
-233.12774292194479
 21
13.04027652563186
 31
0.0
1001
HATCH_DISTANCE
1040
1.0
1001
HATCH_DISPLAY
1070
     0
1001
HATCH_TYPE
1070
     7
  0
LINE
  5
13FF
  8
247
 10
-233.2190324422084
 20
13.329777715817411
 30
0.0
 11
-233.12774292194479
 21
13.04027652563186
 31
0.0
1001
HATCH_DISTANCE
1040
1.0
1001
HATCH_DISPLAY
1070
     0
1001
HATCH_TYPE
1070
     7
  0
LINE
  5
1400
  8
247
 10
-233.2190324422084
 20
13.329777715817411
 30
0.0
 11
-233.2190324422084
 21
13.329777715817411
 31
0.0
1001
HATCH_DISTANCE
1040
1.0
1001
HATCH_DISPLAY
1070
     0
1001
HATCH_TYPE
1070
     7
  0
LINE
  5
1401
  8
247
 10
-233.12774292194479
 20
13.04027652563186
 30
0.0
 11
-233.2190324422084
 21
13.329777715817411
 31
0.0
1001
HATCH_DISTANCE
1040
1.0
1001
HATCH_DISPLAY
1070
     0
1001
HATCH_TYPE
1070
     7
  0
LINE
  5
1402
  8
247
 10
-233.12774292194479
 20
13.04027652563186
 30
0.0
 11
-233.12774292194479
 21
13.04027652563186
 31
0.0
  0
LINE
  5
1403
  8
247
 10
-233.2190324422084
 20
13.329777715817411
 30
0.0
 11
-233.12774292194479
 21
13.04027652563186
 31
0.0
  0
LINE
  5
1404
  8
247
 10
-233.2190324422084
 20
13.329777715817411
 30
0.0
 11
-233.2190324422084
 21
13.329777715817411
 31
0.0
  0
LINE
  5
1405
  8
247
 10
-233.12774292194479
 20
13.04027652563186
 30
0.0
 11
-233.2190324422084
 21
13.329777715817411
 31
0.0
  0
LINE
  5
1406
  8
247
 10
-235.17160049640771
 20
13.38236331762405
 30
0.0
 11
-235.9599610921108
 21
13.38236331762405
 31
0.0
1001
HATCH_DISTANCE
1040
1.0
1001
HATCH_DISPLAY
1070
     0
1001
HATCH_TYPE
1070
     7
  0
LINE
  5
1407
  8
247
 10
-235.9538842793666
 20
10.65420591653915
 30
0.0
 11
-235.17160049640771
 21
13.38236331762405
 31
0.0
1001
HATCH_DISTANCE
1040
1.0
1001
HATCH_DISPLAY
1070
     0
1001
HATCH_TYPE
1070
     7
  0
LINE
  5
1408
  8
247
 10
-236.63187805378061
 20
10.65420591653915
 30
0.0
 11
-235.9538842793666
 21
10.65420591653915
 31
0.0
1001
HATCH_DISTANCE
1040
1.0
1001
HATCH_DISPLAY
1070
     0
1001
HATCH_TYPE
1070
     7
  0
LINE
  5
1409
  8
247
 10
-235.94519821369281
 20
13.0489282590303
 30
0.0
 11
-236.63187805378061
 21
10.65420591653915
 31
0.0
1001
HATCH_DISTANCE
1040
1.0
1001
HATCH_DISPLAY
1070
     0
1001
HATCH_TYPE
1070
     7
  0
LINE
  5
140A
  8
247
 10
-236.05557647907361
 20
13.0489282590303
 30
0.0
 11
-235.94519821369281
 21
13.0489282590303
 31
0.0
1001
HATCH_DISTANCE
1040
1.0
1001
HATCH_DISPLAY
1070
     0
1001
HATCH_TYPE
1070
     7
  0
LINE
  5
140B
  8
247
 10
-235.9599610921108
 20
13.38236331762405
 30
0.0
 11
-236.05557647907361
 21
13.0489282590303
 31
0.0
1001
HATCH_DISTANCE
1040
1.0
1001
HATCH_DISPLAY
1070
     0
1001
HATCH_TYPE
1070
     7
  0
LINE
  5
140C
  8
247
 10
-235.17160049640771
 20
13.38236331762405
 30
0.0
 11
-235.9599610921108
 21
13.38236331762405
 31
0.0
  0
LINE
  5
140D
  8
247
 10
-235.9538842793666
 20
10.65420591653915
 30
0.0
 11
-235.17160049640771
 21
13.38236331762405
 31
0.0
  0
LINE
  5
140E
  8
247
 10
-236.63187805378061
 20
10.65420591653915
 30
0.0
 11
-235.9538842793666
 21
10.65420591653915
 31
0.0
  0
LINE
  5
140F
  8
247
 10
-235.94519821369281
 20
13.0489282590303
 30
0.0
 11
-236.63187805378061
 21
10.65420591653915
 31
0.0
  0
LINE
  5
1410
  8
247
 10
-236.05557647907361
 20
13.0489282590303
 30
0.0
 11
-235.94519821369281
 21
13.0489282590303
 31
0.0
  0
LINE
  5
1411
  8
247
 10
-235.9599610921108
 20
13.38236331762405
 30
0.0
 11
-236.05557647907361
 21
13.0489282590303
 31
0.0
  0
LINE
  5
1412
  8
247
 10
-235.97170028601099
 20
10.65420591653915
 30
0.0
 11
-235.94672185476449
 21
10.67918434778565
 31
0.0
  0
LINE
  5
1413
  8
247
 10
-236.30845989055109
 20
10.65420591653915
 30
0.0
 11
-235.8113371232314
 21
11.151328683858861
 31
0.0
  0
LINE
  5
1414
  8
247
 10
-236.62651442917959
 20
10.6729109824508
 30
0.0
 11
-235.6759523916983
 21
11.62347301993209
 31
0.0
  0
LINE
  5
1415
  8
247
 10
-236.49112785005849
 20
11.145057166111879
 30
0.0
 11
-235.5405676601651
 21
12.09561735600532
 31
0.0
  0
LINE
  5
1416
  8
247
 10
-236.35574127093761
 20
11.617203349772961
 30
0.0
 11
-235.405182928632
 21
12.567761692078539
 31
0.0
  0
LINE
  5
1417
  8
247
 10
-236.2203546918166
 20
12.08934953343404
 30
0.0
 11
-235.26979819709891
 21
13.039906028151769
 31
0.0
  0
LINE
  5
1418
  8
247
 10
-236.08496811269561
 20
12.561495717095131
 30
0.0
 11
-235.26410051216669
 21
13.38236331762403
 31
0.0
  0
LINE
  5
1419
  8
247
 10
-235.94958153357459
 20
13.03364190075621
 30
0.0
 11
-235.6008601167068
 21
13.382363317624041
 31
0.0
  0
LINE
  5
141A
  8
247
 10
-235.96894343913769
 20
13.351039599733159
 30
0.0
 11
-235.9376197212469
 21
13.382363317624041
 31
0.0
  0
LINE
  5
141B
  8
247
 10
-232.300349756331
 20
10.28444119173809
 30
0.0
 11
-231.3067983351213
 21
11.277992612947751
 31
0.0
  0
LINE
  5
141C
  8
247
 10
-231.62266833942829
 20
11.298882213180789
 30
0.0
 11
-231.22464727733819
 21
11.696903275271
 31
0.0
  0
LINE
  5
141D
  8
247
 10
-232.71926041865419
 20
10.202290133954939
 30
0.0
 11
-232.32123935656401
 21
10.600311196045149
 31
0.0
  0
LINE
  5
141E
  8
247
 10
-231.5263484266882
 20
11.73196173046108
 30
0.0
 11
-231.23842201444739
 21
12.01988814270184
 31
0.0
  0
LINE
  5
141F
  8
247
 10
-233.05880088808209
 20
10.19950926906712
 30
0.0
 11
-232.75431887384431
 21
10.50399128330495
 31
0.0
  0
LINE
  5
1420
  8
247
 10
-231.55025987622199
 20
12.044809885467339
 30
0.0
 11
-231.3028712325648
 21
12.29219852912451
 31
0.0
  0
LINE
  5
1421
  8
247
 10
-233.3955604926222
 20
10.19950926906712
 30
0.0
 11
-233.09242939690799
 21
10.50264036478133
 31
0.0
  0
LINE
  5
1422
  8
247
 10
-231.63043967485129
 20
12.30138969137813
 30
0.0
 11
-231.40318030279209
 21
12.5286490634373
 31
0.0
  0
LINE
  5
1423
  8
247
 10
-233.7323200971623
 20
10.199509269067111
 30
0.0
 11
-233.42918900144809
 21
10.50264036478133
 31
0.0
  0
LINE
  5
1424
  8
247
 10
-231.75010205807521
 20
12.518486912694341
 30
0.0
 11
-231.5327484865264
 21
12.7358404842431
 31
0.0
  0
LINE
  5
1425
  8
247
 10
-234.06907970170241
 20
10.19950926906712
 30
0.0
 11
-233.7659486059882
 21
10.502640364781319
 31
0.0
  0
LINE
  5
1426
  8
247
 10
-231.9028903729459
 20
12.702458202363781
 30
0.0
 11
-231.68854428136331
 21
12.91680429394628
 31
0.0
  0
LINE
  5
1427
  8
247
 10
-234.40583930624251
 20
10.199509269067111
 30
0.0
 11
-234.10270821052831
 21
10.502640364781319
 31
0.0
  0
LINE
  5
1428
  8
247
 10
-232.0870720269923
 20
12.855036152857471
 30
0.0
 11
-231.8696773569983
 21
13.072430822851411
 31
0.0
  0
LINE
  5
1429
  8
247
 10
-234.74259891078259
 20
10.199509269067111
 30
0.0
 11
-234.43946781506841
 21
10.50264036478133
 31
0.0
  0
LINE
  5
142A
  8
247
 10
-232.30440388657979
 20
12.97446389781007
 30
0.0
 11
-232.07705030902039
 21
13.20181747536939
 31
0.0
  0
LINE
  5
142B
  8
247
 10
-235.0793585153227
 20
10.19950926906712
 30
0.0
 11
-234.77622741960849
 21
10.50264036478133
 31
0.0
  0
LINE
  5
142C
  8
247
 10
-232.56128398772131
 20
13.05434340120857
 30
0.0
 11
-232.313711917566
 21
13.30191547136395
 31
0.0
  0
LINE
  5
142D
  8
247
 10
-235.4161181198628
 20
10.19950926906712
 30
0.0
 11
-235.11298702414851
 21
10.50264036478133
 31
0.0
  0
LINE
  5
142E
  8
247
 10
-232.8746150215589
 20
13.077771971911069
 30
0.0
 11
-232.58629607688141
 21
13.3660909165886
 31
0.0
  0
LINE
  5
142F
  8
247
 10
-235.75287772440291
 20
10.19950926906712
 30
0.0
 11
-235.4497466286887
 21
10.50264036478133
 31
0.0
  0
LINE
  5
1430
  8
247
 10
-233.1567815490713
 20
13.132365048938791
 30
0.0
 11
-232.90970643629541
 21
13.37944016171466
 31
0.0
  0
LINE
  5
1431
  8
247
 10
-236.0896373289429
 20
10.19950926906712
 30
0.0
 11
-235.78650623322881
 21
10.50264036478133
 31
0.0
  0
LINE
  5
1432
  8
247
 10
-236.42639693348301
 20
10.19950926906712
 30
0.0
 11
-236.1232658377688
 21
10.502640364781341
 31
0.0
  0
LINE
  5
1433
  8
247
 10
-236.7631565380232
 20
10.19950926906712
 30
0.0
 11
-236.4600254423089
 21
10.502640364781341
 31
0.0
  0
LINE
  5
1434
  8
247
 10
-237.0999161425633
 20
10.19950926906712
 30
0.0
 11
-236.79678504684901
 21
10.502640364781341
 31
0.0
  0
LINE
  5
1435
  8
247
 10
-237.43667574710329
 20
10.19950926906713
 30
0.0
 11
-237.13354465138909
 21
10.50264036478133
 31
0.0
  0
LINE
  5
1436
  8
247
 10
-237.7734353516434
 20
10.19950926906713
 30
0.0
 11
-237.47030425592919
 21
10.50264036478133
 31
0.0
  0
LINE
  5
1437
  8
247
 10
-238.11019495618351
 20
10.199509269067139
 30
0.0
 11
-237.8070638604693
 21
10.50264036478133
 31
0.0
  0
LINE
  5
1438
  8
247
 10
-238.44695456072361
 20
10.19950926906713
 30
0.0
 11
-238.1438234650094
 21
10.50264036478133
 31
0.0
  0
LINE
  5
1439
  8
247
 10
-238.78371416526369
 20
10.19950926906713
 30
0.0
 11
-238.48058306954951
 21
10.50264036478133
 31
0.0
  0
LINE
  5
143A
  8
247
 10
-239.11368211005939
 20
10.20630092881148
 30
0.0
 11
-238.81734267408959
 21
10.50264036478133
 31
0.0
  0
LINE
  5
143B
  8
247
 10
-239.3977712723354
 20
10.25897137107566
 30
0.0
 11
-239.14211913648259
 21
10.5146235069284
 31
0.0
  0
LINE
  5
143C
  8
247
 10
-239.6431332257136
 20
10.35036902223753
 30
0.0
 11
-239.41163309486191
 21
10.58186915308919
 31
0.0
  0
LINE
  5
143D
  8
247
 10
-239.85789318630489
 20
10.47236866618629
 30
0.0
 11
-239.63860215796251
 21
10.691659694528671
 31
0.0
  0
LINE
  5
143E
  8
247
 10
-240.04584446030091
 20
10.621176996730361
 30
0.0
 11
-239.83128290995049
 21
10.83573854708078
 31
0.0
  0
LINE
  5
143F
  8
247
 10
-240.20839514469219
 20
10.79538591687918
 30
0.0
 11
-239.9924490162411
 21
11.01133204533023
 31
0.0
  0
LINE
  5
1440
  8
247
 10
-240.3451366510227
 20
10.995404015088811
 30
0.0
 11
-240.1213106507295
 21
11.219230015381919
 31
0.0
  0
LINE
  5
1441
  8
247
 10
-238.5980680565431
 20
13.079232214108419
 30
0.0
 11
-238.35925497735579
 21
13.31804529329575
 31
0.0
  0
LINE
  5
1442
  8
247
 10
-240.45368669386539
 20
11.223613576786169
 30
0.0
 11
-240.21301284888099
 21
11.46428742177053
 31
0.0
  0
LINE
  5
1443
  8
247
 10
-238.9348276610832
 20
13.07923221410843
 30
0.0
 11
-238.63169655756769
 21
13.38236331762405
 31
0.0
  0
LINE
  5
1444
  8
247
 10
-240.52864137717259
 20
11.485418498019049
 30
0.0
 11
-240.25472421992549
 21
11.759335655266209
 31
0.0
  0
LINE
  5
1445
  8
247
 10
-239.32132306402181
 20
13.02949641570993
 30
0.0
 11
-238.96845700806861
 21
13.38236247166313
 31
0.0
  0
LINE
  5
1446
  8
247
 10
-240.55824210650141
 20
11.79257737323036
 30
0.0
 11
-240.20537605054821
 21
12.145443429183571
 31
0.0
  0
LINE
  5
1447
  8
247
 10
-240.51074759411421
 20
12.17683149015769
 30
0.0
 11
-239.35271112499601
 21
13.33486795927589
 31
0.0
  0
LINE
  5
1448
  8
247
 10
-233.7936268602665
 20
10.811721715043049
 30
0.0
 11
-233.50944602605409
 21
11.095902549255481
 31
0.0
  0
LINE
  5
1449
  8
247
 10
-234.2833054035799
 20
10.658802776269839
 30
0.0
 11
-233.37405998517639
 21
11.568048194673301
 31
0.0
  0
LINE
  5
144A
  8
247
 10
-234.14028998103191
 20
11.13857780335794
 30
0.0
 11
-233.23867394429871
 21
12.040193840091129
 31
0.0
  0
LINE
  5
144B
  8
247
 10
-234.5995489788678
 20
10.679318805521961
 30
0.0
 11
-234.24366810103811
 21
11.035199683351751
 31
0.0
  0
LINE
  5
144C
  8
247
 10
-233.9875340417191
 20
11.628093347210781
 30
0.0
 11
-233.41546164210661
 21
12.200165746823259
 31
0.0
  0
LINE
  5
144D
  8
247
 10
-234.84433122401319
 20
10.7712961649167
 30
0.0
 11
-234.5796445491406
 21
11.0359828397893
 31
0.0
  0
LINE
  5
144E
  8
247
 10
-234.05535235016231
 20
11.89703464330764
 30
0.0
 11
-233.75222124664671
 21
12.200165746823281
 31
0.0
  0
LINE
  5
144F
  8
247
 10
-235.04160292373061
 20
10.91078406973933
 30
0.0
 11
-234.7205645223973
 21
11.23182247107267
 31
0.0
  0
LINE
  5
1450
  8
247
 10
-233.30916616203459
 20
12.97998043597544
 30
0.0
 11
-233.2776054864531
 21
13.01154111155695
 31
0.0
  0
LINE
  5
1451
  8
247
 10
-235.1974176290646
 20
11.09172896894548
 30
0.0
 11
-234.6452235593668
 21
11.64392303864326
 31
0.0
  0
LINE
  5
1452
  8
247
 10
-233.73029894588859
 20
12.895607256661529
 30
0.0
 11
-233.358339133307
 21
13.267567069243171
 31
0.0
  0
LINE
  5
1453
  8
247
 10
-235.30928700583971
 20
11.316619196710491
 30
0.0
 11
-234.5098370582927
 21
12.116069144257439
 31
0.0
  0
LINE
  5
1454
  8
247
 10
-233.92366174400379
 20
13.0390040630865
 30
0.0
 11
-233.69667923946909
 21
13.265986567621219
 31
0.0
  0
LINE
  5
1455
  8
247
 10
-235.3628604308349
 20
11.599805376255331
 30
0.0
 11
-234.37445055721869
 21
12.58821524987161
 31
0.0
  0
LINE
  5
1456
  8
247
 10
-235.31514333865209
 20
11.98428207297821
 30
0.0
 11
-233.9417976088825
 21
13.35762780274786
 31
0.0
  0
LINE
  5
1457
  8
247
 10
-235.2033415672833
 20
12.43284344888713
 30
0.0
 11
-234.25865441520011
 21
13.377530600970371
 31
0.0
  0
LINE
  5
1458
  8
245
  6
CENTER2
 10
-305.07844780453001
 20
0.0
 30
0.0
 11
2.862796241185606
 21
0.0
 31
0.0
  0
LINE
  5
1459
  8
240
  6
CONTINUOUS
 10
-24.000000000000639
 20
-10.13397459621552
 30
0.0
 11
-24.000000000000639
 21
-9.5
 31
0.0
1001
GRPNAME
1000
PASTMD04
  0
LINE
  5
145A
  8
240
  6
CONTINUOUS
 10
-11.00000000000116
 20
-11.0
 30
0.0
 11
-0.0000000000006537
 21
0.0
 31
0.0
1001
GRPNAME
1000
PASTMD04
  0
LINE
  5
145B
  8
240
  6
CONTINUOUS
 10
-44.000000000000689
 20
-10.0
 30
0.0
 11
-24.500000000000639
 21
-10.0
 31
0.0
1001
GRPNAME
1000
PASTMD04
  0
LINE
  5
145C
  8
240
  6
CONTINUOUS
 10
-23.500000000000639
 20
-10.99999999999997
 30
0.0
 11
-11.00000000000116
 21
-11.0
 31
0.0
1001
GRPNAME
1000
PASTMD04
  0
LINE
  5
145D
  8
240
  6
CONTINUOUS
 10
-23.500000000000639
 20
-10.99999999999997
 30
0.0
 11
-24.000000000000639
 21
-10.13397459621552
 31
0.0
1001
GRPNAME
1000
PASTMD04
  0
LINE
  5
145E
  8
240
  6
CONTINUOUS
 10
-24.000000000000639
 20
-9.5
 30
0.0
 11
-24.500000000000639
 21
-10.0
 31
0.0
1001
GRPNAME
1000
PASTMD04
  0
LINE
  5
145F
  8
240
  6
CONTINUOUS
 10
-44.000000000000689
 20
10.0
 30
0.0
 11
-24.500000000000639
 21
10.0
 31
0.0
1001
GRPNAME
1000
PASTMD04
  0
LINE
  5
1460
  8
240
  6
CONTINUOUS
 10
-23.500000000000689
 20
11.0
 30
0.0
 11
-11.00000000000116
 21
11.0
 31
0.0
1001
GRPNAME
1000
PASTMD04
  0
LINE
  5
1461
  8
240
  6
CONTINUOUS
 10
-24.000000000000639
 20
10.133974596215751
 30
0.0
 11
-23.500000000000689
 21
11.0
 31
0.0
1001
GRPNAME
1000
PASTMD04
  0
LINE
  5
1462
  8
240
  6
CONTINUOUS
 10
-24.500000000000639
 20
10.0
 30
0.0
 11
-24.000000000000639
 21
9.5
 31
0.0
1001
GRPNAME
1000
PASTMD04
  0
ARC
  5
1463
  8
241
  6
CONTINUOUS
 10
13.99532270208428
 20
34.446980689516288
 30
0.0
 40
37.181494539076617
 50
219.18134566179461
 51
247.88878579895439
1001
GRPNAME
1000
PASTMD04
  0
LINE
  5
1464
  8
240
  6
CONTINUOUS
 10
-0.0000000000006537
 20
0.0
 30
0.0
 11
-11.00000000000116
 21
11.0
 31
0.0
1001
GRPNAME
1000
PASTMD04
  0
LINE
  5
1465
  8
241
 10
-180.0000000000006
 20
-16.0
 30
0.0
 11
-180.0000000000006
 21
16.0
 31
0.0
1001
GRPNAME
1000
PASTMD04
  0
TEXT
  5
146A
  8
247
 10
-230.21456748673421
 20
10.63170481264563
 30
0.0
 40
2.5
  1
ST32-CBY09022-300
  7
YOKO
 11
-230.21456748673421
 21
10.63170481264563
 31
0.0
 73
     1
  0
ARC
  5
146B
  8
247
 10
-234.41102615558731
 20
11.305935857907251
 30
0.0
 40
0.3182872831821442
 50
164.00027305718399
 51
344.00027305718402
  0
ARC
  5
146C
  8
247
 10
-234.378479158517
 20
11.639370916501001
 30
0.0
 40
0.9851760864257813
 50
163.99975070172741
 51
304.96387329163082
  0
ARC
  5
146D
  8
247
 10
-234.16117874347799
 20
12.39719867529006
 30
0.0
 40
0.9851660728454588
 50
53.44401219705555
 51
164.00018438768541
  0
LINE
  5
146E
  8
247
 10
-238.9668161030971
 20
10.502640364781341
 30
0.0
 11
-232.813293611642
 21
10.50264036478133
 31
0.0
  0
LINE
  5
146F
  8
247
 10
-238.9668161030971
 20
10.19950926906713
 30
0.0
 11
-232.813293611642
 21
10.19950926906712
 31
0.0
  0
ARC
  5
1470
  8
247
 10
-238.9668161030971
 20
11.79093646825881
 30
0.0
 40
1.288295745849608
 50
89.999999999999986
 51
270.0
  0
ARC
  5
1471
  8
247
 10
-238.9668161030971
 20
11.79093646825881
 30
0.0
 40
1.591426849365233
 50
89.999999999999986
 51
270.0
  0
LINE
  5
1472
  8
247
 10
-235.9538842793666
 20
10.65420591653915
 30
0.0
 11
-235.17160049640771
 21
13.38236331762405
 31
0.0
  0
ARC
  5
1473
  8
247
 10
-232.767769014474
 20
11.587574957028339
 30
0.0
 40
2.5780792236328121
 50
155.20517736984229
 51
172.79482596205051
  0
LINE
  5
1474
  8
247
 10
-238.80775467121231
 20
10.65420591653915
 30
0.0
 11
-238.1123887654509
 21
13.079232214107551
 31
0.0
  0
LINE
  5
1475
  8
247
 10
-237.4437943202349
 20
11.53942911409592
 30
0.0
 11
-236.4498146443035
 21
12.53340879002735
 31
0.0
  0
LINE
  5
1476
  8
247
 10
-238.59406188519171
 20
11.39944036275943
 30
0.0
 11
-237.53297268093189
 21
12.460529567019281
 31
0.0
  0
ARC
  5
1477
  8
247
 10
-237.5403215047084
 20
12.654850958004911
 30
0.0
 40
0.4546839594841006
 50
261.66260168792928
 51
66.338155095190061
  0
LINE
  5
1478
  8
247
 10
-237.56134717005349
 20
11.758635868817519
 30
0.0
 11
-236.47659896245369
 21
12.843384076417239
 31
0.0
  0
ARC
  5
1479
  8
247
 10
-237.20213714801889
 20
12.62454700292678
 30
0.0
 40
0.7578227519989014
 50
287.66957754739798
 51
90.236159842671569
  0
LINE
  5
147A
  8
247
 10
-238.4586762635148
 20
11.871585588976499
 30
0.0
 11
-237.39759152796199
 21
12.93267032452925
 31
0.0
  0
LINE
  5
147B
  8
247
 10
-237.35783837914039
 20
13.07130913344997
 30
0.0
 11
-237.6062509106554
 21
12.204972289424569
 31
0.0
  0
LINE
  5
147C
  8
247
 10
-236.63187805378061
 20
10.65420591653915
 30
0.0
 11
-235.94519821369281
 21
13.0489282590303
 31
0.0
  0
LINE
  5
147D
  8
247
 10
-235.9599610921108
 20
13.38236331762405
 30
0.0
 11
-235.17160049640771
 21
13.38236331762405
 31
0.0
  0
LINE
  5
147E
  8
247
 10
-237.29353124179221
 20
13.03673061069909
 30
0.0
 11
-236.98090376215779
 21
13.349358090333419
 31
0.0
  0
LINE
  5
147F
  8
247
 10
-237.13419795564391
 20
12.85930429230728
 30
0.0
 11
-236.75621587210091
 21
13.237286375850321
 31
0.0
  0
LINE
  5
1480
  8
247
 10
-238.1831475850305
 20
13.38236331762405
 30
0.0
 11
-237.20526070784601
 21
13.382363317623939
 31
0.0
  0
LINE
  5
1481
  8
247
 10
-238.1879050201608
 20
12.815876041410659
 30
0.0
 11
-237.6214177439474
 21
13.382363317624
 31
0.0
  0
LINE
  5
1482
  8
247
 10
-238.34081283771619
 20
13.38236331762405
 30
0.0
 11
-238.42773071491351
 21
13.07923221410843
 31
0.0
  0
LINE
  5
1483
  8
247
 10
-238.2700654622283
 20
13.07923221410843
 30
0.0
 11
-238.1123887654509
 21
13.079232214107551
 31
0.0
  0
LINE
  5
1484
  8
247
 10
-238.1831475850305
 20
13.38236331762405
 30
0.0
 11
-238.2700654622283
 21
13.07923221410843
 31
0.0
  0
LINE
  5
1485
  8
247
 10
-238.26130845200311
 20
13.0792322141084
 30
0.0
 11
-237.95817734848751
 21
13.382363317624019
 31
0.0
  0
LINE
  5
1486
  8
247
 10
-238.9668161030971
 20
13.07923221410843
 30
0.0
 11
-238.42773071491351
 21
13.07923221410843
 31
0.0
  0
LINE
  5
1487
  8
247
 10
-238.9668161030971
 20
13.38236331762405
 30
0.0
 11
-238.34081283771619
 21
13.38236331762405
 31
0.0
  0
LINE
  5
1488
  8
247
 10
-237.09534515466839
 20
12.561397488742729
 30
0.0
 11
-236.5880845171024
 21
13.068658126308719
 31
0.0
  0
LINE
  5
1489
  8
247
 10
-238.32329064183779
 20
12.34373081519356
 30
0.0
 11
-237.28465813940741
 21
13.382363317623939
 31
0.0
  0
LINE
  5
148A
  8
247
 10
-236.05557647907361
 20
13.0489282590303
 30
0.0
 11
-235.94519821369281
 21
13.0489282590303
 31
0.0
  0
LINE
  5
148B
  8
247
 10
-236.05557647907361
 20
13.0489282590303
 30
0.0
 11
-235.9599610921108
 21
13.38236331762405
 31
0.0
  0
LINE
  5
148C
  8
247
 10
-237.99225791325171
 20
10.65420591653915
 30
0.0
 11
-236.880000973394
 21
11.766462856396849
 31
0.0
  0
ARC
  5
148D
  8
247
 10
-237.54982010089981
 20
11.41202258886428
 30
0.0
 40
0.7578163146972659
 50
270.0
 51
40.329840654168137
  0
LINE
  5
148E
  8
247
 10
-237.65549830871149
 20
10.65420591653913
 30
0.0
 11
-236.79851959135249
 21
11.51118463389815
 31
0.0
  0
LINE
  5
148F
  8
247
 10
-238.72944750686869
 20
10.927295136542369
 30
0.0
 11
-237.44686803544619
 21
12.209874607964821
 31
0.0
  0
ARC
  5
1490
  8
247
 10
-237.88800445758929
 20
11.4423379880342
 30
0.0
 40
0.4546969681978227
 50
261.66285421114878
 51
66.338192159110093
  0
LINE
  5
1491
  8
247
 10
-237.705517714096
 20
11.858808780932691
 30
0.0
 11
-237.95393433231109
 21
10.992446240491031
 31
0.0
  0
LINE
  5
1492
  8
247
 10
-238.6657771223318
 20
10.65420591653915
 30
0.0
 11
-237.80374471564821
 21
11.51623832322281
 31
0.0
  0
LINE
  5
1493
  8
247
 10
-237.2619211466592
 20
10.711023474051331
 30
0.0
 11
-236.84882098608691
 21
11.124123634623681
 31
0.0
  0
LINE
  5
1494
  8
247
 10
-238.80775467121231
 20
10.65420591653915
 30
0.0
 11
-237.54982010089981
 21
10.65420591653915
 31
0.0
  0
LINE
  5
1495
  8
247
 10
-238.32901751779181
 20
10.65420591653915
 30
0.0
 11
-237.93912336142009
 21
11.044100072910821
 31
0.0
  0
LINE
  5
1496
  8
247
 10
-236.63187805378061
 20
10.65420591653915
 30
0.0
 11
-235.9538842793666
 21
10.65420591653915
 31
0.0
  0
ARC
  5
1497
  8
247
 10
-232.813293611642
 20
11.79093646825881
 30
0.0
 40
1.288295745849608
 50
270.0
 51
104.1274364964119
  0
ARC
  5
1498
  8
247
 10
-232.813293611642
 20
11.79093646825881
 30
0.0
 40
1.591426849365233
 50
270.0
 51
104.7707939660939
  0
LINE
  5
1499
  8
247
 10
-234.71698394977679
 20
11.3936662656221
 30
0.0
 11
-234.30845276081189
 21
12.818375585690459
 31
0.0
  0
LINE
  5
149A
  8
247
 10
-233.12774292194479
 20
13.04027652563185
 30
0.0
 11
-233.2190324422084
 21
13.3297777158174
 31
0.0
  0
LINE
  5
149B
  8
247
 10
-233.27229324543109
 20
12.9946947080049
 30
0.0
 11
-233.3635827656947
 21
13.28419589819044
 31
0.0
  0
ARC
  5
149C
  8
247
 10
-232.813293611642
 20
11.79093646825881
 30
0.0
 40
1.591427564620969
 50
110.22964506332011
 51
118.57168892371639
  0
ARC
  5
149D
  8
247
 10
-232.813293611642
 20
11.79093646825881
 30
0.0
 40
1.288299322128293
 50
110.8721834020772
 51
132.54194893738571
  0
ARC
  5
149E
  8
247
 10
-234.00249496662249
 20
12.73063373388381
 30
0.0
 40
0.3182875066995621
 50
1.710121382064363
 51
163.99839835444871
  0
LINE
  5
149F
  8
247
 10
-234.1050683613978
 20
11.218205450192411
 30
0.0
 11
-233.91041580402481
 21
11.89703464330765
 31
0.0
  0
LINE
  5
14A0
  8
247
 10
-233.63610092365369
 20
10.65420591653915
 30
0.0
 11
-233.19280258380999
 21
12.200165746823259
 31
0.0
  0
LINE
  5
14A1
  8
247
 10
-234.07577148639791
 20
12.20016574682327
 30
0.0
 11
-233.19280258380999
 21
12.200165746823259
 31
0.0
  0
LINE
  5
14A2
  8
247
 10
-234.16268936359521
 20
11.89703464330765
 30
0.0
 11
-233.91041580402481
 21
11.89703464330765
 31
0.0
  0
LINE
  5
14A3
  8
247
 10
-234.16268936359521
 20
11.89703464330765
 30
0.0
 11
-234.07577148639791
 21
12.20016574682327
 31
0.0
  0
LINE
  5
14A4
  8
247
 10
-233.8139192219935
 20
10.8320127707872
 30
0.0
 11
-233.63610092365369
 21
10.65420591653915
 31
0.0
  0
LINE
  5
14A5
  8
240
  6
CONTINUOUS
 10
-24.000000000000639
 20
9.4999999999999982
 30
0.0
 11
-24.000000000000639
 21
10.133974596215751
 31
0.0
1001
GRPNAME
1000
PASTMD04
  0
LINE
  5
14A6
  8
241
  6
CONTINUOUS
 10
-24.000000000000639
 20
-9.5
 30
0.0
 11
-24.000000000000639
 21
9.4999999999999982
 31
0.0
1001
GRPNAME
1000
PASTMD04
  0
TEXT
  5
14AE
  8
250
 10
-5.7423155773674122
 20
-24.954575804228941
 30
0.0
 40
2.799999999999998
  1
CBY09022
  7
ACJISTS
1001
ACAD
1000
MTEXTBEGIN
1070
    73
1070
     1
1070
    44
1040
1.0
1070
    74
1070
     0
1000
MTEXTEND
  0
LINE
  5
14AF
  8
250
 10
11.393467694593591
 20
-11.393467694593729
 30
0.0
 11
13.08014901804264
 21
-9.9043048045349735
 31
0.0
1001
GRPNAME
1000
DM700003
1001
ITEMNAME
1000
DI21000B
  0
LINE
  5
14B0
  8
250
 10
12.637253028425331
 20
-9.5185015500073735
 30
0.0
 11
11.393467694593591
 21
-11.393467694593729
 31
0.0
1001
GRPNAME
1000
DM700003
1001
ITEMNAME
1000
DI21000B
  0
LINE
  5
14B1
  8
250
 10
22.999999999999339
 20
-10.99999993531787
 30
0.0
 11
23.293683932494471
 21
-8.7692489972267964
 31
0.0
1001
GRPNAME
1000
DM100007
1001
ITEMNAME
1000
DI220007
  0
LINE
  5
14B2
  8
250
 10
22.706316067504211
 20
-8.7692489972267964
 30
0.0
 11
22.999999999999339
 21
-10.99999993531787
 31
0.0
1001
GRPNAME
1000
DM100007
1001
ITEMNAME
1000
DI220007
  0
LINE
  5
14B3
  8
250
 10
11.39346769406759
 20
11.393467694069781
 30
0.0
 11
12.637253027893561
 21
9.518501549479593
 31
0.0
1001
GRPNAME
1000
DM700003
1001
ITEMNAME
1000
DI22000B
  0
LINE
  5
14B4
  8
250
 10
13.08014901751204
 20
9.9043048040058324
 30
0.0
 11
11.39346769406759
 21
11.393467694069781
 31
0.0
1001
GRPNAME
1000
DM700003
1001
ITEMNAME
1000
DI22000B
  0
LINE
  5
14B5
  8
250
 10
22.999999999999339
 20
11.0
 30
0.0
 11
22.706316067504211
 21
8.7692490619089192
 31
0.0
1001
GRPNAME
1000
DM100007
1001
ITEMNAME
1000
DI210007
  0
LINE
  5
14B6
  8
250
 10
23.293683932494471
 20
8.7692490619089192
 30
0.0
 11
22.999999999999339
 21
11.0
 31
0.0
1001
GRPNAME
1000
DM100007
1001
ITEMNAME
1000
DI210007
  0
LINE
  5
14B7
  8
250
 10
-15.390501391488669
 20
-10.99999999999998
 30
0.0
 11
-14.704046220546781
 21
-13.14193171941163
 31
0.0
  0
LINE
  5
14B8
  8
250
 10
-14.173063893177311
 20
-12.891279495484451
 30
0.0
 11
-15.390501391488669
 21
-10.99999999999998
 31
0.0
  0
LINE
  5
14B9
  8
250
 10
-14.43855505686205
 20
-13.016605607448041
 30
0.0
 11
-15.390501391488669
 21
-10.99999999999998
 31
0.0
  0
LINE
  5
14BA
  8
250
 10
-8.1423155773674107
 20
-26.35457580422894
 30
0.0
 11
-14.43855505686205
 21
-13.016605607448041
 31
0.0
  0
LINE
  5
14BB
  8
250
 10
15.19101775596592
 20
-26.35457580422894
 30
0.0
 11
-8.1423155773674107
 21
-26.35457580422894
 31
0.0
  0
TEXT
  5
14BF
  8
241
 10
-301.0
 20
56.0
 30
0.0
 40
5.0
  1
ST32-CBY09022-300
  7
YOKO
  0
TEXT
  5
14C0
  8
250
 10
15.112796536234891
 20
-3.500000000024968
 30
0.0
 40
2.799999999999998
  1
90ß
 50
90.000000000006537
 41
1.05
  7
YOKO
 11
15.112796536234891
 21
-3.500000000024968
 31
0.0
 73
     1
1001
GRPNAME
1000
DM700003
1001
ITEMNAME
1000
DI01000B
  0
LINE
  5
14C1
  8
250
 10
22.999999999999339
 20
11.0
 30
0.0
 11
22.999999999999339
 21
-10.99999993531787
 31
0.0
1001
GRPNAME
1000
DM100007
1001
ITEMNAME
1000
DI100007
  0
ARC
  5
14C2
  8
250
 10
-0.0000000000011653
 20
0.0000000000005116
 30
0.0
 40
16.112796536155258
 50
315.00000000000051
 51
45.000000000001727
1001
GRPNAME
1000
DM700003
1001
ITEMNAME
1000
DI10000B
  0
TEXT
  5
14C3
  8
250
 10
21.999999999999339
 20
-5.2499999676589351
 30
0.0
 40
2.799999999999998
  1
ƒÓ22
 50
90.000000000006537
 41
1.05
  7
YOKO
 11
21.999999999999339
 21
-5.2499999676589351
 31
0.0
 73
     1
1001
GRPNAME
1000
DM100007
1001
ITEMNAME
1000
DI010007
  0
LINE
  5
14C4
  8
250
 10
23.999999999999339
 20
-10.99999993531787
 30
0.0
 11
-10.50000005870899
 21
-10.99999993531787
 31
0.0
1001
GRPNAME
1000
DM100007
1001
ITEMNAME
1000
DI320003
  0
LINE
  5
14C5
  8
250
 10
23.999999999999339
 20
11.0
 30
0.0
 11
-10.50000000000116
 21
11.0
 31
0.0
1001
GRPNAME
1000
DM100007
1001
ITEMNAME
1000
DI310005
  0
LINE
  5
14C6
  8
250
 10
12.100574475780149
 20
-12.10057447578026
 30
0.0
 11
0.3535533905926229
 21
-0.3535533905932624
 31
0.0
1001
GRPNAME
1000
DM700003
1001
ITEMNAME
1000
DI310008
  0
LINE
  5
14C7
  8
250
 10
12.10057447525412
 20
12.10057447525636
 30
0.0
 11
0.3535533905921113
 21
0.3535533905937882
 31
0.0
1001
GRPNAME
1000
DM700003
1001
ITEMNAME
1000
DI320007
  0
ARC
  5
14CA
  8
240
  6
CONTINUOUS
 10
-299.50000000000063
 20
14.55662432702592
 30
0.0
 40
0.5
 50
120.0000000000005
 51
180.0
1001
GRPNAME
1000
PASTMD04
1001
GENIUS_GENOBJ-N-FIL_13
1002
{
1000
OWNER
1000
GEN
1002
}
1001
GENIUS_GENODEF_13
1002
{
1000
HIER
1070
     0
1002
}
1002
{
1000
MANEDIT
1070
     0
1002
}
1002
{
1000
NOSEL
1070
     0
1002
}
1002
{
1000
BEHIND
1070
     0
1002
}
1002
{
1000
OTHER
1070
     0
1002
}
1002
{
1000
REACTOR
1002
}
  0
ARC
  5
14CC
  8
240
  6
CONTINUOUS
 10
-299.50000000000063
 20
-14.556624327025879
 30
0.0
 40
0.5
 50
180.0
 51
239.99999999999929
1001
GENIUS_GENODEF_13
1002
{
1000
HIER
1070
     0
1002
}
1002
{
1000
MANEDIT
1070
     0
1002
}
1002
{
1000
NOSEL
1070
     0
1002
}
1002
{
1000
BEHIND
1070
     0
1002
}
1002
{
1000
OTHER
1070
     0
1002
}
1002
{
1000
REACTOR
1002
}
1001
GENIUS_GENOBJ-N-FIL_13
1002
{
1000
OWNER
1000
GEN
1002
}
  0
LINE
  5
1501
  8
240
  6
CONTINUOUS
 10
-178.96183206106929
 20
14.9618320610687
 30
0.0
 11
-44.000000000000689
 21
10.0
 31
0.0
  0
LINE
  5
1502
  8
240
  6
CONTINUOUS
 10
-178.96183206106929
 20
-14.9618320610687
 30
0.0
 11
-44.000000000000689
 21
-10.0
 31
0.0
  0
LINE
  5
1514
  8
240
  6
CONTINUOUS
 10
-178.96183206106929
 20
14.9618320610687
 30
0.0
 11
-180.0000000000006
 21
16.0
 31
0.0
  0
LINE
  5
151D
  8
240
  6
CONTINUOUS
 10
-178.96183206106929
 20
-14.9618320610687
 30
0.0
 11
-180.0000000000006
 21
-16.0
 31
0.0
  0
LINE
  5
15D0
  8
250
 10
-300.00000000000063
 20
15.05662432702592
 30
0.0
 11
-300.00000000000063
 21
36.000000000000007
 31
0.0
  0
LINE
  5
15D1
  8
250
 10
-180.0000000000006
 20
16.5
 30
0.0
 11
-180.0000000000006
 21
36.000000000000007
 31
0.0
  0
LINE
  5
15D2
  8
250
 10
-297.77000000000049
 20
35.000000000000021
 30
0.0
 11
-182.2300000000005
 21
35.000000000000021
 31
0.0
  0
LINE
  5
15D6
  8
250
 10
-300.00000000000063
 20
15.05662432702592
 30
0.0
 11
-300.00000000000063
 21
43.0
 31
0.0
  0
LINE
  5
15D7
  8
250
 10
-0.0000000000006537
 20
0.5
 30
0.0
 11
-0.0000000000006511
 21
43.0
 31
0.0
  0
LINE
  5
15D8
  8
250
 10
-297.77000000000049
 20
42.0
 30
0.0
 11
-2.230000000000651
 21
42.0
 31
0.0
  0
LINE
  5
15DC
  8
250
 10
-298.50000000000063
 20
15.999999999999989
 30
0.0
 11
-316.0
 21
16.0
 31
0.0
  0
LINE
  5
15DD
  8
250
 10
-298.50000000000063
 20
-16.0
 30
0.0
 11
-316.0
 21
-15.999999999999989
 31
0.0
  0
LINE
  5
15DE
  8
250
 10
-315.0
 20
13.77
 30
0.0
 11
-315.0
 21
-13.77
 31
0.0
  0
TEXT
  5
15E2
  8
250
 10
-316.0
 20
-3.799999999999998
 30
0.0
 40
2.7999999999999989
  1
\U+220532
 50
90.0
  0
LINE
  5
15E3
  8
250
 10
-314.62833333333327
 20
-13.77
 30
0.0
 11
-315.0
 21
-16.0
 31
0.0
  0
LINE
  5
15E4
  8
250
 10
-315.37166666666673
 20
-13.77
 30
0.0
 11
-315.0
 21
-16.0
 31
0.0
  0
LINE
  5
15E5
  8
250
 10
-315.0
 20
-16.0
 30
0.0
 11
-315.0
 21
-13.77
 31
0.0
  0
LINE
  5
15E6
  8
250
 10
-315.37166666666673
 20
13.77
 30
0.0
 11
-315.0
 21
16.0
 31
0.0
  0
LINE
  5
15E7
  8
250
 10
-314.62833333333327
 20
13.77
 30
0.0
 11
-315.0
 21
16.0
 31
0.0
  0
LINE
  5
15E8
  8
250
 10
-315.0
 20
16.0
 30
0.0
 11
-315.0
 21
13.77
 31
0.0
  0
TEXT
  5
15E9
  8
250
 10
-154.0000000000006
 20
43.0
 30
0.0
 40
2.7999999999999989
  1
300
  0
LINE
  5
15EA
  8
250
 10
-2.230000000000651
 20
42.371666666666663
 30
0.0
 11
-0.0000000000006511
 21
42.0
 31
0.0
  0
LINE
  5
15EB
  8
250
 10
-2.230000000000651
 20
41.62833333333333
 30
0.0
 11
-0.0000000000006511
 21
42.0
 31
0.0
  0
LINE
  5
15EC
  8
250
 10
-0.0000000000006511
 20
42.0
 30
0.0
 11
-2.230000000000651
 21
42.0
 31
0.0
  0
LINE
  5
15ED
  8
250
 10
-297.77000000000049
 20
41.62833333333333
 30
0.0
 11
-300.00000000000063
 21
42.0
 31
0.0
  0
LINE
  5
15EE
  8
250
 10
-297.77000000000049
 20
42.371666666666663
 30
0.0
 11
-300.00000000000063
 21
42.0
 31
0.0
  0
LINE
  5
15EF
  8
250
 10
-300.00000000000063
 20
42.0
 30
0.0
 11
-297.77000000000049
 21
42.0
 31
0.0
  0
TEXT
  5
15F0
  8
250
 10
-244.20000000000061
 20
36.000000000000007
 30
0.0
 40
2.7999999999999989
  1
120
  0
LINE
  5
15F1
  8
250
 10
-182.2300000000005
 20
35.371666666666691
 30
0.0
 11
-180.0000000000006
 21
35.000000000000021
 31
0.0
  0
LINE
  5
15F2
  8
250
 10
-182.2300000000005
 20
34.628333333333337
 30
0.0
 11
-180.0000000000006
 21
35.000000000000021
 31
0.0
  0
LINE
  5
15F3
  8
250
 10
-180.0000000000006
 20
35.000000000000021
 30
0.0
 11
-182.2300000000005
 21
35.000000000000021
 31
0.0
  0
LINE
  5
15F4
  8
250
 10
-297.77000000000049
 20
34.628333333333337
 30
0.0
 11
-300.00000000000063
 21
35.000000000000021
 31
0.0
  0
LINE
  5
15F5
  8
250
 10
-297.77000000000049
 20
35.371666666666691
 30
0.0
 11
-300.00000000000063
 21
35.000000000000021
 31
0.0
  0
LINE
  5
15F6
  8
250
 10
-300.00000000000063
 20
35.000000000000021
 30
0.0
 11
-297.77000000000049
 21
35.000000000000021
 31
0.0
  0
VIEWPORT
  5
22
 67
     1
  8
0
 10
261.51769911504419
 20
148.5
 30
0.0
 40
523.0353982300885
 41
297.0
 68
     1
 69
     1
1001
ACAD
1000
MVIEW
1002
{
1070
    16
1010
0.0
1020
0.0
1030
0.0
1010
0.0
1020
0.0
1030
1.0
1040
0.0
1040
297.0
1040
261.51769911504419
1040
148.5
1040
50.0
1040
0.0
1040
0.0
1070
     0
1070
   100
1070
     1
1070
     1
1070
     0
1070
     0
1070
     0
1070
     0
1040
0.0
1040
0.0
1040
0.0
1040
1.0
1040
1.0
1040
10.0
1040
10.0
1070
     0
1002
{
1002
}
1002
}
1001
GENIUS_GENODEF_13
1002
{
1000
HIER
1070
     0
1002
}
1002
{
1000
MANEDIT
1070
     0
1002
}
1002
{
1000
NOSEL
1070
     0
1002
}
1002
{
1000
BEHIND
1070
     0
1002
}
1002
{
1000
OTHER
1070
     0
1002
}
1002
{
1000
REACTOR
1002
}
1001
GENIUS_GENOBJ-N-SDF_13
1002
{
1000
OWNER
1000
GEN
1002
}
1001
GENIUS_GENSCREG_15
1000
PF
1040
1.0
1000
DF
1040
1.0
1000
MIN
1011
0.0
1021
0.0
1031
0.0
1021
0.0
1031
0.0
1000
MAX
1011
523.0353982300885
1021
0.0
1031
0.0
1021
297.0
1031
0.0
1000
FLAGS
1070
     2
  0
ENDSEC
  0
EOF
