  0
SECTION
  2
HEADER
  9
$ACADVER
  1
AC1009
  9
$INSBASE
 10
0.0
 20
0.0
 30
0.0
  9
$EXTMIN
 10
-148.7996096457241
 20
-34.500000000000121
 30
0.0
  9
$EXTMAX
 10
71.000000000000014
 20
68.014806139037901
 30
0.0
  9
$LIMMIN
 10
0.0
 20
0.0
  9
$LIMMAX
 10
297.0
 20
210.0
  9
$ORTHOMODE
 70
     0
  9
$REGENMODE
 70
     1
  9
$FILLMODE
 70
     1
  9
$QTEXTMODE
 70
     0
  9
$MIRRTEXT
 70
     1
  9
$DRAGMODE
 70
     2
  9
$LTSCALE
 40
10.0
  9
$OSMODE
 70
    37
  9
$ATTMODE
 70
     1
  9
$TEXTSIZE
 40
3.0
  9
$TRACEWID
 40
1.0
  9
$TEXTSTYLE
  7
YOKO
  9
$CLAYER
  8
240
  9
$CELTYPE
  6
BYLAYER
  9
$CECOLOR
 62
   256
  9
$DIMSCALE
 40
1.0
  9
$DIMASZ
 40
2.2299999999999991
  9
$DIMEXO
 40
0.5
  9
$DIMDLI
 40
7.0
  9
$DIMRND
 40
0.0
  9
$DIMDLE
 40
0.0
  9
$DIMEXE
 40
1.0
  9
$DIMTP
 40
0.0
  9
$DIMTM
 40
0.01
  9
$DIMTXT
 40
2.799999999999998
  9
$DIMCEN
 40
0.0
  9
$DIMTSZ
 40
0.0
  9
$DIMTOL
 70
     0
  9
$DIMLIM
 70
     0
  9
$DIMTIH
 70
     0
  9
$DIMTOH
 70
     0
  9
$DIMSE1
 70
     0
  9
$DIMSE2
 70
     0
  9
$DIMTAD
 70
     3
  9
$DIMZIN
 70
     9
  9
$DIMBLK
  1
OPEN
  9
$DIMASO
 70
     1
  9
$DIMSHO
 70
     1
  9
$DIMPOST
  1

  9
$DIMAPOST
  1

  9
$DIMALT
 70
     0
  9
$DIMALTD
 70
     2
  9
$DIMALTF
 40
25.399999999999999
  9
$DIMLFAC
 40
1.0
  9
$DIMTOFL
 70
     1
  9
$DIMTVP
 40
0.0
  9
$DIMTIX
 70
     1
  9
$DIMSOXD
 70
     0
  9
$DIMSAH
 70
     0
  9
$DIMBLK1
  1

  9
$DIMBLK2
  1

  9
$DIMSTYLE
  2
BIGT
  9
$DIMCLRD
 70
   256
  9
$DIMCLRE
 70
   256
  9
$DIMCLRT
 70
    40
  9
$DIMTFAC
 40
1.0
  9
$DIMGAP
 40
1.0
  9
$LUNITS
 70
     2
  9
$LUPREC
 70
     6
  9
$SKETCHINC
 40
1.0
  9
$FILLETRAD
 40
0.0
  9
$AUNITS
 70
     0
  9
$AUPREC
 70
     6
  9
$MENU
  1
.
  9
$ELEVATION
 40
0.0
  9
$PELEVATION
 40
0.0
  9
$THICKNESS
 40
0.0
  9
$LIMCHECK
 70
     0
  9
$BLIPMODE
 70
     0
  9
$CHAMFERA
 40
0.2
  9
$CHAMFERB
 40
0.2
  9
$SKPOLY
 70
     0
  9
$TDCREATE
 40
2457654.6875797911
  9
$TDUPDATE
 40
2457654.7518476392
  9
$TDINDWG
 40
0.0186470602
  9
$TDUSRTIMER
 40
0.0186469444
  9
$USRTIMER
 70
     1
  9
$ANGBASE
 50
0.0
  9
$ANGDIR
 70
     0
  9
$PDMODE
 70
     1
  9
$PDSIZE
 40
0.0
  9
$PLINEWID
 40
0.0
  9
$COORDS
 70
     1
  9
$SPLFRAME
 70
     0
  9
$SPLINETYPE
 70
     6
  9
$SPLINESEGS
 70
     4
  9
$ATTDIA
 70
     1
  9
$ATTREQ
 70
     1
  9
$HANDLING
 70
     1
  9
$HANDSEED
  5
4A26
  9
$SURFTAB1
 70
     6
  9
$SURFTAB2
 70
     6
  9
$SURFTYPE
 70
     6
  9
$SURFU
 70
     6
  9
$SURFV
 70
     6
  9
$UCSNAME
  2

  9
$UCSORG
 10
0.0
 20
0.0
 30
0.0
  9
$UCSXDIR
 10
1.0
 20
0.0
 30
0.0
  9
$UCSYDIR
 10
0.0
 20
1.0
 30
0.0
  9
$PUCSNAME
  2

  9
$PUCSORG
 10
0.0
 20
0.0
 30
0.0
  9
$PUCSXDIR
 10
1.0
 20
0.0
 30
0.0
  9
$PUCSYDIR
 10
0.0
 20
1.0
 30
0.0
  9
$USERI1
 70
     1
  9
$USERI2
 70
     0
  9
$USERI3
 70
     0
  9
$USERI4
 70
     0
  9
$USERI5
 70
     0
  9
$USERR1
 40
0.0
  9
$USERR2
 40
0.0
  9
$USERR3
 40
0.0
  9
$USERR4
 40
0.0
  9
$USERR5
 40
0.0
  9
$WORLDVIEW
 70
     1
  9
$SHADEDGE
 70
     3
  9
$SHADEDIF
 70
    70
  9
$TILEMODE
 70
     1
  9
$MAXACTVP
 70
    16
  9
$PLIMCHECK
 70
     0
  9
$PEXTMIN
 10
1.0000000000000000E+020
 20
1.0000000000000000E+020
 30
1.0000000000000000E+020
  9
$PEXTMAX
 10
-1.0000000000000000E+020
 20
-1.0000000000000000E+020
 30
-1.0000000000000000E+020
  9
$PLIMMIN
 10
0.0
 20
0.0
  9
$PLIMMAX
 10
420.0
 20
297.0
  9
$UNITMODE
 70
     0
  9
$VISRETAIN
 70
     1
  9
$PLINEGEN
 70
     0
  9
$PSLTSCALE
 70
     1
  0
ENDSEC
  0
SECTION
  2
TABLES
  0
TABLE
  2
VPORT
 70
     1
  0
VPORT
  2
*ACTIVE
 70
     0
 10
0.0
 20
0.0
 11
1.0
 21
1.0
 12
-11.43139868192179
 22
13.60234605523045
 13
0.0
 23
0.0
 14
7.0
 24
7.0
 15
7.0
 25
7.0
 16
0.0
 26
0.0
 36
1.0
 17
0.0
 27
0.0
 37
0.0
 40
134.61623936809659
 41
1.469813391877058
 42
50.0
 43
0.0
 44
0.0
 50
0.0
 51
0.0
 71
     0
 72
  2000
 73
     1
 74
     0
 75
     0
 76
     1
 77
     0
 78
     0
  0
ENDTAB
  0
TABLE
  2
LTYPE
 70
    21
  0
LTYPE
  2
CONTINUOUS
 70
     0
  3
Solid line
 72
    65
 73
     0
 40
0.0
  0
LTYPE
  2
CENTER2
 70
     0
  3
___ _ ___ _ ___ _ ___ _ ___ _ ___ _ ___ _ ___ _
 72
    65
 73
     4
 40
1.125
 49
0.75
 49
-0.125
 49
0.125
 49
-0.125
  0
LTYPE
  2
HIDDEN2
 70
     0
  3
_ _ _ _ _ _ _ _ _ _ _ _ _ _ _ _ _ _ _ _ _ _ _ _
 72
    65
 73
     2
 40
0.1875
 49
0.125
 49
-0.0625
  0
LTYPE
  2
PHANTOM2
 70
     0
  3
___ _ _ ___ _ _ ___ _ _ ___ _ _ ___ _ _ ___ _ _
 72
    65
 73
     6
 40
1.25
 49
0.625
 49
-0.125
 49
0.125
 49
-0.125
 49
0.125
 49
-0.125
  0
LTYPE
  2
AMCONSTR
 70
     0
  3
_______________________
 72
    65
 73
     2
 40
9999.0
 49
9999.0
 49
0.0
  0
LTYPE
  2
HIDDEN
 70
     0
  3
Hidden __ __ __ __ __ __ __ __ __ __ __ __ __ _
 72
    65
 73
     2
 40
0.375
 49
0.25
 49
-0.125
  0
LTYPE
  2
CENTER
 70
     0
  3
Center ____ _ ____ _ ____ _ ____ _ ____ _ ____
 72
    65
 73
     4
 40
2.0
 49
1.25
 49
-0.25
 49
0.25
 49
-0.25
  0
LTYPE
  2
AMZIGZAG2
 70
     0
  3
/\/-/\/-/\/-/\/-/\/-/\/
 72
    65
 73
     2
 40
0.4401
 49
0.0001
 49
-0.4400000000000001
  0
LTYPE
  2
ACANSTGB
 70
     0
  3
__ . . __ . .
 72
    65
 73
     6
 40
0.35433070866
 49
0.15748031496
 49
-0.03937007874
 49
0.03937007874
 49
-0.03937007874
 49
0.03937007874
 49
-0.03937007874
  0
LTYPE
  2
ACANSTGL
 70
     0
  3
_ _ _ _ _
 72
    65
 73
     2
 40
0.11811023622
 49
0.07874015748
 49
-0.03937007874
  0
ENDTAB
  0
TABLE
  2
LAYER
 70
     8
  0
LAYER
  2
0
 70
     0
 62
     7
  6
CONTINUOUS
  0
LAYER
  2
240
 70
     0
 62
     4
  6
CONTINUOUS
  0
LAYER
  2
DEFPOINTS
 70
     0
 62
     7
  6
CONTINUOUS
  0
LAYER
  2
245
 70
     0
 62
     2
  6
CENTER2
  0
LAYER
  2
241
 70
     0
 62
   211
  6
CONTINUOUS
  0
LAYER
  2
247
 70
     0
 62
    60
  6
CONTINUOUS
  0
LAYER
  2
250
 70
     0
 62
     3
  6
CONTINUOUS
  0
ENDTAB
  0
TABLE
  2
STYLE
 70
    10
  0
STYLE
  2
STANDARD
 70
     0
 40
0.0
 41
1.0
 50
0.0
 71
     0
 42
3.0
  3
romans.shx
  4
extfont.shx
  0
STYLE
  2
YOKO
 70
     0
 40
0.0
 41
1.0
 50
0.0
 71
     0
 42
3.0
  3
romans.shx
  4
extfont.shx
  0
STYLE
  2

 70
     1
 40
0.0
 41
1.0
 50
0.0
 71
     0
 42
3.0
  3
genltshp.shx
  4

  0
STYLE
  2
ACANSGDT
 70
     0
 40
0.0
 41
1.0
 50
0.0
 71
     0
 42
3.0
  3
amgdt.shx
  4

  0
ENDTAB
  0
TABLE
  2
VIEW
 70
     0
  0
ENDTAB
  0
TABLE
  2
UCS
 70
     0
  0
ENDTAB
  0
TABLE
  2
APPID
 70
    42
  0
APPID
  2
ACAD
 70
     0
  0
APPID
  2
ACADANNOTATIVE
 70
     0
  0
APPID
  2
GLOBAL
 70
     0
  0
APPID
  2
DETAIL
 70
     0
  0
APPID
  2
GRPNAME
 70
     0
  0
APPID
  2
GPARA
 70
     0
  0
APPID
  2
MCAD_NO_VIS
 70
     0
  0
APPID
  2
ACAD_TEMP_GRAPHIC
 70
     0
  0
APPID
  2
ACATTRIBSERVICES
 70
     0
  0
APPID
  2
GENIUS_GENSCREG_15
 70
     0
  0
APPID
  2
GENIUS_GENODEF_13
 70
     0
  0
APPID
  2
GENIUS_GENOBJ-N-SDF_13
 70
     0
  0
APPID
  2
GENIUS_GENREC_14
 70
     0
  0
APPID
  2
GENIUS_GENOBJ-N-REC_13
 70
     0
  0
APPID
  2
GENIUS_GENDIMSH_14
 70
     0
  0
APPID
  2
GENIUS_GENOBJ-N-DIM_13
 70
     0
  0
APPID
  2
GENIUS_GENDIM_13
 70
     0
  0
APPID
  2
GENIUS_GENDTOL_13
 70
     0
  0
APPID
  2
GENIUS_GENOLIS_13
 70
     0
  0
APPID
  2
GENIUS_GENOENT_13
 70
     0
  0
APPID
  2
GENIUS_GENOBJ-F-FEM_13
 70
     0
  0
APPID
  2
GENIUS_GENOREF_13
 70
     0
  0
APPID
  2
GENIUS_GEFFEM_13
 70
     0
  0
APPID
  2
GENIUS_GEFFEMP_13
 70
     0
  0
APPID
  2
AD_DRAW
 70
     0
  0
APPID
  2
DESIGNERASSEMBLIES
 70
     0
  0
APPID
  2
ACADM_DIM_EDIT
 70
     0
  0
APPID
  2
AMDT_DM_ADJ
 70
     0
  0
APPID
  2
ITEMNAME
 70
     0
  0
APPID
  2
GENIUS_GENOBJ-N-FIL_13
 70
     0
  0
APPID
  2
GENIUS_GENFIL_13
 70
     0
  0
APPID
  2
GENIUS_GENOBJ-N-CHA_13
 70
     0
  0
APPID
  2
ACAD_NAV_VCDISPLAY
 70
     0
  0
APPID
  2
ACAD_DSTYLE_DIMJAG
 70
     0
  0
APPID
  2
ACAD_DSTYLE_DIMBREAK
 70
     0
  0
APPID
  2
ACAECLAYERSTANDARD
 70
     0
  0
APPID
  2
ACAD_PSEXT
 70
     0
  0
APPID
  2
ACAD_MLEADERVER
 70
     0
  0
APPID
  2
ACAD_DSTYLE_DIMARC_LENGTH_
 70
     0
  0
APPID
  2
ACAD_DSTYLE_DIM_LINETYPE
 70
     0
  0
APPID
  2
ACAD_DSTYLE_DIM_EXT1_LINETYPE
 70
     0
  0
APPID
  2
ACAD_DSTYLE_DIM_EXT2_LINETYPE
 70
     0
  0
ENDTAB
  0
TABLE
  2
DIMSTYLE
 70
    31
  0
DIMSTYLE
  2
STANDARD
 70
     0
  3

  4

  5

  6

  7

 40
1.0
 41
0.18
 42
0.0625
 43
0.38
 44
0.18
 45
0.0
 46
0.0
 47
0.0
 48
0.0
140
0.18
141
0.09
142
0.0
143
25.399999999999999
144
1.0
145
0.0
146
1.0
147
0.09
 71
     0
 72
     0
 73
     1
 74
     1
 75
     0
 76
     0
 77
     0
 78
     0
170
     0
171
     2
172
     0
173
     0
174
     0
175
     0
176
     0
177
     0
178
     0
  0
DIMSTYLE
  2
BIGT
 70
     0
  3

  4

  5

  6

  7

 40
1.0
 41
2.2299999999999991
 42
0.5
 43
7.0
 44
1.0
 45
0.0
 46
0.0
 47
0.0
 48
0.01
140
2.799999999999998
141
0.0
142
0.0
143
25.399999999999999
144
1.0
145
0.0
146
1.0
147
1.0
 71
     0
 72
     0
 73
     0
 74
     0
 75
     0
 76
     0
 77
     3
 78
     9
170
     0
171
     2
172
     1
173
     0
174
     1
175
     0
176
   256
177
   256
178
    40
  0
DIMSTYLE
  2
AM_ANSI
 70
     0
  3

  4
mm
  5

  6

  7

 40
1.0
 41
0.12
 42
0.05
 43
0.5
 44
0.1
 45
0.0
 46
0.0
 47
0.1
 48
0.1
140
0.12
141
0.0
142
0.0
143
25.399999999999999
144
1.0
145
0.0
146
0.71
147
0.06
 71
     0
 72
     0
 73
     1
 74
     1
 75
     0
 76
     0
 77
     0
 78
     7
170
     0
171
     2
172
     0
173
     0
174
     0
175
     0
176
   256
177
   256
178
     2
  0
DIMSTYLE
  2
AM_ANSI$3
 70
     0
  3

  4
mm
  5

  6

  7

 40
1.0
 41
0.12
 42
0.05
 43
0.5
 44
0.1
 45
0.0
 46
0.0
 47
0.1
 48
0.1
140
0.12
141
0.0
142
0.0
143
25.399999999999999
144
1.0
145
0.0
146
0.71
147
0.06
 71
     0
 72
     0
 73
     1
 74
     1
 75
     0
 76
     0
 77
     0
 78
     7
170
     0
171
     2
172
     0
173
     0
174
     0
175
     0
176
   256
177
   256
178
     2
  0
DIMSTYLE
  2
AM_ANSI$4
 70
     0
  3

  4
mm
  5

  6

  7

 40
1.0
 41
0.12
 42
0.05
 43
0.5
 44
0.1
 45
0.0
 46
0.0
 47
0.1
 48
0.1
140
0.12
141
0.0
142
0.0
143
25.399999999999999
144
1.0
145
0.0
146
0.71
147
0.06
 71
     0
 72
     0
 73
     1
 74
     1
 75
     0
 76
     0
 77
     0
 78
     7
170
     0
171
     2
172
     0
173
     0
174
     0
175
     0
176
   256
177
   256
178
     2
  0
DIMSTYLE
  2
AM_ANSI$7
 70
     0
  3

  4
mm
  5

  6

  7

 40
1.0
 41
0.12
 42
0.05
 43
0.5
 44
0.1
 45
0.0
 46
0.0
 47
0.1
 48
0.1
140
0.12
141
0.0
142
0.0
143
25.399999999999999
144
1.0
145
0.0
146
0.71
147
0.06
 71
     0
 72
     0
 73
     1
 74
     1
 75
     0
 76
     0
 77
     0
 78
     7
170
     0
171
     2
172
     0
173
     0
174
     0
175
     0
176
   256
177
   256
178
     2
  0
DIMSTYLE
  2
AM_ANSI$SF
 70
     0
  3

  4
mm
  5

  6

  7

 40
1.0
 41
0.12
 42
0.05
 43
0.5
 44
0.1
 45
0.0
 46
0.0
 47
0.1
 48
0.1
140
0.12
141
0.0
142
0.0
143
25.399999999999999
144
1.0
145
0.0
146
0.71
147
0.06
 71
     0
 72
     0
 73
     1
 74
     1
 75
     1
 76
     1
 77
     0
 78
     7
170
     0
171
     2
172
     0
173
     0
174
     0
175
     0
176
   256
177
   256
178
     2
  0
DIMSTYLE
  2
AM_ANSI$SH
 70
     0
  3

  4
mm
  5

  6
GENAXEH
  7

 40
1.0
 41
0.12
 42
0.05
 43
0.5
 44
0.1
 45
0.0
 46
0.0
 47
0.1
 48
0.1
140
0.12
141
0.0
142
0.0
143
25.399999999999999
144
1.0
145
0.0
146
0.71
147
0.06
 71
     0
 72
     0
 73
     1
 74
     1
 75
     1
 76
     1
 77
     0
 78
     7
170
     0
171
     2
172
     0
173
     1
174
     0
175
     0
176
   256
177
   256
178
     2
  0
ENDTAB
  0
ENDSEC
  0
SECTION
  2
BLOCKS
  0
BLOCK
  8
0
  2
$MODEL_SPACE
 70
     0
 10
0.0
 20
0.0
 30
0.0
  3
$MODEL_SPACE
  1

  0
ENDBLK
  5
48E3
  8
0
  0
BLOCK
 67
     1
  8
0
  2
$PAPER_SPACE
 70
     0
 10
0.0
 20
0.0
 30
0.0
  3
$PAPER_SPACE
  1

  0
ENDBLK
  5
48DF
 67
     1
  8
0
  0
BLOCK
  8
0
  2
_OPEN
 70
     0
 10
0.0
 20
0.0
 30
0.0
  3
_OPEN
  1

  0
LINE
  5
46F0
  8
0
  6
BYBLOCK
 62
     0
 10
-1.0
 20
0.1666666666666666
 30
0.0
 11
0.0
 21
0.0
 31
0.0
  0
LINE
  5
46F1
  8
0
  6
BYBLOCK
 62
     0
 10
-1.0
 20
-0.1666666666666666
 30
0.0
 11
0.0
 21
0.0
 31
0.0
  0
LINE
  5
46F2
  8
0
  6
BYBLOCK
 62
     0
 10
0.0
 20
0.0
 30
0.0
 11
-1.0
 21
0.0
 31
0.0
  0
ENDBLK
  5
46F3
  8
0
  0
BLOCK
  8
0
  2
GENAXEH
 70
     0
 10
0.0
 20
0.0
 30
0.0
  3
GENAXEH
  1

  0
LINE
  5
472B
  8
0
 10
-1.0
 20
0.0
 30
0.0
 11
1.0
 21
0.0
 31
0.0
  0
ENDBLK
  5
472C
  8
0
  0
BLOCK
  8
0
  2
*U5
 70
     1
 10
0.0
 20
0.0
 30
0.0
  3
*U5
  1

  0
TEXT
  5
41AD
  8
250
 10
22.333137656196349
 20
50.0
 30
0.0
 40
2.799999999999998
  1
50
  0
ENDBLK
  5
41AE
  8
0
  0
BLOCK
  8
0
  2
_ACMFILLEDHALF
 70
     0
 10
0.0
 20
0.0
 30
0.0
  3
_ACMFILLEDHALF
  1

  0
TRACE
  5
49A9
  8
240
 62
     0
 10
-0.8
 20
0.0
 30
0.0
 11
-1.0
 21
0.166666666
 31
0.0
 12
0.0
 22
0.0
 32
0.0
 13
0.0
 23
0.0
 33
0.0
  0
LINE
  5
49AA
  8
240
 62
     0
 10
-1.0
 20
0.0
 30
0.0
 11
-0.8
 21
0.0
 31
0.0
  0
ENDBLK
  5
49A8
  8
0
  0
ENDSEC
  0
SECTION
  2
ENTITIES
  0
LINE
  5
4273
  8
241
  6
CONTINUOUS
 10
30.50530222073321
 20
33.139568122448203
 30
0.0
 11
49.799600183188382
 21
21.999999999999972
 31
0.0
  0
LINE
  5
4275
  8
241
  6
CONTINUOUS
 10
20.451983893537481
 20
27.94533153684122
 30
0.0
 11
39.746281855992677
 21
16.805763414393041
 31
0.0
  0
LINE
  5
4276
  8
241
  6
CONTINUOUS
 10
28.40512235707131
 20
21.213142115504951
 30
0.0
 11
37.448915143008847
 21
15.99170591604873
 31
0.0
  0
LINE
  5
4278
  8
240
  6
CONTINUOUS
 10
49.322111449796523
 20
-20.942572541855931
 30
0.0
 11
28.160278164752469
 21
-33.910560657416383
 31
0.0
  0
LINE
  5
4279
  8
245
  6
CENTER2
 10
51.690105056641357
 20
0.0000000000000213
 30
0.0
 11
-82.99999999999892
 21
-0.0000000000000355
 31
0.0
1001
GRPNAME
1000
PASTMD0D
  0
LINE
  5
427A
  8
241
  6
CONTINUOUS
 10
11.999613767229381
 20
-34.499999135732637
 30
0.0
 11
11.999613767229381
 21
0.0000000000000213
 31
0.0
  0
LINE
  5
427D
  8
241
  6
CONTINUOUS
 10
11.999613767229381
 20
34.500000000000071
 30
0.0
 11
11.999613767229381
 21
-34.500000000000099
 31
0.0
  0
LINE
  5
4281
  8
240
  6
CONTINUOUS
 10
11.999613767229381
 20
-34.500000000000099
 30
0.0
 11
26.070283905888751
 21
-34.499999999999972
 31
0.0
  0
ARC
  5
4282
  8
240
  6
CONTINUOUS
 10
11.99961288508046
 20
-32.499999999999979
 30
0.0
 40
2.0
 50
180.0
 51
270.0
  0
ARC
  5
4283
  8
240
  6
CONTINUOUS
 10
26.070283905888751
 20
-30.499999999999979
 30
0.0
 40
4.0
 50
270.0
 51
301.499999999995
  0
ARC
  5
4288
  8
241
  6
CONTINUOUS
 10
21.799612885080649
 20
30.80033747918954
 30
0.0
 40
5.0
 50
180.0
 51
239.99999999999949
  0
LINE
  5
4289
  8
241
  6
CONTINUOUS
 10
11.999613767229381
 20
0.0000000000000213
 30
0.0
 11
11.999613767229381
 21
34.499999135732672
 31
0.0
  0
LINE
  5
428A
  8
241
  6
CONTINUOUS
 10
19.299612885080752
 20
26.470210460267332
 30
0.0
 11
26.315128098207602
 21
22.419800863464751
 31
0.0
  0
LINE
  5
428B
  8
241
  6
CONTINUOUS
 10
26.263382707358179
 20
22.449676078800909
 30
0.0
 11
28.382112402839251
 21
21.226426918774809
 31
0.0
  0
LINE
  5
428C
  8
241
  6
CONTINUOUS
 10
26.315128098207602
 20
22.419800863464751
 30
0.0
 11
28.40512235707131
 21
21.213142115504951
 31
0.0
  0
LINE
  5
428D
  8
241
  6
CONTINUOUS
 10
16.799612885080641
 20
30.80033747918954
 30
0.0
 11
16.799612885080641
 21
34.50000000000005
 31
0.0
  0
LINE
  5
428E
  8
241
  6
CONTINUOUS
 10
30.136248887545101
 20
33.155678264617151
 30
0.0
 11
20.482936502901001
 21
28.6542647730952
 31
0.0
  0
LINE
  5
428F
  8
240
  6
CONTINUOUS
 10
29.71368336594713
 20
32.95863272582374
 30
0.0
 11
28.160278164752391
 21
33.910560657416461
 31
0.0
  0
ARC
  5
4290
  8
240
  6
CONTINUOUS
 10
48.799612885080663
 20
-20.089932377501871
 30
0.0
 40
1.0
 50
301.499999999995
 51
0.0
  0
LINE
  5
4291
  8
240
  6
CONTINUOUS
 10
49.799612885080641
 20
-20.089932377501871
 30
0.0
 11
49.799612885080627
 21
20.223184095848431
 31
0.0
  0
LINE
  5
4292
  8
241
  6
CONTINUOUS
 10
41.243010368521396
 20
15.492203803525641
 30
0.0
 11
49.799612885080641
 21
17.784938537791749
 31
0.0
  0
LINE
  5
4293
  8
241
  6
CONTINUOUS
 10
40.115329806922681
 20
16.789650762435919
 30
0.0
 11
49.768655950421447
 21
21.291070669817199
 31
0.0
  0
ARC
  5
4295
  8
241
  6
CONTINUOUS
 10
39.948915143008833
 20
20.321832934970939
 30
0.0
 40
5.0
 50
239.99999999999949
 51
285.00000000000119
  0
ARC
  5
4296
  8
240
  6
CONTINUOUS
 10
48.793023100539628
 20
20.232423596306681
 30
0.0
 40
1.0066321883940541
 50
359.47409607993637
 51
57.924607461278498
  0
LINE
  5
4298
  8
240
  6
CONTINUOUS
 10
-79.999999999999034
 20
-15.99999999999998
 30
0.0
 11
-79.999999999999034
 21
16.000000000000021
 31
0.0
1001
GRPNAME
1000
PASTMD0D
  0
LINE
  5
429F
  8
240
  6
CONTINUOUS
 10
-79.999999999999034
 20
-15.99999999999998
 30
0.0
 11
0.0000000000009237
 21
-15.99999999999998
 31
0.0
1001
GRPNAME
1000
PASTMD0D
  0
LINE
  5
42A0
  8
240
  6
CONTINUOUS
 10
-79.999999999999034
 20
16.000000000000021
 30
0.0
 11
0.0000000000012434
 21
16.0
 31
0.0
1001
GRPNAME
1000
PASTMD0D
  0
LINE
  5
42A4
  8
241
  6
CONTINUOUS
 10
0.0000000000009237
 20
-15.99999999999998
 30
0.0
 11
-0.0000000000009237
 21
16.0
 31
0.0
1001
GRPNAME
1000
PASTMD0D
  0
ARC
  5
42AB
  8
241
  6
CONTINUOUS
 10
20.651983807597311
 20
28.291741658280461
 30
0.0
 40
0.4
 50
115.0000000000001
 51
240.0000017018738
1001
GRPNAME
1000
00000002
1001
GENIUS_GENODEF_13
1002
{
1000
HIER
1070
     0
1002
}
1002
{
1000
MANEDIT
1070
     0
1002
}
1002
{
1000
NOSEL
1070
     0
1002
}
1002
{
1000
BEHIND
1070
     0
1002
}
1002
{
1000
OTHER
1070
     0
1002
}
1002
{
1000
REACTOR
1002
}
1001
GENIUS_GENOBJ-N-FIL_13
1002
{
1000
OWNER
1000
GEN
1002
}
  0
ARC
  5
42AC
  8
241
  6
CONTINUOUS
 10
39.946282502226452
 20
17.152173877250529
 30
0.0
 40
0.4
 50
240.0000017018738
 51
295.00000000000023
1001
GENIUS_GENODEF_13
1002
{
1000
HIER
1070
     0
1002
}
1002
{
1000
MANEDIT
1070
     0
1002
}
1002
{
1000
NOSEL
1070
     0
1002
}
1002
{
1000
BEHIND
1070
     0
1002
}
1002
{
1000
OTHER
1070
     0
1002
}
1002
{
1000
REACTOR
1002
}
1001
GENIUS_GENOBJ-N-FIL_13
1002
{
1000
OWNER
1000
GEN
1002
}
  0
ARC
  5
42AD
  8
241
  6
CONTINUOUS
 10
49.599608645725183
 20
21.65359378463187
 30
0.0
 40
0.4
 50
295.00000000000023
 51
60.00003368310562
1001
GRPNAME
1000
00000002
1001
GENIUS_GENOBJ-N-FIL_13
1002
{
1000
OWNER
1000
GEN
1002
}
1001
GENIUS_GENODEF_13
1002
{
1000
HIER
1070
     0
1002
}
1002
{
1000
MANEDIT
1070
     0
1002
}
1002
{
1000
NOSEL
1070
     0
1002
}
1002
{
1000
BEHIND
1070
     0
1002
}
1002
{
1000
OTHER
1070
     0
1002
}
1002
{
1000
REACTOR
1002
}
  0
ARC
  5
42AE
  8
241
  6
CONTINUOUS
 10
30.305296192241372
 20
32.793155149802509
 30
0.0
 40
0.4
 50
60.00003368310562
 51
115.0000000000001
1001
GENIUS_GENOBJ-N-FIL_13
1002
{
1000
OWNER
1000
GEN
1002
}
1001
GENIUS_GENODEF_13
1002
{
1000
HIER
1070
     0
1002
}
1002
{
1000
MANEDIT
1070
     0
1002
}
1002
{
1000
NOSEL
1070
     0
1002
}
1002
{
1000
BEHIND
1070
     0
1002
}
1002
{
1000
OTHER
1070
     0
1002
}
1002
{
1000
REACTOR
1002
}
  0
LINE
  5
42AF
  8
240
  6
CONTINUOUS
 10
26.070283905888729
 20
34.500000000000007
 30
0.0
 11
11.999613439403831
 21
34.5
 31
0.0
1001
GRPNAME
1000
PASTMD0D
  0
ARC
  5
42B0
  8
240
  6
CONTINUOUS
 10
11.999613439403831
 20
32.500000000000021
 30
0.0
 40
2.0
 50
90.0
 51
180.0
1001
GENIUS_GENODEF_13
1002
{
1000
HIER
1070
     0
1002
}
1002
{
1000
MANEDIT
1070
     0
1002
}
1002
{
1000
NOSEL
1070
     0
1002
}
1002
{
1000
BEHIND
1070
     0
1002
}
1002
{
1000
OTHER
1070
     0
1002
}
1002
{
1000
REACTOR
1002
}
1001
GENIUS_GENOBJ-N-FIL_13
1002
{
1000
OWNER
1000
GEN
1002
}
  0
ARC
  5
42B1
  8
240
  6
CONTINUOUS
 10
26.070283905888729
 20
30.500000000000011
 30
0.0
 40
4.0
 50
58.500000000002117
 51
90.0
1001
GRPNAME
1000
PASTMD0D
1001
GENIUS_GENODEF_13
1002
{
1000
HIER
1070
     0
1002
}
1002
{
1000
MANEDIT
1070
     0
1002
}
1002
{
1000
NOSEL
1070
     0
1002
}
1002
{
1000
BEHIND
1070
     0
1002
}
1002
{
1000
OTHER
1070
     0
1002
}
1002
{
1000
REACTOR
1002
}
1001
GENIUS_GENOBJ-N-FIL_13
1002
{
1000
OWNER
1000
GEN
1002
}
  0
TEXT
  5
42B2
  8
241
  6
CONTINUOUS
 10
-83.000391354274825
 20
63.000000000000021
 30
0.0
 40
5.0
  1
ST32-C4565C-60
  0
LINE
  5
42B3
  8
250
  6
CONTINUOUS
 10
-79.999999999999034
 20
16.500000000000021
 30
0.0
 11
-79.999999999999034
 21
50.0
 31
0.0
  0
LINE
  5
42B4
  8
250
  6
CONTINUOUS
 10
0.0000000000008598
 20
24.49999935925009
 30
0.0
 11
0.0000000000008598
 21
50.0
 31
0.0
  0
LINE
  5
42B5
  8
250
  6
CONTINUOUS
 10
-77.769999999999115
 20
48.999999999999993
 30
0.0
 11
-2.2299999999991438
 21
48.999999999999993
 31
0.0
  0
LINE
  5
42B6
  8
250
  6
CONTINUOUS
 10
-80.499999999999034
 20
16.0
 30
0.0
 11
-96.000000999998917
 21
16.0
 31
0.0
  0
LINE
  5
42B7
  8
250
  6
CONTINUOUS
 10
-80.499999999999034
 20
-15.999999999999959
 30
0.0
 11
-96.000000999998917
 21
-15.999999999999959
 31
0.0
  0
LINE
  5
42B8
  8
250
  6
CONTINUOUS
 10
-95.000000999998917
 20
13.770000000000019
 30
0.0
 11
-95.000000999998917
 21
-13.76999999999996
 31
0.0
  0
LINE
  5
42B9
  8
250
  6
CONTINUOUS
 10
49.999608645725182
 20
22.15359378463187
 30
0.0
 11
49.999608645725182
 21
50.0
 31
0.0
  0
LINE
  5
42BA
  8
250
  6
CONTINUOUS
 10
0.0000000000008598
 20
22.999999999999911
 30
0.0
 11
0.0000000000008598
 21
50.0
 31
0.0
  0
LINE
  5
42BB
  8
250
  6
CONTINUOUS
 10
47.769608645725171
 20
48.999999999999993
 30
0.0
 11
2.2300000000008491
 21
48.999999999999993
 31
0.0
  0
INSERT
  5
42BC
  8
250
  6
CONTINUOUS
  2
*U5
 10
-0.0000000000000071
 20
-0.0000000000000071
 30
0.0
  0
LINE
  5
42C0
  8
250
  6
CONTINUOUS
 10
32.113066703714992
 20
32.500000000000021
 30
0.0
 11
71.000000000000014
 21
32.500000000000021
 31
0.0
  0
LINE
  5
42C1
  8
250
  6
CONTINUOUS
 10
70.0
 20
30.27
 30
0.0
 11
70.0
 21
-4.533333333333327
 31
0.0
  0
LINE
  5
42C2
  8
250
  6
CONTINUOUS
 10
49.433574779403934
 20
22.500000000000021
 30
0.0
 11
64.0
 21
22.500000000000021
 31
0.0
  0
LINE
  5
42C3
  8
250
  6
CONTINUOUS
 10
63.0
 20
20.27000000000001
 30
0.0
 11
63.0
 21
-4.5333333333333137
 31
0.0
  0
LINE
  5
42CB
  8
250
  6
CONTINUOUS
 10
62.62833333333333
 20
20.27000000000001
 30
0.0
 11
63.0
 21
22.500000000000021
 31
0.0
  0
LINE
  5
42CC
  8
250
  6
CONTINUOUS
 10
63.371666666666663
 20
20.27000000000001
 30
0.0
 11
63.0
 21
22.500000000000021
 31
0.0
  0
LINE
  5
42CD
  8
250
  6
CONTINUOUS
 10
63.0
 20
22.500000000000021
 30
0.0
 11
63.0
 21
20.27000000000001
 31
0.0
  0
TEXT
  5
42CE
  8
250
  6
CONTINUOUS
 10
61.999999999999993
 20
-3.933333333333302
 30
0.0
 40
2.799999999999998
  1
\U+220545
 50
90.0
  0
LINE
  5
42CF
  8
250
  6
CONTINUOUS
 10
69.628333333333345
 20
30.27
 30
0.0
 11
70.000000000000014
 21
32.500000000000021
 31
0.0
  0
LINE
  5
42D0
  8
250
  6
CONTINUOUS
 10
70.371666666666684
 20
30.27
 30
0.0
 11
70.000000000000014
 21
32.500000000000021
 31
0.0
  0
LINE
  5
42D1
  8
250
  6
CONTINUOUS
 10
70.000000000000014
 20
32.500000000000021
 30
0.0
 11
70.000000000000014
 21
30.27
 31
0.0
  0
TEXT
  5
42D2
  8
250
  6
CONTINUOUS
 10
68.999999999999986
 20
-3.933333333333314
 30
0.0
 40
2.799999999999998
  1
\U+220565
 50
90.0
  0
LINE
  5
42D3
  8
250
  6
CONTINUOUS
 10
-95.371667666665559
 20
13.770000000000019
 30
0.0
 11
-95.000000999998917
 21
16.0
 31
0.0
  0
LINE
  5
42D4
  8
250
  6
CONTINUOUS
 10
-94.628334333332205
 20
13.770000000000019
 30
0.0
 11
-95.000000999998917
 21
16.0
 31
0.0
  0
LINE
  5
42D5
  8
250
  6
CONTINUOUS
 10
-95.000000999998917
 20
16.0
 30
0.0
 11
-95.000000999998917
 21
13.770000000000019
 31
0.0
  0
LINE
  5
42D6
  8
250
  6
CONTINUOUS
 10
-94.628334333332205
 20
-13.76999999999996
 30
0.0
 11
-95.000000999998917
 21
-15.999999999999959
 31
0.0
  0
LINE
  5
42D7
  8
250
  6
CONTINUOUS
 10
-95.371667666665559
 20
-13.76999999999996
 30
0.0
 11
-95.000000999998917
 21
-15.999999999999959
 31
0.0
  0
LINE
  5
42D8
  8
250
  6
CONTINUOUS
 10
-95.000000999998917
 20
-15.999999999999959
 30
0.0
 11
-95.000000999998917
 21
-13.76999999999996
 31
0.0
  0
TEXT
  5
42D9
  8
250
  6
CONTINUOUS
 10
-96.000000999998917
 20
-3.9333333333333149
 30
0.0
 40
2.799999999999998
  1
\U+220532
 50
90.0
  0
LINE
  5
42DA
  8
250
  6
CONTINUOUS
 10
-77.769999999999115
 20
48.628333333333323
 30
0.0
 11
-79.999999999999034
 21
48.999999999999993
 31
0.0
  0
LINE
  5
42DB
  8
250
  6
CONTINUOUS
 10
-77.769999999999115
 20
49.371666666666663
 30
0.0
 11
-79.999999999999034
 21
48.999999999999993
 31
0.0
  0
LINE
  5
42DC
  8
250
  6
CONTINUOUS
 10
-79.999999999999034
 20
48.999999999999993
 30
0.0
 11
-77.769999999999115
 21
48.999999999999993
 31
0.0
  0
LINE
  5
42DD
  8
250
  6
CONTINUOUS
 10
-2.2299999999991438
 20
49.371666666666663
 30
0.0
 11
0.0000000000008598
 21
48.999999999999993
 31
0.0
  0
LINE
  5
42DE
  8
250
  6
CONTINUOUS
 10
-2.2299999999991438
 20
48.628333333333323
 30
0.0
 11
0.0000000000008598
 21
48.999999999999993
 31
0.0
  0
LINE
  5
42DF
  8
250
  6
CONTINUOUS
 10
0.0000000000008598
 20
48.999999999999993
 30
0.0
 11
-2.2299999999991438
 21
48.999999999999993
 31
0.0
  0
TEXT
  5
42E0
  8
250
  6
CONTINUOUS
 10
-42.666666666665769
 20
50.0
 30
0.0
 40
2.799999999999998
  1
80
  0
LINE
  5
42E1
  8
250
  6
CONTINUOUS
 10
47.769608645725171
 20
49.371666666666663
 30
0.0
 11
49.999608645725182
 21
48.999999999999993
 31
0.0
  0
LINE
  5
42E2
  8
250
  6
CONTINUOUS
 10
47.769608645725171
 20
48.628333333333323
 30
0.0
 11
49.999608645725182
 21
48.999999999999993
 31
0.0
  0
LINE
  5
42E3
  8
250
  6
CONTINUOUS
 10
49.999608645725182
 20
48.999999999999993
 30
0.0
 11
47.769608645725171
 21
48.999999999999993
 31
0.0
  0
LINE
  5
42E4
  8
250
  6
CONTINUOUS
 10
2.2300000000008491
 20
48.628333333333323
 30
0.0
 11
0.0000000000008598
 21
48.999999999999993
 31
0.0
  0
LINE
  5
42E5
  8
250
  6
CONTINUOUS
 10
2.2300000000008491
 20
49.371666666666663
 30
0.0
 11
0.0000000000008598
 21
48.999999999999993
 31
0.0
  0
LINE
  5
42E6
  8
250
  6
CONTINUOUS
 10
0.0000000000008598
 20
48.999999999999993
 30
0.0
 11
2.2300000000008491
 21
48.999999999999993
 31
0.0
  0
LINE
  5
430A
  8
250
  6
CONTINUOUS
 10
-56.303843654939627
 20
-17.745403317215171
 30
0.0
 11
-54.86697087999903
 21
-16.000000000000039
 31
0.0
  0
LINE
  5
430B
  8
250
  6
CONTINUOUS
 10
-55.660098104765027
 20
-18.117069983832931
 30
0.0
 11
-54.86697087999903
 21
-16.000000000000039
 31
0.0
  0
LINE
  5
430C
  8
250
  6
CONTINUOUS
 10
-54.86697087999903
 20
-16.000000000000039
 30
0.0
 11
-55.981970879852327
 21
-17.931236650524049
 31
0.0
  0
LINE
  5
430D
  8
250
  6
CONTINUOUS
 10
-55.981970879852327
 20
-17.931236650524049
 30
0.0
 11
-61.943933959999022
 21
-28.25765962000003
 31
0.0
1001
ACAD
1000
DSTYLE
1002
{
1070
     6
1000
OPEN
1070
   343
1005
594
1002
}
  0
TEXT
  5
430E
  8
250
  6
CONTINUOUS
 10
-74.47726728999902
 20
-27.25765962000003
 30
0.0
 40
2.799999999999998
  1
ST32
  7
YOKO
1001
ITEMNAME
1000
LNSP3
  0
LINE
  5
430F
  8
250
  6
CONTINUOUS
 10
-61.943933959999022
 20
-28.25765962000003
 30
0.0
 11
-76.877267289999025
 21
-28.25765962000003
 31
0.0
1001
ITEMNAME
1000
LNSP2
  0
LINE
  5
4310
  8
247
  6
CONTINUOUS
 10
-73.250000000069022
 20
-10.00000000000003
 30
0.0
 11
-66.557692308029019
 21
-10.00000000000003
 31
0.0
  0
ARC
  5
4311
  8
247
  6
CONTINUOUS
 10
-73.250000000069022
 20
-8.2500000000700648
 30
0.0
 40
1.7499999999299991
 50
90.0
 51
270.0
  0
ARC
  5
4312
  8
247
  6
CONTINUOUS
 10
-66.557692308029019
 20
-8.2500000000700648
 30
0.0
 40
1.7499999999299991
 50
270.0
 51
90.0
  0
LINE
  5
4313
  8
247
  6
CONTINUOUS
 10
-72.384615384719027
 20
-6.500000000140095
 30
0.0
 11
-73.244851541961026
 21
-9.5000000000200409
 31
0.0
  0
LINE
  5
4314
  8
247
  6
CONTINUOUS
 10
-71.484983818334925
 20
-7.9230769231599298
 30
0.0
 11
-72.792676125974822
 21
-7.9230769231599298
 31
0.0
  0
ARC
  5
4315
  8
247
  6
CONTINUOUS
 10
-71.145143816088833
 20
-7.0495986677028979
 30
0.0
 40
0.5538165441895349
 50
342.9978896752952
 51
82.924166218513577
  0
ARC
  5
4316
  8
247
  6
CONTINUOUS
 10
-71.566878323027822
 20
-6.9360330444658631
 30
0.0
 40
0.9904354236226808
 50
274.74293685220061
 51
343.8492262732662
1001
GENIUS_GENOBJ-N-FIL_13
1002
{
1000
OWNER
1000
GEN
1002
}
1001
GENIUS_GENODEF_13
1002
{
1000
HIER
1070
     0
1002
}
1002
{
1000
MANEDIT
1070
     0
1002
}
1002
{
1000
NOSEL
1070
     0
1002
}
1002
{
1000
BEHIND
1070
     0
1002
}
1002
{
1000
OTHER
1070
     0
1002
}
1002
{
1000
REACTOR
1002
}
  0
LINE
  5
4317
  8
247
  6
CONTINUOUS
 10
-71.937159234321115
 20
-9.5000000000200409
 30
0.0
 11
-73.244851541961026
 21
-9.5000000000200409
 31
0.0
  0
LINE
  5
4318
  8
247
  6
CONTINUOUS
 10
-72.384615384719027
 20
-6.500000000140095
 30
0.0
 11
-71.07692307707903
 21
-6.500000000140095
 31
0.0
  0
ARC
  5
4319
  8
247
  6
CONTINUOUS
 10
-71.560919636546018
 20
-8.4820242326655126
 30
0.0
 40
0.5640818586791229
 50
335.9909416525216
 51
82.263443459069066
  0
ARC
  5
431A
  8
247
  6
CONTINUOUS
 10
-72.038262685346126
 20
-8.4874290391865443
 30
0.0
 40
1.0176059446230981
 50
275.70198516425808
 51
347.27733843682228
1001
GENIUS_GENOBJ-N-FIL_13
1002
{
1000
OWNER
1000
GEN
1002
}
1001
GENIUS_GENODEF_13
1002
{
1000
HIER
1070
     0
1002
}
1002
{
1000
MANEDIT
1070
     0
1002
}
1002
{
1000
NOSEL
1070
     0
1002
}
1002
{
1000
BEHIND
1070
     0
1002
}
1002
{
1000
OTHER
1070
     0
1002
}
1002
{
1000
REACTOR
1002
}
  0
LINE
  5
431B
  8
247
  6
CONTINUOUS
 10
-70.283313080541035
 20
-9.5000000000200409
 30
0.0
 11
-69.423076923299021
 21
-6.500000000140095
 31
0.0
  0
LINE
  5
431C
  8
247
  6
CONTINUOUS
 10
-67.000000000319019
 20
-6.500000000140095
 30
0.0
 11
-67.56573661945562
 21
-6.500000000140095
 31
0.0
  0
LINE
  5
431D
  8
247
  6
CONTINUOUS
 10
-68.461538461799023
 20
-9.5000000000200409
 30
0.0
 11
-67.846153846439023
 21
-9.5000000000200409
 31
0.0
  0
ARC
  5
431E
  8
247
  6
CONTINUOUS
 10
-66.708791209121912
 20
-8.5832851359734033
 30
0.0
 40
2.2526500823422122
 50
112.359488141531
 51
164.993248542846
  0
ARC
  5
431F
  8
247
  6
CONTINUOUS
 10
-67.374069479212324
 20
-7.3083126551946744
 30
0.0
 40
0.8906723995727782
 50
4.9945893190753186
 51
65.166328957300493
1001
GENIUS_GENOBJ-N-FIL_13
1002
{
1000
OWNER
1000
GEN
1002
}
1001
GENIUS_GENODEF_13
1002
{
1000
HIER
1070
     0
1002
}
1002
{
1000
MANEDIT
1070
     0
1002
}
1002
{
1000
NOSEL
1070
     0
1002
}
1002
{
1000
BEHIND
1070
     0
1002
}
1002
{
1000
OTHER
1070
     0
1002
}
1002
{
1000
REACTOR
1002
}
  0
ARC
  5
4320
  8
247
  6
CONTINUOUS
 10
-68.226458886211617
 20
-8.1601458886678166
 30
0.0
 40
1.392781735586712
 50
285.84609655578072
 51
352.32513700416263
  0
ARC
  5
4321
  8
247
  6
CONTINUOUS
 10
-67.642212725839428
 20
-8.4592434315273177
 30
0.0
 40
1.324563662670287
 50
159.71360167049031
 51
231.78874565641311
1001
GENIUS_GENOBJ-N-FIL_13
1002
{
1000
OWNER
1000
GEN
1002
}
1001
GENIUS_GENODEF_13
1002
{
1000
HIER
1070
     0
1002
}
1002
{
1000
MANEDIT
1070
     0
1002
}
1002
{
1000
NOSEL
1070
     0
1002
}
1002
{
1000
BEHIND
1070
     0
1002
}
1002
{
1000
OTHER
1070
     0
1002
}
1002
{
1000
REACTOR
1002
}
  0
LINE
  5
4322
  8
247
  6
CONTINUOUS
 10
-67.538461538759123
 20
-8.3461538462200089
 30
0.0
 11
-66.846153846479126
 21
-8.3461538462200089
 31
0.0
  0
LINE
  5
4323
  8
247
  6
CONTINUOUS
 10
-73.250000000069122
 20
-6.500000000140095
 30
0.0
 11
-72.576923077019131
 21
-6.500000000140095
 31
0.0
  0
LINE
  5
456A
  8
241
  6
CONTINUOUS
 10
30.055468265122219
 20
-13.854066466891
 30
0.0
 11
37.807634610615821
 21
-11.616208803704261
 31
0.0
  0
LINE
  5
456B
  8
241
  6
CONTINUOUS
 10
49.799612885080641
 20
-7.3640494610395724
 30
0.0
 11
30.062738666753781
 21
-13.57221926688308
 31
0.0
  0
LINE
  5
456C
  8
241
  6
CONTINUOUS
 10
28.382112402839251
 20
-33.4959518158714
 30
0.0
 11
37.807634610615821
 21
-27.927699246667071
 31
0.0
  0
LINE
  5
456D
  8
241
  6
CONTINUOUS
 10
26.263382707358179
 20
-17.509155434893529
 30
0.0
 11
26.263382707358179
 21
22.44967607880093
 31
0.0
  0
LINE
  5
456E
  8
241
  6
CONTINUOUS
 10
28.382112402839251
 20
-17.20553583893777
 30
0.0
 11
28.382112402839251
 21
21.226426918774809
 31
0.0
  0
LINE
  5
4570
  8
241
  6
CONTINUOUS
 10
16.799612885080641
 20
-29.520372224730838
 30
0.0
 11
16.799612885080641
 21
-20.839399296449741
 31
0.0
  0
POLYLINE
  5
4571
  8
241
  6
CONTINUOUS
 66
     1
 10
0.0
 20
0.0
 30
0.0
 70
     8
  0
VERTEX
  5
47F1
  8
241
 10
18.799608645725169
 20
-32.238399999999977
 30
0.0
 70
    32
  0
VERTEX
  5
47F2
  8
241
 10
18.85240864572517
 20
-32.255499999999977
 30
0.0
 70
    32
  0
VERTEX
  5
47F3
  8
241
 10
18.905408645725171
 20
-32.272599999999983
 30
0.0
 70
    32
  0
VERTEX
  5
47F4
  8
241
 10
18.958408645725171
 20
-32.289699999999989
 30
0.0
 70
    32
  0
VERTEX
  5
47F5
  8
241
 10
19.011508645725169
 20
-32.306599999999982
 30
0.0
 70
    32
  0
VERTEX
  5
47F6
  8
241
 10
19.064708645725169
 20
-32.323599999999978
 30
0.0
 70
    32
  0
VERTEX
  5
47F7
  8
241
 10
19.118008645725169
 20
-32.340399999999981
 30
0.0
 70
    32
  0
VERTEX
  5
47F8
  8
241
 10
19.171408645725169
 20
-32.357199999999978
 30
0.0
 70
    32
  0
VERTEX
  5
47F9
  8
241
 10
19.224908645725169
 20
-32.373899999999978
 30
0.0
 70
    32
  0
VERTEX
  5
47FA
  8
241
 10
19.278408645725172
 20
-32.390599999999978
 30
0.0
 70
    32
  0
VERTEX
  5
47FB
  8
241
 10
19.332108645725171
 20
-32.407199999999982
 30
0.0
 70
    32
  0
VERTEX
  5
47FC
  8
241
 10
19.38580864572517
 20
-32.423699999999968
 30
0.0
 70
    32
  0
VERTEX
  5
47FD
  8
241
 10
19.439708645725169
 20
-32.440199999999983
 30
0.0
 70
    32
  0
VERTEX
  5
47FE
  8
241
 10
19.493608645725171
 20
-32.45659999999998
 30
0.0
 70
    32
  0
VERTEX
  5
47FF
  8
241
 10
19.54760864572517
 20
-32.472899999999981
 30
0.0
 70
    32
  0
VERTEX
  5
4800
  8
241
 10
19.601708645725171
 20
-32.489199999999983
 30
0.0
 70
    32
  0
VERTEX
  5
4801
  8
241
 10
19.65590864572518
 20
-32.50539999999998
 30
0.0
 70
    32
  0
VERTEX
  5
4802
  8
241
 10
19.710208645725171
 20
-32.521599999999978
 30
0.0
 70
    32
  0
VERTEX
  5
4803
  8
241
 10
19.764508645725169
 20
-32.53769999999998
 30
0.0
 70
    32
  0
VERTEX
  5
4804
  8
241
 10
19.81900864572518
 20
-32.553699999999978
 30
0.0
 70
    32
  0
VERTEX
  5
4805
  8
241
 10
19.87360864572517
 20
-32.56959999999998
 30
0.0
 70
    32
  0
VERTEX
  5
4806
  8
241
 10
19.928208645725171
 20
-32.585499999999982
 30
0.0
 70
    32
  0
VERTEX
  5
4807
  8
241
 10
19.982908645725171
 20
-32.601399999999977
 30
0.0
 70
    32
  0
VERTEX
  5
4808
  8
241
 10
20.037708645725171
 20
-32.617099999999979
 30
0.0
 70
    32
  0
VERTEX
  5
4809
  8
241
 10
20.092608645725171
 20
-32.632799999999982
 30
0.0
 70
    32
  0
VERTEX
  5
480A
  8
241
 10
20.147608645725171
 20
-32.648499999999977
 30
0.0
 70
    32
  0
VERTEX
  5
480B
  8
241
 10
20.202708645725181
 20
-32.66399999999998
 30
0.0
 70
    32
  0
VERTEX
  5
480C
  8
241
 10
20.25790864572517
 20
-32.679599999999979
 30
0.0
 70
    32
  0
VERTEX
  5
480D
  8
241
 10
20.313108645725169
 20
-32.694999999999979
 30
0.0
 70
    32
  0
VERTEX
  5
480E
  8
241
 10
20.368508645725171
 20
-32.710399999999979
 30
0.0
 70
    32
  0
VERTEX
  5
480F
  8
241
 10
20.42390864572517
 20
-32.725699999999982
 30
0.0
 70
    32
  0
VERTEX
  5
4810
  8
241
 10
20.479408645725179
 20
-32.740999999999978
 30
0.0
 70
    32
  0
VERTEX
  5
4811
  8
241
 10
20.535008645725181
 20
-32.756199999999978
 30
0.0
 70
    32
  0
VERTEX
  5
4812
  8
241
 10
20.590708645725179
 20
-32.771299999999982
 30
0.0
 70
    32
  0
VERTEX
  5
4813
  8
241
 10
20.64650864572517
 20
-32.786299999999983
 30
0.0
 70
    32
  0
VERTEX
  5
4814
  8
241
 10
20.702308645725179
 20
-32.801299999999983
 30
0.0
 70
    32
  0
VERTEX
  5
4815
  8
241
 10
20.75830864572518
 20
-32.816299999999977
 30
0.0
 70
    32
  0
VERTEX
  5
4816
  8
241
 10
20.81430864572517
 20
-32.831099999999978
 30
0.0
 70
    32
  0
VERTEX
  5
4817
  8
241
 10
20.870508645725181
 20
-32.845999999999968
 30
0.0
 70
    32
  0
VERTEX
  5
4818
  8
241
 10
20.926708645725181
 20
-32.86069999999998
 30
0.0
 70
    32
  0
VERTEX
  5
4819
  8
241
 10
20.983008645725182
 20
-32.875399999999978
 30
0.0
 70
    32
  0
VERTEX
  5
481A
  8
241
 10
21.039408645725182
 20
-32.889999999999979
 30
0.0
 70
    32
  0
VERTEX
  5
481B
  8
241
 10
21.095808645725171
 20
-32.904499999999977
 30
0.0
 70
    32
  0
VERTEX
  5
481C
  8
241
 10
21.152408645725181
 20
-32.918999999999983
 30
0.0
 70
    32
  0
VERTEX
  5
481D
  8
241
 10
21.20910864572517
 20
-32.933399999999978
 30
0.0
 70
    32
  0
VERTEX
  5
481E
  8
241
 10
21.26580864572518
 20
-32.94779999999998
 30
0.0
 70
    32
  0
VERTEX
  5
481F
  8
241
 10
21.322608645725179
 20
-32.962099999999978
 30
0.0
 70
    32
  0
VERTEX
  5
4820
  8
241
 10
21.379508645725181
 20
-32.976299999999981
 30
0.0
 70
    32
  0
VERTEX
  5
4821
  8
241
 10
21.43650864572518
 20
-32.990499999999983
 30
0.0
 70
    32
  0
VERTEX
  5
4822
  8
241
 10
21.493608645725178
 20
-33.004599999999982
 30
0.0
 70
    32
  0
VERTEX
  5
4823
  8
241
 10
21.55070864572518
 20
-33.018599999999978
 30
0.0
 70
    32
  0
VERTEX
  5
4824
  8
241
 10
21.608008645725182
 20
-33.032599999999981
 30
0.0
 70
    32
  0
VERTEX
  5
4825
  8
241
 10
21.66530864572518
 20
-33.04649999999998
 30
0.0
 70
    32
  0
VERTEX
  5
4826
  8
241
 10
21.72270864572517
 20
-33.060299999999977
 30
0.0
 70
    32
  0
VERTEX
  5
4827
  8
241
 10
21.780208645725178
 20
-33.07409999999998
 30
0.0
 70
    32
  0
VERTEX
  5
4828
  8
241
 10
21.837808645725179
 20
-33.08779999999998
 30
0.0
 70
    32
  0
VERTEX
  5
4829
  8
241
 10
21.89550864572518
 20
-33.101399999999977
 30
0.0
 70
    32
  0
VERTEX
  5
482A
  8
241
 10
21.95320864572518
 20
-33.114999999999981
 30
0.0
 70
    32
  0
VERTEX
  5
482B
  8
241
 10
22.01110864572518
 20
-33.128499999999981
 30
0.0
 70
    32
  0
VERTEX
  5
482C
  8
241
 10
22.06900864572518
 20
-33.141999999999982
 30
0.0
 70
    32
  0
VERTEX
  5
482D
  8
241
 10
22.12700864572518
 20
-33.155299999999983
 30
0.0
 70
    32
  0
VERTEX
  5
482E
  8
241
 10
22.18510864572518
 20
-33.16869999999998
 30
0.0
 70
    32
  0
VERTEX
  5
482F
  8
241
 10
22.243308645725179
 20
-33.181899999999978
 30
0.0
 70
    32
  0
VERTEX
  5
4830
  8
241
 10
22.301608645725182
 20
-33.195099999999968
 30
0.0
 70
    32
  0
VERTEX
  5
4831
  8
241
 10
22.35990864572517
 20
-33.208199999999977
 30
0.0
 70
    32
  0
VERTEX
  5
4832
  8
241
 10
22.41830864572518
 20
-33.221299999999978
 30
0.0
 70
    32
  0
VERTEX
  5
4833
  8
241
 10
22.476908645725171
 20
-33.234299999999983
 30
0.0
 70
    32
  0
VERTEX
  5
4834
  8
241
 10
22.53550864572518
 20
-33.247199999999978
 30
0.0
 70
    32
  0
VERTEX
  5
4835
  8
241
 10
22.594108645725171
 20
-33.26009999999998
 30
0.0
 70
    32
  0
VERTEX
  5
4836
  8
241
 10
22.65290864572518
 20
-33.272899999999979
 30
0.0
 70
    32
  0
VERTEX
  5
4837
  8
241
 10
22.711708645725182
 20
-33.285599999999981
 30
0.0
 70
    32
  0
VERTEX
  5
4838
  8
241
 10
22.770708645725179
 20
-33.298299999999983
 30
0.0
 70
    32
  0
VERTEX
  5
4839
  8
241
 10
22.82970864572518
 20
-33.310899999999982
 30
0.0
 70
    32
  0
VERTEX
  5
483A
  8
241
 10
22.88880864572517
 20
-33.323399999999978
 30
0.0
 70
    32
  0
VERTEX
  5
483B
  8
241
 10
22.948008645725171
 20
-33.335899999999981
 30
0.0
 70
    32
  0
VERTEX
  5
483C
  8
241
 10
23.007208645725179
 20
-33.348299999999981
 30
0.0
 70
    32
  0
VERTEX
  5
483D
  8
241
 10
23.066608645725172
 20
-33.360599999999977
 30
0.0
 70
    32
  0
VERTEX
  5
483E
  8
241
 10
23.126008645725179
 20
-33.37289999999998
 30
0.0
 70
    32
  0
VERTEX
  5
483F
  8
241
 10
23.185508645725179
 20
-33.38509999999998
 30
0.0
 70
    32
  0
VERTEX
  5
4840
  8
241
 10
23.245108645725178
 20
-33.39729999999998
 30
0.0
 70
    32
  0
VERTEX
  5
4841
  8
241
 10
23.304808645725181
 20
-33.40929999999998
 30
0.0
 70
    32
  0
VERTEX
  5
4842
  8
241
 10
23.36450864572517
 20
-33.421399999999977
 30
0.0
 70
    32
  0
VERTEX
  5
4843
  8
241
 10
23.42440864572518
 20
-33.433299999999981
 30
0.0
 70
    32
  0
VERTEX
  5
4844
  8
241
 10
23.484308645725179
 20
-33.445199999999979
 30
0.0
 70
    32
  0
VERTEX
  5
4845
  8
241
 10
23.54430864572517
 20
-33.456999999999979
 30
0.0
 70
    32
  0
VERTEX
  5
4846
  8
241
 10
23.604408645725179
 20
-33.46879999999998
 30
0.0
 70
    32
  0
VERTEX
  5
4847
  8
241
 10
23.664508645725171
 20
-33.480399999999982
 30
0.0
 70
    32
  0
VERTEX
  5
4848
  8
241
 10
23.724808645725169
 20
-33.492099999999979
 30
0.0
 70
    32
  0
VERTEX
  5
4849
  8
241
 10
23.78510864572517
 20
-33.503599999999977
 30
0.0
 70
    32
  0
VERTEX
  5
484A
  8
241
 10
23.845508645725172
 20
-33.515099999999968
 30
0.0
 70
    32
  0
VERTEX
  5
484B
  8
241
 10
23.90600864572518
 20
-33.526499999999977
 30
0.0
 70
    32
  0
VERTEX
  5
484C
  8
241
 10
23.96660864572517
 20
-33.537899999999979
 30
0.0
 70
    32
  0
VERTEX
  5
484D
  8
241
 10
24.027208645725171
 20
-33.549199999999978
 30
0.0
 70
    32
  0
VERTEX
  5
484E
  8
241
 10
24.088008645725179
 20
-33.56039999999998
 30
0.0
 70
    32
  0
VERTEX
  5
484F
  8
241
 10
24.148808645725179
 20
-33.571599999999982
 30
0.0
 70
    32
  0
VERTEX
  5
4850
  8
241
 10
24.209708645725179
 20
-33.582699999999981
 30
0.0
 70
    32
  0
VERTEX
  5
4851
  8
241
 10
24.270608645725179
 20
-33.593699999999977
 30
0.0
 70
    32
  0
VERTEX
  5
4852
  8
241
 10
24.331708645725179
 20
-33.60469999999998
 30
0.0
 70
    32
  0
VERTEX
  5
4853
  8
241
 10
24.392808645725179
 20
-33.615599999999979
 30
0.0
 70
    32
  0
VERTEX
  5
4854
  8
241
 10
24.454008645725182
 20
-33.626399999999983
 30
0.0
 70
    32
  0
VERTEX
  5
4855
  8
241
 10
24.515308645725181
 20
-33.637199999999979
 30
0.0
 70
    32
  0
VERTEX
  5
4856
  8
241
 10
24.57670864572518
 20
-33.647899999999979
 30
0.0
 70
    32
  0
VERTEX
  5
4857
  8
241
 10
24.638208645725179
 20
-33.658499999999982
 30
0.0
 70
    32
  0
VERTEX
  5
4858
  8
241
 10
24.699708645725181
 20
-33.669099999999979
 30
0.0
 70
    32
  0
VERTEX
  5
4859
  8
241
 10
24.76130864572518
 20
-33.679599999999979
 30
0.0
 70
    32
  0
VERTEX
  5
485A
  8
241
 10
24.823008645725171
 20
-33.689999999999984
 30
0.0
 70
    32
  0
VERTEX
  5
485B
  8
241
 10
24.88470864572518
 20
-33.700399999999981
 30
0.0
 70
    32
  0
VERTEX
  5
485C
  8
241
 10
24.946608645725181
 20
-33.710699999999981
 30
0.0
 70
    32
  0
VERTEX
  5
485D
  8
241
 10
25.008508645725179
 20
-33.720899999999979
 30
0.0
 70
    32
  0
VERTEX
  5
485E
  8
241
 10
25.07050864572518
 20
-33.731099999999977
 30
0.0
 70
    32
  0
VERTEX
  5
485F
  8
241
 10
25.132608645725171
 20
-33.741199999999978
 30
0.0
 70
    32
  0
VERTEX
  5
4860
  8
241
 10
25.194808645725178
 20
-33.751199999999983
 30
0.0
 70
    32
  0
VERTEX
  5
4861
  8
241
 10
25.257008645725179
 20
-33.761199999999981
 30
0.0
 70
    32
  0
VERTEX
  5
4862
  8
241
 10
25.319308645725179
 20
-33.771099999999983
 30
0.0
 70
    32
  0
VERTEX
  5
4863
  8
241
 10
25.38170864572518
 20
-33.780899999999981
 30
0.0
 70
    32
  0
VERTEX
  5
4864
  8
241
 10
25.44420864572518
 20
-33.79069999999998
 30
0.0
 70
    32
  0
VERTEX
  5
4865
  8
241
 10
25.50670864572518
 20
-33.800399999999982
 30
0.0
 70
    32
  0
VERTEX
  5
4866
  8
241
 10
25.569408645725179
 20
-33.810099999999977
 30
0.0
 70
    32
  0
VERTEX
  5
4867
  8
241
 10
25.632108645725179
 20
-33.81959999999998
 30
0.0
 70
    32
  0
VERTEX
  5
4868
  8
241
 10
25.694908645725182
 20
-33.829199999999979
 30
0.0
 70
    32
  0
VERTEX
  5
4869
  8
241
 10
25.75770864572517
 20
-33.838599999999978
 30
0.0
 70
    32
  0
VERTEX
  5
486A
  8
241
 10
25.82070864572518
 20
-33.847999999999978
 30
0.0
 70
    32
  0
VERTEX
  5
486B
  8
241
 10
25.883708645725179
 20
-33.857299999999981
 30
0.0
 70
    32
  0
VERTEX
  5
486C
  8
241
 10
25.94680864572517
 20
-33.866499999999981
 30
0.0
 70
    32
  0
VERTEX
  5
486D
  8
241
 10
26.009908645725179
 20
-33.875699999999981
 30
0.0
 70
    32
  0
VERTEX
  5
486E
  8
241
 10
26.073208645725181
 20
-33.884799999999977
 30
0.0
 70
    32
  0
VERTEX
  5
486F
  8
241
 10
26.136508645725179
 20
-33.893899999999981
 30
0.0
 70
    32
  0
VERTEX
  5
4870
  8
241
 10
26.199908645725181
 20
-33.902799999999978
 30
0.0
 70
    32
  0
VERTEX
  5
4871
  8
241
 10
26.263408645725171
 20
-33.911799999999978
 30
0.0
 70
    32
  0
SEQEND
  5
4872
  8
241
  0
ARC
  5
4572
  8
241
  6
CONTINUOUS
 10
19.362902373721852
 20
-29.724314676079789
 30
0.0
 40
2.576384164587
 50
175.4598077391183
 51
257.37108779058411
  0
ARC
  5
4573
  8
241
  6
CONTINUOUS
 10
26.724867626076449
 20
-30.658196029529261
 30
0.0
 40
3.2862316036801631
 50
261.91476941338328
 51
300.28485905612678
  0
ARC
  5
4574
  8
241
  6
CONTINUOUS
 10
20.5446508201623
 20
-21.340212787189021
 30
0.0
 40
3.8395320145982201
 50
86.192502749078045
 51
172.50520778541861
  0
POLYLINE
  5
4575
  8
241
  6
CONTINUOUS
 66
     1
 10
0.0
 20
0.0
 30
0.0
 70
   128
  0
VERTEX
  5
47E9
  8
241
  6
CONTINUOUS
 10
29.894999637728631
 20
-16.733132037340258
 30
0.0
  0
VERTEX
  5
47EA
  8
241
  6
CONTINUOUS
 10
30.021639539681409
 20
-15.165483913751171
 30
0.0
  0
VERTEX
  5
47EB
  8
241
  6
CONTINUOUS
 10
30.062738666753781
 20
-13.57221926688308
 30
0.0
  0
SEQEND
  5
47EC
  8
241
  6
CONTINUOUS
  0
ARC
  5
4576
  8
241
  6
CONTINUOUS
 10
26.302011676106929
 20
-10.15936330936055
 30
0.0
 40
7.3498936377183899
 50
269.69886815035937
 51
286.5288100293435
  0
LINE
  5
4577
  8
241
  6
CONTINUOUS
 10
26.263382707358179
 20
-17.509155434893529
 30
0.0
 11
20.799612885080641
 21
-17.509155434893529
 31
0.0
  0
LINE
  5
4578
  8
241
  6
CONTINUOUS
 10
29.894999637728631
 20
-16.733132037340258
 30
0.0
 11
28.382112402839251
 21
-17.20553583893777
 31
0.0
  0
ARC
  5
4579
  8
241
  6
CONTINUOUS
 10
19.182641845161179
 20
6.7734653519994694
 30
0.0
 40
39.253880406118903
 50
303.4905493722373
 51
320.1738842046629
  0
ARC
  5
457A
  8
241
  6
CONTINUOUS
 10
7.6190882440257113
 20
22.125055870577821
 30
0.0
 40
58.451917218810252
 50
301.09563053483919
 51
304.64396096921882
  0
LINE
  5
457B
  8
241
  6
CONTINUOUS
 10
40.842910791025979
 20
-11.416407958695039
 30
0.0
 11
49.799612885080641
 21
-12.61637850516914
 31
0.0
  0
ARC
  5
457C
  8
241
  6
CONTINUOUS
 10
39.808476401836238
 20
-19.00783987241315
 30
0.0
 40
7.6615855412673151
 50
82.240471846563594
 51
105.2548195538013
  0
POLYLINE
  5
457D
  8
241
  6
CONTINUOUS
 66
     1
 10
0.0
 20
0.0
 30
0.0
 70
   128
  0
VERTEX
  5
47ED
  8
241
  6
CONTINUOUS
 10
49.329295308950748
 20
-18.36706789357957
 30
0.0
  0
VERTEX
  5
47EE
  8
241
  6
CONTINUOUS
 10
49.653014982720087
 20
-17.734914673020771
 30
0.0
  0
VERTEX
  5
47EF
  8
241
  6
CONTINUOUS
 10
49.799612885080641
 20
-16.745940007521799
 30
0.0
  0
SEQEND
  5
47F0
  8
241
  6
CONTINUOUS
  0
LINE
  5
45ED
  8
241
  6
CONTINUOUS
 10
9.9996134394038432
 20
-22.99999999999995
 30
0.0
 11
9.9996134394038432
 21
22.999999999999911
 31
0.0
  0
LINE
  5
45EE
  8
240
  6
CONTINUOUS
 10
9.9996134394038432
 20
-32.499998807907083
 30
0.0
 11
9.9996134394035607
 21
-22.999999999999918
 31
0.0
  0
ARC
  5
45EF
  8
240
  6
CONTINUOUS
 10
9.4996134394035607
 20
-22.99999999999995
 30
0.0
 40
0.5
 50
0.0000000000016284
 51
90.0
  0
LINE
  5
45F0
  8
240
  6
CONTINUOUS
 10
9.9996134394038432
 20
32.499998807907119
 30
0.0
 11
9.9996134394038432
 21
22.999999999999911
 31
0.0
  0
LINE
  5
45F1
  8
240
  6
CONTINUOUS
 10
0.0000000000012434
 20
16.0
 30
0.0
 11
0.00000000000081
 21
22.499999999999911
 31
0.0
1001
GRPNAME
1000
PASTMD0D
  0
LINE
  5
45F2
  8
240
  6
CONTINUOUS
 10
0.0000000000009166
 20
-22.49999999999995
 30
0.0
 11
0.0000000000009166
 21
-15.985857157143871
 31
0.0
1001
GRPNAME
1000
PASTMD0D
  0
LINE
  5
45F4
  8
240
  6
CONTINUOUS
 10
0.0000000000009166
 20
-22.49999999999995
 30
0.0
 11
9.4996134394035607
 21
-22.49999999999995
 31
0.0
  0
ARC
  5
45F5
  8
240
  6
CONTINUOUS
 10
9.4996134394035607
 20
22.999999999999911
 30
0.0
 40
0.5
 50
270.0
 51
359.99999999999682
  0
LINE
  5
45F7
  8
240
  6
CONTINUOUS
 10
0.00000000000081
 20
22.499999999999911
 30
0.0
 11
9.4996134394035607
 21
22.499999999999911
 31
0.0
  0
VIEWPORT
  5
22
 67
     1
  8
0
 10
261.51769911504419
 20
148.5
 30
0.0
 40
523.0353982300885
 41
297.0
 68
     1
 69
     1
1001
ACAD
1000
MVIEW
1002
{
1070
    16
1010
0.0
1020
0.0
1030
0.0
1010
0.0
1020
0.0
1030
1.0
1040
0.0
1040
297.0
1040
261.51769911504419
1040
148.5
1040
50.0
1040
0.0
1040
0.0
1070
     0
1070
   100
1070
     1
1070
     1
1070
     0
1070
     0
1070
     0
1070
     0
1040
0.0
1040
0.0
1040
0.0
1040
1.0
1040
1.0
1040
10.0
1040
10.0
1070
     0
1002
{
1002
}
1002
}
1001
GENIUS_GENODEF_13
1002
{
1000
HIER
1070
     0
1002
}
1002
{
1000
MANEDIT
1070
     0
1002
}
1002
{
1000
NOSEL
1070
     0
1002
}
1002
{
1000
BEHIND
1070
     0
1002
}
1002
{
1000
OTHER
1070
     0
1002
}
1002
{
1000
REACTOR
1002
}
1001
GENIUS_GENOBJ-N-SDF_13
1002
{
1000
OWNER
1000
GEN
1002
}
1001
GENIUS_GENSCREG_15
1000
PF
1040
1.0
1000
DF
1040
1.0
1000
MIN
1011
0.0
1021
0.0
1031
0.0
1021
0.0
1031
0.0
1000
MAX
1011
523.0353982300885
1021
0.0
1031
0.0
1021
297.0
1031
0.0
1000
FLAGS
1070
     4
  0
ENDSEC
  0
EOF
