  0
SECTION
  2
HEADER
  9
$ACADVER
  1
AC1009
  9
$INSBASE
 10
0.0
 20
0.0
 30
0.0
  9
$EXTMIN
 10
-192.90769911802809
 20
-36.007232218989202
 30
-0.0015258207003583
  9
$EXTMAX
 10
22.015777959273919
 20
36.250763226126757
 30
0.0000000349246037
  9
$LIMMIN
 10
0.0
 20
0.0
  9
$LIMMAX
 10
297.0
 20
210.0
  9
$ORTHOMODE
 70
     0
  9
$REGENMODE
 70
     1
  9
$FILLMODE
 70
     1
  9
$QTEXTMODE
 70
     0
  9
$MIRRTEXT
 70
     1
  9
$DRAGMODE
 70
     2
  9
$LTSCALE
 40
10.0
  9
$OSMODE
 70
  2597
  9
$ATTMODE
 70
     1
  9
$TEXTSIZE
 40
3.0
  9
$TRACEWID
 40
1.0
  9
$TEXTSTYLE
  7
YOKO
  9
$CLAYER
  8
240
  9
$CELTYPE
  6
BYLAYER
  9
$CECOLOR
 62
   256
  9
$DIMSCALE
 40
1.0
  9
$DIMASZ
 40
2.2299999999999991
  9
$DIMEXO
 40
0.5
  9
$DIMDLI
 40
7.0
  9
$DIMRND
 40
0.0
  9
$DIMDLE
 40
0.0
  9
$DIMEXE
 40
1.0
  9
$DIMTP
 40
0.0
  9
$DIMTM
 40
0.01
  9
$DIMTXT
 40
2.7999999999999989
  9
$DIMCEN
 40
0.0
  9
$DIMTSZ
 40
0.0
  9
$DIMTOL
 70
     0
  9
$DIMLIM
 70
     0
  9
$DIMTIH
 70
     0
  9
$DIMTOH
 70
     0
  9
$DIMSE1
 70
     0
  9
$DIMSE2
 70
     0
  9
$DIMTAD
 70
     3
  9
$DIMZIN
 70
     9
  9
$DIMBLK
  1
OPEN
  9
$DIMASO
 70
     1
  9
$DIMSHO
 70
     1
  9
$DIMPOST
  1

  9
$DIMAPOST
  1

  9
$DIMALT
 70
     0
  9
$DIMALTD
 70
     2
  9
$DIMALTF
 40
25.399999999999999
  9
$DIMLFAC
 40
1.0
  9
$DIMTOFL
 70
     1
  9
$DIMTVP
 40
0.0
  9
$DIMTIX
 70
     1
  9
$DIMSOXD
 70
     0
  9
$DIMSAH
 70
     0
  9
$DIMBLK1
  1

  9
$DIMBLK2
  1

  9
$DIMSTYLE
  2
BIGT
  9
$DIMCLRD
 70
   256
  9
$DIMCLRE
 70
   256
  9
$DIMCLRT
 70
    40
  9
$DIMTFAC
 40
1.0
  9
$DIMGAP
 40
1.0
  9
$LUNITS
 70
     2
  9
$LUPREC
 70
     3
  9
$SKETCHINC
 40
1.0
  9
$FILLETRAD
 40
0.0
  9
$AUNITS
 70
     0
  9
$AUPREC
 70
     3
  9
$MENU
  1
.
  9
$ELEVATION
 40
0.0
  9
$PELEVATION
 40
0.0
  9
$THICKNESS
 40
0.0
  9
$LIMCHECK
 70
     0
  9
$BLIPMODE
 70
     0
  9
$CHAMFERA
 40
0.25
  9
$CHAMFERB
 40
0.25
  9
$SKPOLY
 70
     0
  9
$TDCREATE
 40
2454090.3673450118
  9
$TDUPDATE
 40
2454090.3774437499
  9
$TDINDWG
 40
0.0101097801
  9
$TDUSRTIMER
 40
0.0101095949
  9
$USRTIMER
 70
     1
  9
$ANGBASE
 50
0.0
  9
$ANGDIR
 70
     0
  9
$PDMODE
 70
     1
  9
$PDSIZE
 40
0.0
  9
$PLINEWID
 40
0.0
  9
$COORDS
 70
     0
  9
$SPLFRAME
 70
     0
  9
$SPLINETYPE
 70
     6
  9
$SPLINESEGS
 70
     4
  9
$ATTDIA
 70
     1
  9
$ATTREQ
 70
     1
  9
$HANDLING
 70
     1
  9
$HANDSEED
  5
1908
  9
$SURFTAB1
 70
     6
  9
$SURFTAB2
 70
     6
  9
$SURFTYPE
 70
     6
  9
$SURFU
 70
     6
  9
$SURFV
 70
     6
  9
$UCSNAME
  2

  9
$UCSORG
 10
0.0
 20
0.0
 30
0.0
  9
$UCSXDIR
 10
1.0
 20
0.0
 30
0.0
  9
$UCSYDIR
 10
0.0
 20
1.0
 30
0.0
  9
$PUCSNAME
  2

  9
$PUCSORG
 10
0.0
 20
0.0
 30
0.0
  9
$PUCSXDIR
 10
1.0
 20
0.0
 30
0.0
  9
$PUCSYDIR
 10
0.0
 20
1.0
 30
0.0
  9
$USERI1
 70
     1
  9
$USERI2
 70
     0
  9
$USERI3
 70
     0
  9
$USERI4
 70
     0
  9
$USERI5
 70
     0
  9
$USERR1
 40
0.0
  9
$USERR2
 40
0.0
  9
$USERR3
 40
0.0
  9
$USERR4
 40
0.0
  9
$USERR5
 40
0.0
  9
$WORLDVIEW
 70
     1
  9
$SHADEDGE
 70
     3
  9
$SHADEDIF
 70
    70
  9
$TILEMODE
 70
     1
  9
$MAXACTVP
 70
    16
  9
$PLIMCHECK
 70
     0
  9
$PEXTMIN
 10
1.0000000000000000E+020
 20
1.0000000000000000E+020
 30
1.0000000000000000E+020
  9
$PEXTMAX
 10
-1.0000000000000000E+020
 20
-1.0000000000000000E+020
 30
-1.0000000000000000E+020
  9
$PLIMMIN
 10
0.0
 20
0.0
  9
$PLIMMAX
 10
420.0
 20
297.0
  9
$UNITMODE
 70
     0
  9
$VISRETAIN
 70
     1
  9
$PLINEGEN
 70
     0
  9
$PSLTSCALE
 70
     1
  0
ENDSEC
  0
SECTION
  2
TABLES
  0
TABLE
  2
VPORT
 70
    14
  0
VPORT
  2
*ACTIVE
 70
     0
 10
0.0
 20
0.0
 11
1.0
 21
1.0
 12
-85.445960579377086
 22
0.1217655035687812
 13
0.0
 23
0.0
 14
7.0
 24
7.0
 15
7.0
 25
7.0
 16
0.0
 26
0.0
 36
1.0
 17
0.0
 27
0.0
 37
0.0
 40
146.02178333955891
 41
1.4791666666666661
 42
50.0
 43
0.0
 44
0.0
 50
0.0
 51
0.0
 71
     0
 72
  2000
 73
     1
 74
     0
 75
     0
 76
     0
 77
     0
 78
     0
  0
ENDTAB
  0
TABLE
  2
LTYPE
 70
    13
  0
LTYPE
  2
CONTINUOUS
 70
     0
  3
Solid line
 72
    65
 73
     0
 40
0.0
  0
LTYPE
  2
CENTER2
 70
     0
  3
___ _ ___ _ ___ _ ___ _ ___ _ ___ _ ___ _ ___ _
 72
    65
 73
     4
 40
1.125
 49
0.75
 49
-0.125
 49
0.125
 49
-0.125
  0
LTYPE
  2
HIDDEN2
 70
     0
  3
_ _ _ _ _ _ _ _ _ _ _ _ _ _ _ _ _ _ _ _ _ _ _ _
 72
    65
 73
     2
 40
0.1875
 49
0.125
 49
-0.0625
  0
LTYPE
  2
PHANTOM2
 70
     0
  3
___ _ _ ___ _ _ ___ _ _ ___ _ _ ___ _ _ ___ _ _
 72
    65
 73
     6
 40
1.25
 49
0.625
 49
-0.125
 49
0.125
 49
-0.125
 49
0.125
 49
-0.125
  0
LTYPE
  2
CENTER
 70
     0
  3
____ _ ____ _ ____ _ ____ _ ____ _ ____ _ ____ 
 72
    65
 73
     4
 40
2.0
 49
1.25
 49
-0.25
 49
0.25
 49
-0.25
  0
LTYPE
  2
AM_ISO02W050
 70
     0
  3
__ __ __ __ __ __ __ __ __ __ __ __ __ __ __
 72
    65
 73
     2
 40
7.5
 49
6.0
 49
-1.5
  0
LTYPE
  2
AMCONSTR
 70
     0
  3
_______________________
 72
    65
 73
     2
 40
9999.0
 49
9999.0
 49
0.0
  0
LTYPE
  2
ACISOWELD
 70
     0
  3
_ _ _ _ _
 72
    65
 73
     2
 40
2.0
 49
2.0
 49
-1.0
  0
LTYPE
  2
ACISOTGB
 70
     0
  3
__ . . __ . .
 72
    65
 73
     6
 40
9.0
 49
4.0
 49
-1.0
 49
1.0
 49
-1.0
 49
1.0
 49
-1.0
  0
LTYPE
  2
ACISOTGL
 70
     0
  3
_ _ _ _ _
 72
    65
 73
     2
 40
3.0
 49
2.0
 49
-1.0
  0
LTYPE
  2
ACJISTGB
 70
     0
  3
__ . . __ . .
 72
    65
 73
     6
 40
9.0
 49
4.0
 49
-1.0
 49
1.0
 49
-1.0
 49
1.0
 49
-1.0
  0
LTYPE
  2
ACJISTGL
 70
     0
  3
_ _ _ _ _
 72
    65
 73
     2
 40
3.0
 49
2.0
 49
-1.0
  0
LTYPE
  2
HIDDEN
 70
     0
  3
Hidden __ __ __ __ __ __ __ __ __ __ __ __ __ _
 72
    65
 73
     2
 40
9.5249999999999986
 49
6.3499999999999988
 49
-3.1749999999999989
  0
ENDTAB
  0
TABLE
  2
LAYER
 70
    14
  0
LAYER
  2
0
 70
     0
 62
     7
  6
CONTINUOUS
  0
LAYER
  2
DEFPOINTS
 70
     0
 62
     7
  6
CONTINUOUS
  0
LAYER
  2
245
 70
     0
 62
     2
  6
CENTER2
  0
LAYER
  2
240
 70
     0
 62
     4
  6
CONTINUOUS
  0
LAYER
  2
241
 70
     0
 62
   211
  6
CONTINUOUS
  0
LAYER
  2
246
 70
     0
 62
     3
  6
PHANTOM2
  0
LAYER
  2
247
 70
     0
 62
    60
  6
CONTINUOUS
  0
LAYER
  2
250
 70
     0
 62
     3
  6
CONTINUOUS
  0
ENDTAB
  0
TABLE
  2
STYLE
 70
     6
  0
STYLE
  2
STANDARD
 70
     0
 40
0.0
 41
1.0
 50
0.0
 71
     0
 42
3.0
  3
romans.shx
  4
extfont.shx
  0
STYLE
  2
ACISOTS
 70
     0
 40
1.0
 41
1.0
 50
0.0
 71
     0
 42
3.0
  3
amgdt.shx
  4
extfont.shx
  0
STYLE
  2
ACISOGDT
 70
     0
 40
0.0
 41
1.0
 50
0.0
 71
     0
 42
3.0
  3
amgdt.shx
  4
extfont.shx
  0
STYLE
  2
ACJISTS
 70
     0
 40
1.0
 41
1.0
 50
0.0
 71
     0
 42
3.0
  3
amgdt.shx
  4
extfont.shx
  0
STYLE
  2
ACJISGDT
 70
     0
 40
0.0
 41
1.0
 50
0.0
 71
     0
 42
3.0
  3
amgdt.shx
  4
extfont.shx
  0
STYLE
  2
YOKO
 70
     0
 40
0.0
 41
1.0
 50
0.0
 71
     0
 42
3.0
  3
romans.shx
  4
extfont.shx
  0
ENDTAB
  0
TABLE
  2
VIEW
 70
     0
  0
ENDTAB
  0
TABLE
  2
UCS
 70
     0
  0
ENDTAB
  0
TABLE
  2
APPID
 70
    31
  0
APPID
  2
ACAD
 70
     0
  0
APPID
  2
GLOBAL
 70
     0
  0
APPID
  2
DETAIL
 70
     0
  0
APPID
  2
GRPNAME
 70
     0
  0
APPID
  2
GPARA
 70
     0
  0
APPID
  2
MCAD_NO_VIS
 70
     0
  0
APPID
  2
ACAD_TEMP_GRAPHIC
 70
     0
  0
APPID
  2
ACATTRIBSERVICES
 70
     0
  0
APPID
  2
GENIUS_GENSCREG_15
 70
     0
  0
APPID
  2
GENIUS_GENODEF_13
 70
     0
  0
APPID
  2
GENIUS_GENOBJ-N-SDF_13
 70
     0
  0
APPID
  2
GENIUS_GENREC_14
 70
     0
  0
APPID
  2
GENIUS_GENOBJ-N-REC_13
 70
     0
  0
APPID
  2
GENIUS_GENDIMSH_14
 70
     0
  0
APPID
  2
GENIUS_GENOBJ-N-DIM_13
 70
     0
  0
APPID
  2
GENIUS_GENDIM_13
 70
     0
  0
APPID
  2
GENIUS_GENDTOL_13
 70
     0
  0
APPID
  2
GENIUS_GENOLIS_13
 70
     0
  0
APPID
  2
GENIUS_GENOENT_13
 70
     0
  0
APPID
  2
GENIUS_GENOBJ-F-FEM_13
 70
     0
  0
APPID
  2
GENIUS_GENOREF_13
 70
     0
  0
APPID
  2
GENIUS_GEFFEM_13
 70
     0
  0
APPID
  2
GENIUS_GEFFEMP_13
 70
     0
  0
APPID
  2
AD_DRAW
 70
     0
  0
APPID
  2
DESIGNERASSEMBLIES
 70
     0
  0
APPID
  2
ACADM_DIM_EDIT
 70
     0
  0
APPID
  2
AMDT_DM_ADJ
 70
     0
  0
APPID
  2
GENIUS_GENOBJ-N-FIL_13
 70
     0
  0
APPID
  2
HATCH_TYPE
 70
     0
  0
APPID
  2
HATCH_DISPLAY
 70
     0
  0
APPID
  2
HATCH_DISTANCE
 70
     0
  0
ENDTAB
  0
TABLE
  2
DIMSTYLE
 70
    25
  0
DIMSTYLE
  2
BIGT
 70
     0
  3

  4

  5
OPEN
  6

  7

 40
1.0
 41
2.2299999999999991
 42
0.5
 43
7.0
 44
1.0
 45
0.0
 46
0.0
 47
0.0
 48
0.01
140
2.7999999999999989
141
0.0
142
0.0
143
25.399999999999999
144
1.0
145
0.0
146
1.0
147
1.0
 71
     0
 72
     0
 73
     0
 74
     0
 75
     0
 76
     0
 77
     3
 78
     9
170
     0
171
     2
172
     1
173
     0
174
     1
175
     0
176
   256
177
   256
178
    40
  0
DIMSTYLE
  2
AM_ISO
 70
     0
  3

  4
"
  5

  6

  7

 40
1.0
 41
2.5
 42
1.0
 43
10.0
 44
1.0
 45
0.0
 46
0.0
 47
0.1
 48
0.1
140
3.5
141
0.0
142
0.0
143
0.0393701
144
1.0
145
0.0
146
0.71
147
1.5
 71
     0
 72
     0
 73
     0
 74
     0
 75
     0
 76
     0
 77
     1
 78
     8
170
     0
171
     2
172
     1
173
     0
174
     0
175
     0
176
   256
177
   256
178
     2
  0
DIMSTYLE
  2
AM_ISO$3
 70
     0
  3

  4
"
  5

  6

  7

 40
1.0
 41
2.5
 42
1.0
 43
10.0
 44
1.0
 45
0.0
 46
0.0
 47
0.1
 48
0.1
140
3.5
141
0.0
142
0.0
143
0.0393701
144
1.0
145
0.0
146
0.71
147
1.5
 71
     0
 72
     0
 73
     0
 74
     1
 75
     0
 76
     0
 77
     1
 78
     8
170
     0
171
     2
172
     0
173
     0
174
     0
175
     0
176
   256
177
   256
178
     2
  0
DIMSTYLE
  2
AM_ISO$4
 70
     0
  3

  4
"
  5

  6

  7

 40
1.0
 41
2.5
 42
1.0
 43
10.0
 44
1.0
 45
0.0
 46
0.0
 47
0.1
 48
0.1
140
3.5
141
0.0
142
0.0
143
0.0393701
144
1.0
145
0.0
146
0.71
147
1.5
 71
     0
 72
     0
 73
     0
 74
     1
 75
     0
 76
     0
 77
     1
 78
     8
170
     0
171
     2
172
     0
173
     0
174
     0
175
     0
176
   256
177
   256
178
     2
  0
DIMSTYLE
  2
AM_ISO$6
 70
     0
  3

  4
"
  5

  6

  7

 40
1.0
 41
2.5
 42
1.0
 43
10.0
 44
1.0
 45
0.0
 46
0.0
 47
0.1
 48
0.1
140
3.5
141
0.0
142
0.0
143
0.0393701
144
1.0
145
0.0
146
0.71
147
1.5
 71
     0
 72
     0
 73
     0
 74
     0
 75
     0
 76
     0
 77
     0
 78
     8
170
     0
171
     2
172
     1
173
     0
174
     0
175
     0
176
   256
177
   256
178
     2
  0
DIMSTYLE
  2
AM_ISO$7
 70
     0
  3

  4
"
  5

  6

  7

 40
1.0
 41
2.5
 42
1.0
 43
10.0
 44
1.0
 45
0.0
 46
0.0
 47
0.1
 48
0.1
140
5.0
141
0.0
142
0.0
143
0.0393701
144
1.0
145
0.0
146
0.71
147
1.5
 71
     0
 72
     0
 73
     0
 74
     0
 75
     0
 76
     0
 77
     1
 78
     8
170
     0
171
     2
172
     1
173
     0
174
     0
175
     0
176
   256
177
   256
178
     2
  0
DIMSTYLE
  2
AM_ISO$SF
 70
     0
  3

  4
"
  5

  6

  7

 40
1.0
 41
2.5
 42
1.0
 43
10.0
 44
1.0
 45
0.0
 46
0.0
 47
0.1
 48
0.1
140
3.5
141
0.0
142
0.0
143
0.0393701
144
1.0
145
0.0
146
0.71
147
1.5
 71
     0
 72
     0
 73
     0
 74
     0
 75
     1
 76
     1
 77
     1
 78
     8
170
     0
171
     2
172
     1
173
     0
174
     0
175
     0
176
   256
177
   256
178
     2
  0
DIMSTYLE
  2
AM_ISO$SH
 70
     0
  3

  4
"
  5

  6
GENAXEH
  7

 40
1.0
 41
2.5
 42
1.0
 43
10.0
 44
1.0
 45
0.0
 46
0.0
 47
0.1
 48
0.1
140
3.5
141
0.0
142
0.0
143
0.0393701
144
2.0
145
0.0
146
0.71
147
1.5
 71
     0
 72
     0
 73
     0
 74
     0
 75
     1
 76
     1
 77
     1
 78
     8
170
     0
171
     2
172
     1
173
     1
174
     0
175
     0
176
   256
177
   256
178
     2
  0
DIMSTYLE
  2
BIGT$2
 70
     0
  3

  4

  5
OPEN
  6

  7

 40
1.0
 41
2.2299999999999991
 42
0.5
 43
7.0
 44
1.0
 45
0.0
 46
0.0
 47
0.0
 48
0.01
140
2.7999999999999989
141
0.0
142
0.0
143
25.399999999999999
144
1.0
145
0.0
146
1.0
147
1.0
 71
     0
 72
     0
 73
     0
 74
     0
 75
     0
 76
     0
 77
     3
 78
     9
170
     0
171
     2
172
     1
173
     0
174
     0
175
     0
176
   256
177
   256
178
    40
  0
DIMSTYLE
  2
BIGT$3
 70
     0
  3

  4

  5
OPEN
  6

  7

 40
1.0
 41
2.2299999999999991
 42
0.5
 43
2.5
 44
1.0
 45
0.0
 46
0.0
 47
0.0
 48
0.01
140
2.7999999999999989
141
0.0
142
0.0
143
25.399999999999999
144
1.0
145
0.0
146
1.0
147
1.0
 71
     0
 72
     0
 73
     0
 74
     0
 75
     0
 76
     0
 77
     3
 78
     9
170
     0
171
     2
172
     1
173
     0
174
     0
175
     0
176
   256
177
   256
178
    40
  0
DIMSTYLE
  2
BIGT$7
 70
     0
  3

  4

  5
OPEN
  6

  7

 40
0.0
 41
2.2299999999999991
 42
0.5
 43
7.0
 44
1.0
 45
0.0
 46
0.0
 47
0.0
 48
0.01
140
2.7999999999999989
141
0.0
142
0.0
143
25.399999999999999
144
1.0
145
0.0
146
1.0
147
1.0
 71
     0
 72
     0
 73
     0
 74
     0
 75
     0
 76
     0
 77
     3
 78
     9
170
     0
171
     2
172
     0
173
     0
174
     0
175
     0
176
   256
177
   256
178
    40
  0
DIMSTYLE
  2
BIGT$6
 70
     0
  3

  4

  5
OPEN
  6

  7

 40
1.0
 41
2.2299999999999991
 42
0.5
 43
2.5
 44
1.0
 45
0.0
 46
0.0
 47
0.0
 48
0.01
140
2.7999999999999989
141
0.0
142
0.0
143
25.399999999999999
144
1.0
145
0.0
146
1.0
147
1.0
 71
     0
 72
     0
 73
     0
 74
     0
 75
     0
 76
     0
 77
     3
 78
     9
170
     0
171
     2
172
     1
173
     0
174
     0
175
     0
176
   256
177
   256
178
    40
  0
DIMSTYLE
  2
BIGT$0
 70
     0
  3

  4

  5
OPEN
  6

  7

 40
1.0
 41
2.2299999999999991
 42
0.5
 43
7.0
 44
1.0
 45
0.0
 46
0.0
 47
0.0
 48
0.01
140
2.7999999999999989
141
0.0
142
0.0
143
25.399999999999999
144
1.0
145
0.0
146
1.0
147
1.0
 71
     0
 72
     0
 73
     0
 74
     0
 75
     0
 76
     0
 77
     3
 78
     9
170
     0
171
     2
172
     1
173
     0
174
     0
175
     0
176
   256
177
   256
178
    40
  0
DIMSTYLE
  2
BIGT$4
 70
     0
  3

  4

  5
OPEN
  6

  7

 40
1.0
 41
2.2299999999999991
 42
0.5
 43
2.5
 44
1.0
 45
0.0
 46
0.0
 47
0.0
 48
0.01
140
2.7999999999999989
141
0.0
142
0.0
143
25.399999999999999
144
1.0
145
0.0
146
1.0
147
1.0
 71
     0
 72
     0
 73
     0
 74
     0
 75
     0
 76
     0
 77
     3
 78
     9
170
     0
171
     2
172
     1
173
     0
174
     0
175
     0
176
   256
177
   256
178
    40
  0
DIMSTYLE
  2
BIGT$SH
 70
     0
  3

  4

  5
OPEN
  6

  7

 40
1.0
 41
2.2299999999999991
 42
0.5
 43
7.0
 44
1.0
 45
0.0
 46
0.0
 47
0.0
 48
0.0
140
2.7999999999999989
141
0.0
142
0.0
143
25.399999999999999
144
1.0
145
0.0
146
1.0
147
1.0
 71
     0
 72
     0
 73
     0
 74
     0
 75
     0
 76
     0
 77
     3
 78
     9
170
     0
171
     2
172
     1
173
     0
174
     0
175
     0
176
   256
177
   256
178
    40
  0
DIMSTYLE
  2
BIGT$SF
 70
     0
  3

  4

  5
OPEN
  6

  7

 40
1.0
 41
2.2299999999999991
 42
0.5
 43
7.0
 44
1.0
 45
0.0
 46
0.0
 47
0.0
 48
0.0
140
2.7999999999999989
141
0.0
142
0.0
143
25.399999999999999
144
1.0
145
0.0
146
1.0
147
1.0
 71
     0
 72
     0
 73
     0
 74
     0
 75
     0
 76
     0
 77
     3
 78
     9
170
     0
171
     2
172
     1
173
     0
174
     0
175
     0
176
   256
177
   256
178
    40
  0
DIMSTYLE
  2
TECHNICAL_OSAKA
 70
     0
  3

  4
"
  5
OPEN30
  6

  7

 40
1.0
 41
2.5
 42
1.0
 43
10.0
 44
1.0
 45
0.0
 46
0.0
 47
0.1
 48
0.1
140
2.7999999999999989
141
0.0
142
0.0
143
0.0393701
144
1.0
145
0.0
146
0.71
147
1.5
 71
     0
 72
     0
 73
     0
 74
     0
 75
     0
 76
     0
 77
     3
 78
     8
170
     0
171
     2
172
     1
173
     0
174
     0
175
     0
176
   256
177
   256
178
    40
  0
DIMSTYLE
  2
TECHNICAL_OSAKA$3
 70
     0
  3

  4
"
  5
OPEN30
  6

  7

 40
1.0
 41
2.5
 42
1.0
 43
10.0
 44
1.0
 45
0.0
 46
0.0
 47
0.1
 48
0.1
140
2.7999999999999989
141
0.0
142
0.0
143
0.0393701
144
1.0
145
0.0
146
0.71
147
1.5
 71
     0
 72
     0
 73
     0
 74
     1
 75
     0
 76
     0
 77
     3
 78
     8
170
     0
171
     2
172
     0
173
     0
174
     0
175
     0
176
   256
177
   256
178
    40
  0
DIMSTYLE
  2
TECHNICAL_OSAKA$4
 70
     0
  3

  4
"
  5
OPEN30
  6

  7

 40
1.0
 41
2.5
 42
1.0
 43
10.0
 44
1.0
 45
0.0
 46
0.0
 47
0.1
 48
0.1
140
2.7999999999999989
141
0.0
142
0.0
143
0.0393701
144
1.0
145
0.0
146
0.71
147
1.5
 71
     0
 72
     0
 73
     0
 74
     1
 75
     0
 76
     0
 77
     3
 78
     8
170
     0
171
     2
172
     0
173
     0
174
     0
175
     0
176
   256
177
   256
178
    40
  0
DIMSTYLE
  2
TECHNICAL_OSAKA$6
 70
     0
  3

  4
"
  5
OPEN30
  6

  7

 40
1.0
 41
2.5
 42
1.0
 43
10.0
 44
1.0
 45
0.0
 46
0.0
 47
0.1
 48
0.1
140
2.7999999999999989
141
0.0
142
0.0
143
0.0393701
144
1.0
145
0.0
146
0.71
147
1.5
 71
     0
 72
     0
 73
     0
 74
     0
 75
     0
 76
     0
 77
     0
 78
     8
170
     0
171
     2
172
     1
173
     0
174
     0
175
     0
176
   256
177
   256
178
    40
  0
DIMSTYLE
  2
TECHNICAL_OSAKA$7
 70
     0
  3

  4
"
  5
OPEN30
  6

  7

 40
1.0
 41
2.5
 42
1.0
 43
10.0
 44
1.0
 45
0.0
 46
0.0
 47
0.1
 48
0.1
140
2.7999999999999989
141
0.0
142
0.0
143
0.0393701
144
1.0
145
0.0
146
0.71
147
1.5
 71
     0
 72
     0
 73
     0
 74
     0
 75
     0
 76
     0
 77
     3
 78
     8
170
     0
171
     2
172
     1
173
     0
174
     0
175
     0
176
   256
177
   256
178
    40
  0
DIMSTYLE
  2
TECHNICAL_OSAKA$SF
 70
     0
  3

  4
"
  5
OPEN30
  6
OPEN30
  7
OPEN30
 40
1.0
 41
2.5
 42
1.0
 43
10.0
 44
1.0
 45
0.0
 46
0.0
 47
0.1
 48
0.1
140
3.5
141
0.0
142
0.0
143
0.0393701
144
1.0
145
0.0
146
0.71
147
1.5
 71
     0
 72
     0
 73
     0
 74
     0
 75
     1
 76
     1
 77
     3
 78
     8
170
     0
171
     2
172
     1
173
     0
174
     0
175
     0
176
   256
177
   256
178
    40
  0
DIMSTYLE
  2
TECHNICAL_OSAKA$SH
 70
     0
  3

  4
"
  5
OPEN30
  6
GENAXEH
  7
OPEN30
 40
1.0
 41
2.5
 42
1.0
 43
10.0
 44
1.0
 45
0.0
 46
0.0
 47
0.1
 48
0.1
140
3.5
141
0.0
142
0.0
143
0.0393701
144
2.0
145
0.0
146
0.71
147
1.5
 71
     0
 72
     0
 73
     0
 74
     0
 75
     1
 76
     1
 77
     3
 78
     8
170
     0
171
     2
172
     1
173
     1
174
     0
175
     0
176
   256
177
   256
178
    40
  0
ENDTAB
  0
ENDSEC
  0
SECTION
  2
BLOCKS
  0
BLOCK
  8
0
  2
$MODEL_SPACE
 70
     0
 10
0.0
 20
0.0
 30
0.0
  3
$MODEL_SPACE
  1

  0
ENDBLK
  5
1C
  8
0
  0
BLOCK
 67
     1
  8
0
  2
$PAPER_SPACE
 70
     0
 10
0.0
 20
0.0
 30
0.0
  3
$PAPER_SPACE
  1

  0
ENDBLK
  5
19
 67
     1
  8
0
  0
BLOCK
  8
0
  2
_OPEN
 70
     0
 10
0.0
 20
0.0
 30
0.0
  3
_OPEN
  1

  0
LINE
  5
595
  8
0
  6
BYBLOCK
 62
     0
 10
-1.0
 20
0.1666666666666666
 30
0.0
 11
0.0
 21
0.0
 31
0.0
  0
LINE
  5
596
  8
0
  6
BYBLOCK
 62
     0
 10
-1.0
 20
-0.1666666666666666
 30
0.0
 11
0.0
 21
0.0
 31
0.0
  0
LINE
  5
597
  8
0
  6
BYBLOCK
 62
     0
 10
0.0
 20
0.0
 30
0.0
 11
-1.0
 21
0.0
 31
0.0
  0
ENDBLK
  5
599
  8
0
  0
BLOCK
  8
0
  2
GENAXEH
 70
     0
 10
0.0
 20
0.0
 30
0.0
  3
GENAXEH
  1

  0
LINE
  5
6E8
  8
0
 10
-1.0
 20
0.0
 30
0.0
 11
1.0
 21
0.0
 31
0.0
  0
ENDBLK
  5
6EA
  8
0
  0
BLOCK
  8
0
  2
_OPEN30
 70
     0
 10
0.0
 20
0.0
 30
0.0
  3
_OPEN30
  1

  0
LINE
  5
E8F
  8
0
  6
BYBLOCK
 62
     0
 10
-1.0
 20
0.26794919
 30
0.0
 11
0.0
 21
0.0
 31
0.0
  0
LINE
  5
E90
  8
0
  6
BYBLOCK
 62
     0
 10
0.0
 20
0.0
 30
0.0
 11
-1.0
 21
-0.26794919
 31
0.0
  0
LINE
  5
E91
  8
0
  6
BYBLOCK
 62
     0
 10
0.0
 20
0.0
 30
0.0
 11
-1.0
 21
0.0
 31
0.0
  0
ENDBLK
  5
E93
  8
0
  0
BLOCK
  8
0
  2
*X29
 70
     1
 10
0.0
 20
0.0
 30
0.0
  3
*X29
  1

  0
LINE
  5
16DC
  8
0
 62
     0
 10
4.2731626460786947
 20
-5.8571670211471272
 30
0.0
 11
3.510115154589633
 21
-5.094119529658065
 31
0.0
  0
LINE
  5
16DD
  8
0
 62
     0
 10
3.4940719416106631
 20
-5.336707692965879
 30
0.0
 11
3.1883917659254011
 21
-5.03102751728062
 31
0.0
  0
LINE
  5
16DE
  8
0
 62
     0
 10
4.3362546584561468
 20
-6.1788904098113662
 30
0.0
 11
4.0305744827708789
 21
-5.8732102341260974
 31
0.0
  0
LINE
  5
16DF
  8
0
 62
     0
 10
3.1614668723394019
 20
-5.2627339999814282
 30
0.0
 11
2.9403393877385029
 21
-5.0416065153805292
 31
0.0
  0
LINE
  5
16E0
  8
0
 62
     0
 10
4.3383903626899851
 20
-6.4396574903320092
 30
0.0
 11
4.1045481757553324
 21
-6.2058153033973582
 31
0.0
  0
LINE
  5
16E1
  8
0
 62
     0
 10
2.9211994892945921
 20
-5.281097993223403
 30
0.0
 11
2.7312050109658861
 21
-5.091103514894697
 31
0.0
  0
LINE
  5
16E2
  8
0
 62
     0
 10
4.338390362689978
 20
-6.6982888666187881
 30
0.0
 11
4.1055856811814859
 21
-6.4654841851102969
 31
0.0
  0
LINE
  5
16E3
  8
0
 62
     0
 10
2.7241461983551201
 20
-5.342676078570725
 30
0.0
 11
2.549611000613679
 21
-5.1681408808292844
 31
0.0
  0
LINE
  5
16E4
  8
0
 62
     0
 10
4.338390362689978
 20
-6.9569202429055821
 30
0.0
 11
4.1055856811814859
 21
-6.7241155613970891
 31
0.0
  0
LINE
  5
16E5
  8
0
 62
     0
 10
2.5574155323842751
 20
-5.4345767888866652
 30
0.0
 11
2.3904879894348241
 21
-5.2676492459372142
 31
0.0
  0
LINE
  5
16E6
  8
0
 62
     0
 10
4.3383903626899851
 20
-7.2155516191923743
 30
0.0
 11
4.1055856811814859
 21
-6.982746937683876
 31
0.0
  0
LINE
  5
16E7
  8
0
 62
     0
 10
2.4161255819181511
 20
-5.5519182147073352
 30
0.0
 11
2.2515077835827939
 21
-5.3873004163719713
 31
0.0
  0
LINE
  5
16E8
  8
0
 62
     0
 10
4.3383903626899851
 20
-7.4741829954791612
 30
0.0
 11
4.105585681181493
 21
-7.2413783139706691
 31
0.0
  0
LINE
  5
16E9
  8
0
 62
     0
 10
2.2989457159389901
 20
-5.6933697250149731
 30
0.0
 11
2.1319866093836382
 21
-5.5264106184596198
 31
0.0
  0
LINE
  5
16EA
  8
0
 62
     0
 10
4.3383903626899851
 20
-7.7328143717659659
 30
0.0
 11
4.1055856811814788
 21
-7.5000096902574631
 31
0.0
  0
LINE
  5
16EB
  8
0
 62
     0
 10
2.2072252078153962
 20
-5.8602805931781683
 30
0.0
 11
2.0326176602498318
 21
-5.6856730456126021
 31
0.0
  0
LINE
  5
16EC
  8
0
 62
     0
 10
4.338390362689978
 20
-7.9914457480527474
 30
0.0
 11
4.1055856811814859
 21
-7.758641066544258
 31
0.0
  0
LINE
  5
16ED
  8
0
 62
     0
 10
2.1458777492053529
 20
-6.0575645108549079
 30
0.0
 11
1.955742399326019
 21
-5.8674291609755747
 31
0.0
  0
LINE
  5
16EE
  8
0
 62
     0
 10
4.338390362689978
 20
-8.2500771243395334
 30
0.0
 11
4.1055856811814859
 21
-8.0172724428310431
 31
0.0
  0
LINE
  5
16EF
  8
0
 62
     0
 10
2.127884606905837
 20
-6.298202744842186
 30
0.0
 11
1.9064556573934921
 21
-6.0767737953298484
 31
0.0
  0
LINE
  5
16F0
  8
0
 62
     0
 10
4.3383903626899851
 20
-8.5087085006263337
 30
0.0
 11
4.1055856811814859
 21
-8.2759038191178362
 31
0.0
  0
LINE
  5
16F1
  8
0
 62
     0
 10
2.0859571237484991
 20
-6.5149066379716469
 30
0.0
 11
1.896203437136684
 21
-6.325152951359831
 31
0.0
  0
LINE
  5
16F2
  8
0
 62
     0
 10
4.338390362689978
 20
-8.7673398769131268
 30
0.0
 11
4.1055856811814859
 21
-8.5345351954046365
 31
0.0
  0
LINE
  5
16F3
  8
0
 62
     0
 10
4.338390362689978
 20
-9.0259712531999217
 30
0.0
 11
4.1055856811814859
 21
-8.7931665716914225
 31
0.0
  0
LINE
  5
16F4
  8
0
 62
     0
 10
4.338390362689978
 20
-9.2846026294867041
 30
0.0
 11
4.1055856811814859
 21
-9.0517979479782156
 31
0.0
  0
LINE
  5
16F5
  8
0
 62
     0
 10
4.338390362689978
 20
-9.5432340057735008
 30
0.0
 11
4.1055856811814859
 21
-9.3104293242649998
 31
0.0
  0
LINE
  5
16F6
  8
0
 62
     0
 10
4.3383903626899851
 20
-9.8018653820602903
 30
0.0
 11
4.1055856811814859
 21
-9.5690607005517911
 31
0.0
  0
LINE
  5
16F7
  8
0
 62
     0
 10
4.3383903626899851
 20
-10.06049675834708
 30
0.0
 11
4.105585681181493
 21
-9.8276920768385896
 31
0.0
  0
LINE
  5
16F8
  8
0
 62
     0
 10
4.338390362689978
 20
-10.31912813463388
 30
0.0
 11
4.1055856811814859
 21
-10.086323453125379
 31
0.0
  0
LINE
  5
16F9
  8
0
 62
     0
 10
4.338390362689978
 20
-10.577759510920661
 30
0.0
 11
4.1055856811814859
 21
-10.34495482941217
 31
0.0
  0
LINE
  5
16FA
  8
0
 62
     0
 10
4.338390362689978
 20
-10.836390887207459
 30
0.0
 11
4.1055856811814859
 21
-10.60358620569896
 31
0.0
  0
LINE
  5
16FB
  8
0
 62
     0
 10
4.3331743680063184
 20
-11.08980626881058
 30
0.0
 11
4.1055856811814859
 21
-10.862217581985741
 31
0.0
  0
LINE
  5
16FC
  8
0
 62
     0
 10
4.2927234683474307
 20
-11.30798674543848
 30
0.0
 11
4.0963826280125399
 21
-11.11164590510359
 31
0.0
  0
LINE
  5
16FD
  8
0
 62
     0
 10
4.2225300722551111
 20
-11.496424725632959
 30
0.0
 11
4.0447379717610357
 21
-11.31863262513888
 31
0.0
  0
LINE
  5
16FE
  8
0
 62
     0
 10
4.1288343457024572
 20
-11.661360375367099
 30
0.0
 11
3.9604188359354979
 21
-11.492944865600141
 31
0.0
  0
LINE
  5
16FF
  8
0
 62
     0
 10
4.0145495478446014
 20
-11.80570695379603
 30
0.0
 11
3.8497662771754819
 21
-11.640923683126911
 31
0.0
  0
LINE
  5
1700
  8
0
 62
     0
 10
3.8807570971703012
 20
-11.93054587940852
 30
0.0
 11
3.7149104705198961
 21
-11.76469925275811
 31
0.0
  0
LINE
  5
1701
  8
0
 62
     0
 10
3.7271431977453049
 20
-12.03556335627032
 30
0.0
 11
3.555244829520197
 21
-11.86366498804521
 31
0.0
  0
LINE
  5
1702
  8
0
 62
     0
 10
2.1267631408982761
 20
-10.69381467571009
 30
0.0
 11
1.9433546960822801
 21
-10.51040623089408
 31
0.0
  0
LINE
  5
1703
  8
0
 62
     0
 10
3.551878254361716
 20
-12.11892978917353
 30
0.0
 11
3.367040741413724
 21
-11.93409227622552
 31
0.0
  0
LINE
  5
1704
  8
0
 62
     0
 10
2.1267631408982761
 20
-10.95244605199688
 30
0.0
 11
1.8939584533982821
 21
-10.719641364496891
 31
0.0
  0
LINE
  5
1705
  8
0
 62
     0
 10
3.3508120748548631
 20
-12.17649498595347
 30
0.0
 11
3.1404436980890349
 21
-11.96612660918764
 31
0.0
  0
LINE
  5
1706
  8
0
 62
     0
 10
2.1649602340683511
 20
-11.24927452145374
 30
0.0
 11
1.8939591030962699
 21
-10.978273390481659
 31
0.0
  0
LINE
  5
1707
  8
0
 62
     0
 10
3.1149140586925621
 20
-12.19922834607795
 30
0.0
 11
2.84391292772048
 21
-11.928227215105871
 31
0.0
  0
LINE
  5
1708
  8
0
 62
     0
 10
2.819806896892358
 20
-12.162752560564529
 30
0.0
 11
1.930434888609696
 21
-11.27338055228187
 31
0.0
  0
ENDBLK
  5
1709
  8
0
  0
BLOCK
  8
0
  2
*X30
 70
     1
 10
0.0
 20
0.0
 30
0.0
  3
*X30
  1

  0
LINE
  5
170C
  8
0
 62
     0
 10
3.9891833374314549
 20
-8.6767642279413906
 30
0.0
 11
3.9699999022341199
 21
-8.6575807927440565
 31
0.0
  0
LINE
  5
170D
  8
0
 62
     0
 10
3.9891833374314549
 20
-8.9353956042281801
 30
0.0
 11
3.6073930521298849
 21
-8.5536053189266141
 31
0.0
  0
LINE
  5
170E
  8
0
 62
     0
 10
3.9748178468112911
 20
-9.179661489894805
 30
0.0
 11
3.2447862020256362
 21
-8.4496298451091505
 31
0.0
  0
LINE
  5
170F
  8
0
 62
     0
 10
3.61220957775957
 20
-9.0756845971298841
 30
0.0
 11
2.8821793519213941
 21
-8.3456543712917011
 31
0.0
  0
LINE
  5
1710
  8
0
 62
     0
 10
3.249601308707851
 20
-8.9717077043649454
 30
0.0
 11
2.5195725018171511
 21
-8.2416788974742428
 31
0.0
  0
LINE
  5
1711
  8
0
 62
     0
 10
2.886993039656117
 20
-8.8677308116000102
 30
0.0
 11
2.1569656517129001
 21
-8.1377034236567951
 31
0.0
  0
LINE
  5
1712
  8
0
 62
     0
 10
2.5243847706043909
 20
-8.7637539188350786
 30
0.0
 11
1.8939584533982821
 21
-8.1333276016289702
 31
0.0
  0
LINE
  5
1713
  8
0
 62
     0
 10
2.1617765015526582
 20
-8.659777026070131
 30
0.0
 11
1.8939584533982901
 21
-8.3919589779157633
 31
0.0
  0
LINE
  5
1714
  8
0
 62
     0
 10
1.918015068738405
 20
-8.674646969542664
 30
0.0
 11
1.8939584533982821
 21
-8.6505903542025422
 31
0.0
  0
ENDBLK
  5
1715
  8
0
  0
BLOCK
  8
0
  2
*X31
 70
     1
 10
0.0
 20
0.0
 30
0.0
  3
*X31
  1

  0
LINE
  5
1718
  8
0
 62
     0
 10
3.8682112041804739
 20
-7.0040038369696571
 30
0.0
 11
3.6499603235052889
 21
-6.7857529562944654
 31
0.0
  0
LINE
  5
1719
  8
0
 62
     0
 10
3.9856529491582999
 20
-7.380076958234282
 30
0.0
 11
3.2873524678243831
 21
-6.6817764769003682
 31
0.0
  0
LINE
  5
171A
  8
0
 62
     0
 10
3.617185728354428
 20
-7.2702411137172032
 30
0.0
 11
2.924744612143483
 21
-6.5777999975062542
 31
0.0
  0
LINE
  5
171B
  8
0
 62
     0
 10
3.9698966386926511
 20
-7.6229520240554223
 30
0.0
 11
3.6965801245195551
 21
-7.3496355098823241
 31
0.0
  0
LINE
  5
171C
  8
0
 62
     0
 10
3.2412377906756031
 20
-7.1529245523251603
 30
0.0
 11
2.8018861877732841
 21
-6.7135729494228391
 31
0.0
  0
LINE
  5
171D
  8
0
 62
     0
 10
3.8992580266775061
 20
-7.8109447883270624
 30
0.0
 11
3.6959786603753511
 21
-7.6076654220249154
 31
0.0
  0
LINE
  5
171E
  8
0
 62
     0
 10
3.034690875273276
 20
-7.2050090132096241
 30
0.0
 11
2.8018861877732761
 21
-6.9722043257096251
 31
0.0
  0
LINE
  5
171F
  8
0
 62
     0
 10
3.792131315773708
 20
-7.9624494537100619
 30
0.0
 11
3.5455738235496881
 21
-7.715891961486034
 31
0.0
  0
LINE
  5
1720
  8
0
 62
     0
 10
2.2029885065044099
 20
-6.6319380207275591
 30
0.0
 11
2.1787499076577741
 21
-6.6076994218809233
 31
0.0
  0
LINE
  5
1721
  8
0
 62
     0
 10
3.6531656331833759
 20
-8.082115147406526
 30
0.0
 11
3.2290805876554312
 21
-7.6580301018785786
 31
0.0
  0
LINE
  5
1722
  8
0
 62
     0
 10
2.2677871082174681
 20
-6.9553679987274011
 30
0.0
 11
1.982121972154764
 21
-6.6697028626646979
 31
0.0
  0
LINE
  5
1723
  8
0
 62
     0
 10
3.4804499382598579
 20
-8.168030828769794
 30
0.0
 11
2.8664723785437469
 21
-7.5540532690536812
 31
0.0
  0
LINE
  5
1724
  8
0
 62
     0
 10
2.1576583608831101
 20
-7.1038706276798393
 30
0.0
 11
1.98333579740042
 21
-6.9295480641971476
 31
0.0
  0
LINE
  5
1725
  8
0
 62
     0
 10
3.262962952369413
 20
-8.2091752191661413
 30
0.0
 11
2.5038641694320689
 21
-7.4500764362287981
 31
0.0
  0
LINE
  5
1726
  8
0
 62
     0
 10
2.9676848492862362
 20
-8.1725284923697501
 30
0.0
 11
1.912955328823172
 21
-7.1177989719066872
 31
0.0
  0
LINE
  5
1727
  8
0
 62
     0
 10
2.6231897125881769
 20
-8.0866647319584857
 30
0.0
 11
1.8976699797883041
 21
-7.3611449991586113
 31
0.0
  0
ENDBLK
  5
1728
  8
0
  0
BLOCK
  8
0
  2
A$C3D610D05
 70
     0
 10
0.0
 20
0.0
 30
0.0
  3
A$C3D610D05
  1

  0
TEXT
  5
172A
  8
247
 10
-157.1029612289642
 20
-12.4579863733449
 30
0.0
 40
2.0
  1
ST32-C3242-45B-65
 41
0.7
  7
YOKO
 11
-157.1029612289642
 21
-12.4579863733449
 31
0.0
 73
     1
  0
INSERT
  5
172B
  8
247
  6
CONTINUOUS
  2
*X29
 10
-153.10296122896401
 20
-8.4163847345791574
 30
0.0
 50
270.0
1001
ACAD
1000
HATCH
1002
{
1070
    19
1000
ANSI31
1040
0.0576
1040
6.2831853071795853
1002
}
  0
INSERT
  5
172C
  8
247
  6
CONTINUOUS
  2
*X30
 10
-153.10296122896401
 20
-8.4163847345791574
 30
0.0
 50
270.0
1001
ACAD
1000
HATCH
1002
{
1070
    19
1000
ANSI31
1040
0.0576
1040
6.2831853071795853
1002
}
  0
INSERT
  5
172D
  8
247
  6
CONTINUOUS
  2
*X31
 10
-153.10296122896401
 20
-8.4163847345791574
 30
0.0
 50
270.0
1001
ACAD
1000
HATCH
1002
{
1070
    19
1000
ANSI31
1040
0.0576
1040
6.2831853071795853
1002
}
  0
LINE
  5
172E
  8
247
 10
-161.77070975599
 20
-10.310343187977439
 30
0.0
 11
-161.16524881849
 21
-10.310343187977439
 31
0.0
  0
POLYLINE
  5
172F
  8
247
 66
     1
 10
0.0
 20
0.0
 30
0.0
 70
     1
1001
HATCH_DISTANCE
1040
1.0
1001
HATCH_DISPLAY
1070
     0
1001
HATCH_TYPE
1070
     7
  0
VERTEX
  5
1730
  8
247
 10
-161.77070975599
 20
-10.310343187977439
 30
0.0
  0
VERTEX
  5
1731
  8
247
 10
-161.84414237317739
 20
-10.566421312977431
 30
0.0
  0
VERTEX
  5
1732
  8
247
 10
-161.7593718653649
 20
-10.566421312977431
 30
0.0
  0
VERTEX
  5
1733
  8
247
 10
-162.28674198255251
 20
-12.40556807201061
 30
0.0
  0
VERTEX
  5
1734
  8
247
 10
-161.76604276380249
 20
-12.40556807201061
 30
0.0
  0
VERTEX
  5
1735
  8
247
 10
-161.16524881849
 20
-10.310343187977439
 30
0.0
  0
SEQEND
  5
1736
  8
247
  0
POLYLINE
  5
1737
  8
247
 66
     1
 10
0.0
 20
0.0
 30
0.0
 70
     1
  0
VERTEX
  5
1738
  8
247
 10
-161.77070975599
 20
-10.310343187977439
 30
0.0
  0
VERTEX
  5
1739
  8
247
 10
-161.84414237317739
 20
-10.566421312977431
 30
0.0
  0
VERTEX
  5
173A
  8
247
 10
-161.7593718653649
 20
-10.566421312977431
 30
0.0
  0
VERTEX
  5
173B
  8
247
 10
-162.28674198255251
 20
-12.40556807201061
 30
0.0
  0
VERTEX
  5
173C
  8
247
 10
-161.76604276380249
 20
-12.40556807201061
 30
0.0
  0
VERTEX
  5
173D
  8
247
 10
-161.16524881849
 20
-10.310343187977439
 30
0.0
  0
SEQEND
  5
173E
  8
247
  0
LINE
  5
173F
  8
247
 10
-161.76604276380249
 20
-12.40556807201061
 30
0.0
 11
-161.16524881849
 21
-10.310343187977439
 31
0.0
  0
LINE
  5
1740
  8
247
 10
-164.07997440442739
 20
-12.75477509726913
 30
0.0
 11
-159.35406913099001
 21
-12.75477509726913
 31
0.0
  0
LINE
  5
1741
  8
247
 10
-164.07997440442739
 20
-12.52197041576064
 30
0.0
 11
-159.35406913099001
 21
-12.52197041576064
 31
0.0
  0
ARC
  5
1742
  8
247
 10
-160.55613163099
 20
-11.64896135203993
 30
0.0
 40
0.756615234375
 50
163.99975070172931
 51
304.96387329163048
  0
ARC
  5
1743
  8
247
 10
-164.07997440442739
 20
-11.53255900828993
 30
0.0
 40
0.9894111328124999
 50
90.0
 51
270.0
  0
ARC
  5
1744
  8
247
 10
-164.07997440442739
 20
-11.53255900828993
 30
0.0
 40
1.2222158203124971
 50
90.0
 51
270.0
  0
LINE
  5
1745
  8
247
 10
-162.28674198255251
 20
-12.40556807201061
 30
0.0
 11
-161.76604276380249
 21
-12.40556807201061
 31
0.0
  0
LINE
  5
1746
  8
247
 10
-162.77061507788321
 20
-12.36193218784128
 30
0.0
 11
-162.4533541545637
 21
-12.04467126452171
 31
0.0
  0
LINE
  5
1747
  8
247
 10
-163.84877646719971
 20
-12.40556807201061
 30
0.0
 11
-163.18673557886669
 21
-11.74352718367764
 31
0.0
  0
LINE
  5
1748
  8
247
 10
-163.59014509091301
 20
-12.40556807201061
 30
0.0
 11
-163.29070637881949
 21
-12.10612935991721
 31
0.0
  0
LINE
  5
1749
  8
247
 10
-163.07288233833941
 20
-12.40556807201064
 30
0.0
 11
-162.4147226834076
 21
-11.747408417078921
 31
0.0
  0
LINE
  5
174A
  8
247
 10
-163.11129724167461
 20
-11.4804330721564
 30
0.0
 11
-163.3020812044638
 21
-12.145799503215599
 31
0.0
  0
ARC
  5
174B
  8
247
 10
-163.25144706067749
 20
-11.80028264110241
 30
0.0
 40
0.3492072715759277
 50
261.66285421114719
 51
66.338192159113575
  0
LINE
  5
174C
  8
247
 10
-163.33151371462611
 20
-12.40556807201061
 30
0.0
 11
-162.47730038481541
 21
-11.55135474219996
 31
0.0
  0
LINE
  5
174D
  8
247
 10
-163.95781522473999
 20
-12.40556807201061
 30
0.0
 11
-162.99172147473999
 21
-12.40556807201061
 31
0.0
  0
LINE
  5
174E
  8
247
 10
-163.89767532252401
 20
-12.19583555104818
 30
0.0
 11
-162.9126542884716
 21
-11.21081451699574
 31
0.0
  0
LINE
  5
174F
  8
247
 10
-163.79369916507611
 20
-11.833228017313489
 30
0.0
 11
-162.9787826562046
 21
-11.018311508441871
 31
0.0
  0
ARC
  5
1750
  8
247
 10
-162.99172147473999
 20
-11.823564867664951
 30
0.0
 40
0.5820029296875
 50
270.0
 51
40.329840654167192
  0
LINE
  5
1751
  8
247
 10
-162.91029367518931
 20
-11.72571665628705
 30
0.0
 11
-162.14691728407399
 21
-10.96234026517171
 31
0.0
  0
LINE
  5
1752
  8
247
 10
-161.84414237317739
 20
-10.566421312977431
 30
0.0
 11
-161.77070975599
 21
-10.310343187977439
 31
0.0
  0
LINE
  5
1753
  8
247
 10
-161.84414237317739
 20
-10.566421312977431
 30
0.0
 11
-161.7593718653649
 21
-10.566421312977431
 31
0.0
  0
LINE
  5
1754
  8
247
 10
-162.7948916309453
 20
-10.57578910689581
 30
0.0
 11
-162.5547937265861
 21
-10.335691202536641
 31
0.0
  0
LINE
  5
1755
  8
247
 10
-163.53814452838731
 20
-10.543147875477491
 30
0.0
 11
-163.30533984088731
 21
-10.310343187977489
 31
0.0
  0
LINE
  5
1756
  8
247
 10
-163.59920389661499
 20
-10.310343187977439
 30
0.0
 11
-163.66595682630239
 21
-10.54314787547743
 31
0.0
  0
LINE
  5
1757
  8
247
 10
-163.47811698255231
 20
-10.310343187977439
 30
0.0
 11
-163.54486991224019
 21
-10.54314787547743
 31
0.0
  0
LINE
  5
1758
  8
247
 10
-163.47811698255231
 20
-10.310343187977439
 30
0.0
 11
-162.7270998608746
 21
-10.310343187977519
 31
0.0
  0
LINE
  5
1759
  8
247
 10
-164.07997440442739
 20
-10.310343187977439
 30
0.0
 11
-163.59920389661499
 21
-10.310343187977439
 31
0.0
  0
LINE
  5
175A
  8
247
 10
-162.67252366718341
 20
-10.712052519420769
 30
0.0
 11
-162.3822334270223
 21
-10.421762279259619
 31
0.0
  0
LINE
  5
175B
  8
247
 10
-163.54486991224019
 20
-10.54314787547743
 30
0.0
 11
-163.42377420911521
 21
-10.543147875478169
 31
0.0
  0
LINE
  5
175C
  8
247
 10
-164.07997440442739
 20
-10.54314787547743
 30
0.0
 11
-163.66595682630239
 21
-10.54314787547743
 31
0.0
  0
LINE
  5
175D
  8
247
 10
-163.4817706927324
 20
-10.74540541610931
 30
0.0
 11
-163.0467084646005
 21
-10.310343187977489
 31
0.0
  0
LINE
  5
175E
  8
247
 10
-162.64268471603421
 20
-10.94084494455832
 30
0.0
 11
-162.25310854638349
 21
-10.5512687749076
 31
0.0
  0
ARC
  5
175F
  8
247
 10
-162.72470096692749
 20
-10.89234611766493
 30
0.0
 40
0.5820078735351563
 50
287.66957754739968
 51
90.236159842671626
  0
LINE
  5
1760
  8
247
 10
-163.5857468501803
 20
-11.108012949844049
 30
0.0
 11
-162.7880770883138
 21
-10.310343187977519
 31
0.0
  0
LINE
  5
1761
  8
247
 10
-163.0005742638499
 20
-11.557365868660879
 30
0.0
 11
-162.1674876404133
 21
-10.724279245224251
 31
0.0
  0
LINE
  5
1762
  8
247
 10
-162.28674198255251
 20
-12.40556807201061
 30
0.0
 11
-161.7593718653649
 21
-10.566421312977431
 31
0.0
  0
LINE
  5
1763
  8
247
 10
-162.8442795124287
 20
-10.54923280142315
 30
0.0
 11
-163.0350603366322
 21
-11.21457949763469
 31
0.0
  0
ARC
  5
1764
  8
247
 10
-162.98442655286499
 20
-10.86907268016496
 30
0.0
 40
0.349197280883789
 50
261.6626016879294
 51
66.338155095189776
  0
LINE
  5
1765
  8
247
 10
-163.6897230076282
 20
-11.47062048357874
 30
0.0
 11
-162.8748099307237
 21
-10.655707406674271
 31
0.0
  0
LINE
  5
1766
  8
247
 10
-163.95781522473999
 20
-12.40556807201061
 30
0.0
 11
-163.42377420911521
 21
-10.543147875478169
 31
0.0
  0
ARC
  5
1767
  8
247
 10
-159.35406913099001
 20
-11.53255900828994
 30
0.0
 40
1.2222158203124971
 50
270.0
 51
104.7707939660925
  0
ARC
  5
1768
  8
247
 10
-159.35406913099001
 20
-11.53255900828994
 30
0.0
 40
0.9894111328124999
 50
270.0
 51
104.1274364964103
  0
LINE
  5
1769
  8
247
 10
-160.34615213880249
 20
-11.97241643016493
 30
0.0
 11
-160.19665897473999
 21
-11.451075609852429
 31
0.0
  0
LINE
  5
176A
  8
247
 10
-160.39040506849
 20
-11.451075609852429
 30
0.0
 11
-160.19665897473999
 21
-11.451075609852429
 31
0.0
  0
LINE
  5
176B
  8
247
 10
-160.12254959974001
 20
-12.269012407948161
 30
0.0
 11
-159.98598514661501
 21
-12.40556807201061
 31
0.0
  0
LINE
  5
176C
  8
247
 10
-160.39040506849
 20
-11.451075609852429
 30
0.0
 11
-160.32365213880249
 21
-11.21827092235243
 31
0.0
  0
LINE
  5
176D
  8
247
 10
-160.32365213880249
 20
-11.21827092235243
 30
0.0
 11
-159.645532021615
 21
-11.21827092235243
 31
0.0
  0
LINE
  5
176E
  8
247
 10
-159.98598514661501
 20
-12.40556807201061
 30
0.0
 11
-159.645532021615
 21
-11.21827092235243
 31
0.0
  0
POLYLINE
  5
176F
  8
247
 66
     1
 10
0.0
 20
0.0
 30
0.0
 70
     1
1001
HATCH_DISTANCE
1040
1.0
1001
HATCH_DISPLAY
1070
     0
1001
HATCH_TYPE
1070
     7
  0
VERTEX
  5
1770
  8
247
 10
-159.59556620130249
 20
-10.573065844227431
 30
0.0
  0
VERTEX
  5
1771
  8
247
 10
-159.66567655286499
 20
-10.35072893016495
 30
0.0
  0
VERTEX
  5
1772
  8
247
 10
-159.66567655286499
 20
-10.35072893016495
 30
0.0
  0
VERTEX
  5
1773
  8
247
 10
-159.59556620130249
 20
-10.573065844227431
 30
0.0
  0
SEQEND
  5
1774
  8
247
  0
POLYLINE
  5
1775
  8
247
 66
     1
 10
0.0
 20
0.0
 30
0.0
 70
     1
  0
VERTEX
  5
1776
  8
247
 10
-159.59556620130249
 20
-10.573065844227431
 30
0.0
  0
VERTEX
  5
1777
  8
247
 10
-159.66567655286499
 20
-10.35072893016495
 30
0.0
  0
VERTEX
  5
1778
  8
247
 10
-159.66567655286499
 20
-10.35072893016495
 30
0.0
  0
VERTEX
  5
1779
  8
247
 10
-159.59556620130249
 20
-10.573065844227431
 30
0.0
  0
SEQEND
  5
177A
  8
247
  0
LINE
  5
177B
  8
247
 10
-159.59556620130249
 20
-10.573065844227431
 30
0.0
 11
-159.66567655286499
 21
-10.35072893016495
 31
0.0
  0
POLYLINE
  5
177C
  8
247
 66
     1
 10
0.0
 20
0.0
 30
0.0
 70
     1
1001
HATCH_DISTANCE
1040
1.0
1001
HATCH_DISPLAY
1070
     0
1001
HATCH_TYPE
1070
     7
  0
VERTEX
  5
177D
  8
247
 10
-159.59556620130249
 20
-10.573065844227431
 30
0.0
  0
VERTEX
  5
177E
  8
247
 10
-159.66567655286499
 20
-10.35072893016495
 30
0.0
  0
VERTEX
  5
177F
  8
247
 10
-159.66567655286499
 20
-10.35072893016495
 30
0.0
  0
VERTEX
  5
1780
  8
247
 10
-159.59556620130249
 20
-10.573065844227431
 30
0.0
  0
SEQEND
  5
1781
  8
247
  0
POLYLINE
  5
1782
  8
247
 66
     1
 10
0.0
 20
0.0
 30
0.0
 70
     1
  0
VERTEX
  5
1783
  8
247
 10
-159.59556620130249
 20
-10.573065844227431
 30
0.0
  0
VERTEX
  5
1784
  8
247
 10
-159.66567655286499
 20
-10.35072893016495
 30
0.0
  0
VERTEX
  5
1785
  8
247
 10
-159.66567655286499
 20
-10.35072893016495
 30
0.0
  0
VERTEX
  5
1786
  8
247
 10
-159.59556620130249
 20
-10.573065844227431
 30
0.0
  0
SEQEND
  5
1787
  8
247
  0
LINE
  5
1788
  8
247
 10
-159.70658084973999
 20
-10.608072680164939
 30
0.0
 11
-159.7766912013025
 21
-10.3857357661024
 31
0.0
  0
ARC
  5
1789
  8
247
 10
-159.35406913099001
 20
-11.53255900828994
 30
0.0
 40
1.222216369628905
 50
110.22964506332001
 51
118.57168892371671
  0
ARC
  5
178A
  8
247
 10
-160.26737577161501
 20
-10.81087150828994
 30
0.0
 40
0.2444448051452637
 50
1.7101213820627319
 51
163.9983983544472
  0
ARC
  5
178B
  8
247
 10
-159.35406913099001
 20
-11.53255900828994
 30
0.0
 40
0.9894138793945311
 50
110.8721834020737
 51
132.5419489373875
  0
ARC
  5
178C
  8
247
 10
-159.31910624036499
 20
-11.68874064891493
 30
0.0
 40
1.9799648437499999
 50
155.2051773698407
 51
172.79482596205219
  0
ARC
  5
178D
  8
247
 10
-160.58112772474001
 20
-11.905039477039949
 30
0.0
 40
0.2444446334838867
 50
164.00027305718231
 51
344.00027305718243
  0
LINE
  5
178E
  8
247
 10
-160.81610331067751
 20
-11.83766252391494
 30
0.0
 11
-160.5023513575525
 21
-10.74348576610244
 31
0.0
  0
ARC
  5
178F
  8
247
 10
-160.38924491224
 20
-11.066949633289919
 30
0.0
 40
0.7566075439453125
 50
53.444012197057539
 51
164.00018438768529
  0
LINE
  5
1790
  8
245
 10
2.825787610379848
 20
0.0
 30
0.0
 11
-178.9661619507381
 21
0.0000000000000568
 31
0.0
  0
ARC
  5
1791
  8
240
 10
-173.1639610415325
 20
13.999999240040831
 30
0.0
 40
2.0
 50
90.0
 51
180.0
  0
ARC
  5
1792
  8
240
 10
-173.1639610415325
 20
-14.00000075995916
 30
0.0
 40
2.0
 50
180.0
 51
270.0
  0
LINE
  5
1793
  8
240
 10
-175.16396788414571
 20
-14.000001192092871
 30
0.0
 11
-175.16396788414571
 21
13.99999967217448
 31
0.0
  0
LINE
  5
1794
  8
241
 10
-12.56396788414577
 20
14.062218928337099
 30
0.0
 11
-12.56396788414577
 21
1.679999226704268
 31
0.0
  0
LINE
  5
1795
  8
241
 10
-64.749747479159396
 20
15.29999924004076
 30
0.0
 11
-64.749747479159396
 21
-15.3000007599592
 31
0.0
  0
LINE
  5
1796
  8
240
 10
-0.4639610415324569
 20
13.7622115984665
 30
0.0
 11
-0.4639610415325706
 21
1.679999226690426
 31
0.0
  0
LINE
  5
1797
  8
241
 10
-65.863962746225283
 20
-16.00000151991841
 30
0.0
 11
-65.863962746225283
 21
16.000000000000028
 31
0.0
  0
LINE
  5
1798
  8
240
 10
-64.749747044406831
 20
-15.300000846385929
 30
0.0
 11
-13.61615711357444
 21
-15.300000846385929
 31
0.0
  0
LINE
  5
1799
  8
240
 10
-173.16396383102989
 20
-16.00000151991841
 30
0.0
 11
-65.863962746225283
 21
-16.00000151991841
 31
0.0
  0
LINE
  5
179A
  8
240
 10
-65.863962746225283
 20
-16.00000151991841
 30
0.0
 11
-65.456855571828783
 21
-15.5928943455219
 31
0.0
  0
ARC
  5
179B
  8
240
 10
-64.749747479159396
 20
-16.3000007599592
 30
0.0
 40
1.0
 50
90.0
 51
135.0
  0
LINE
  5
179C
  8
241
 10
-7.129546138457953
 20
-1.5000007729977081
 30
0.0
 11
-12.66944350209087
 21
-1.5000007729977081
 31
0.0
  0
POLYLINE
  5
179D
  8
241
 66
     1
 10
0.0
 20
0.0
 30
0.0
 70
   128
  0
VERTEX
  5
1874
  8
241
 10
-12.56396788414588
 20
-15.20823833646473
 30
0.0
  0
VERTEX
  5
1875
  8
241
 10
-8.2523765740916133
 20
-19.539494827389689
 30
0.0
  0
VERTEX
  5
1876
  8
241
 10
-6.9639611756429067
 20
-20.832369863986941
 30
0.0
  0
SEQEND
  5
1877
  8
241
  0
LINE
  5
179E
  8
240
 10
-7.129546138457953
 20
-21.23165765404698
 30
0.0
 11
-12.669343540054509
 21
-15.69185978679754
 31
0.0
  0
LINE
  5
179F
  8
241
 10
-12.56396788414594
 20
-15.207486055791311
 30
0.0
 11
-12.563967884145599
 21
-1.5000007729977081
 31
0.0
  0
LINE
  5
17A0
  8
240
 10
-13.493556878529491
 20
-15.20748605579135
 30
0.0
 11
-12.72792217787366
 21
-15.207486055791319
 31
0.0
  0
POLYLINE
  5
17A1
  8
240
 66
     1
 10
0.0
 20
0.0
 30
0.0
 70
   128
  0
VERTEX
  5
1878
  8
240
 10
-13.493556878529491
 20
-15.20748605579135
 30
0.0
  0
VERTEX
  5
1879
  8
240
 10
-13.53877724613994
 20
-15.25270549207923
 30
0.0
  0
VERTEX
  5
187A
  8
240
 10
-13.5689809685573
 20
-15.282910145819161
 30
0.0
  0
VERTEX
  5
187B
  8
240
 10
-13.584140106104311
 20
-15.2980683520436
 30
0.0
  0
SEQEND
  5
187C
  8
240
  0
POLYLINE
  5
17A2
  8
240
 10
-13.616156796879737
 20
-15.300000759959007
 30
0.0
 66
     1
 70
     8
  0
VERTEX
  8
240
  5
1886
 10
-13.6162
 20
-15.3000
 30
0.000000
  70
    32
  0
VERTEX
  8
240
  5
1887
 10
-13.6159
 20
-15.3000
 30
0.000000
  70
    32
  0
VERTEX
  8
240
  5
1888
 10
-13.6157
 20
-15.3000
 30
0.000000
  70
    32
  0
VERTEX
  8
240
  5
1889
 10
-13.6155
 20
-15.3000
 30
0.000000
  70
    32
  0
VERTEX
  8
240
  5
188A
 10
-13.6152
 20
-15.3000
 30
0.000000
  70
    32
  0
VERTEX
  8
240
  5
188B
 10
-13.6150
 20
-15.3000
 30
0.000000
  70
    32
  0
VERTEX
  8
240
  5
188C
 10
-13.6147
 20
-15.3000
 30
0.000000
  70
    32
  0
VERTEX
  8
240
  5
188D
 10
-13.6145
 20
-15.3000
 30
0.000000
  70
    32
  0
VERTEX
  8
240
  5
188E
 10
-13.6143
 20
-15.3000
 30
0.000000
  70
    32
  0
VERTEX
  8
240
  5
188F
 10
-13.6140
 20
-15.3000
 30
0.000000
  70
    32
  0
VERTEX
  8
240
  5
1890
 10
-13.6138
 20
-15.3000
 30
0.000000
  70
    32
  0
VERTEX
  8
240
  5
1891
 10
-13.6136
 20
-15.3000
 30
0.000000
  70
    32
  0
VERTEX
  8
240
  5
1892
 10
-13.6133
 20
-15.3000
 30
0.000000
  70
    32
  0
VERTEX
  8
240
  5
1893
 10
-13.6131
 20
-15.3000
 30
0.000000
  70
    32
  0
VERTEX
  8
240
  5
1894
 10
-13.6128
 20
-15.3000
 30
0.000000
  70
    32
  0
VERTEX
  8
240
  5
1895
 10
-13.6126
 20
-15.3000
 30
0.000000
  70
    32
  0
VERTEX
  8
240
  5
1896
 10
-13.6124
 20
-15.3000
 30
0.000000
  70
    32
  0
VERTEX
  8
240
  5
1897
 10
-13.6121
 20
-15.3000
 30
0.000000
  70
    32
  0
VERTEX
  8
240
  5
1898
 10
-13.6119
 20
-15.3000
 30
0.000000
  70
    32
  0
VERTEX
  8
240
  5
1899
 10
-13.6116
 20
-15.3000
 30
0.000000
  70
    32
  0
VERTEX
  8
240
  5
189A
 10
-13.6114
 20
-15.3000
 30
0.000000
  70
    32
  0
VERTEX
  8
240
  5
189B
 10
-13.6112
 20
-15.2999
 30
0.000000
  70
    32
  0
VERTEX
  8
240
  5
189C
 10
-13.6109
 20
-15.2999
 30
0.000000
  70
    32
  0
VERTEX
  8
240
  5
189D
 10
-13.6107
 20
-15.2999
 30
0.000000
  70
    32
  0
VERTEX
  8
240
  5
189E
 10
-13.6104
 20
-15.2999
 30
0.000000
  70
    32
  0
VERTEX
  8
240
  5
189F
 10
-13.6102
 20
-15.2999
 30
0.000000
  70
    32
  0
VERTEX
  8
240
  5
18A0
 10
-13.6100
 20
-15.2999
 30
0.000000
  70
    32
  0
VERTEX
  8
240
  5
18A1
 10
-13.6097
 20
-15.2999
 30
0.000000
  70
    32
  0
VERTEX
  8
240
  5
18A2
 10
-13.6095
 20
-15.2999
 30
0.000000
  70
    32
  0
VERTEX
  8
240
  5
18A3
 10
-13.6092
 20
-15.2999
 30
0.000000
  70
    32
  0
VERTEX
  8
240
  5
18A4
 10
-13.6090
 20
-15.2999
 30
0.000000
  70
    32
  0
VERTEX
  8
240
  5
18A5
 10
-13.6088
 20
-15.2999
 30
0.000000
  70
    32
  0
VERTEX
  8
240
  5
18A6
 10
-13.6085
 20
-15.2999
 30
0.000000
  70
    32
  0
VERTEX
  8
240
  5
18A7
 10
-13.6083
 20
-15.2999
 30
0.000000
  70
    32
  0
VERTEX
  8
240
  5
18A8
 10
-13.6080
 20
-15.2999
 30
0.000000
  70
    32
  0
VERTEX
  8
240
  5
18A9
 10
-13.6078
 20
-15.2999
 30
0.000000
  70
    32
  0
VERTEX
  8
240
  5
18AA
 10
-13.6075
 20
-15.2998
 30
0.000000
  70
    32
  0
VERTEX
  8
240
  5
18AB
 10
-13.6073
 20
-15.2998
 30
0.000000
  70
    32
  0
VERTEX
  8
240
  5
18AC
 10
-13.6071
 20
-15.2998
 30
0.000000
  70
    32
  0
VERTEX
  8
240
  5
18AD
 10
-13.6068
 20
-15.2998
 30
0.000000
  70
    32
  0
VERTEX
  8
240
  5
18AE
 10
-13.6066
 20
-15.2998
 30
0.000000
  70
    32
  0
VERTEX
  8
240
  5
18AF
 10
-13.6063
 20
-15.2998
 30
0.000000
  70
    32
  0
VERTEX
  8
240
  5
18B0
 10
-13.6061
 20
-15.2998
 30
0.000000
  70
    32
  0
VERTEX
  8
240
  5
18B1
 10
-13.6058
 20
-15.2998
 30
0.000000
  70
    32
  0
VERTEX
  8
240
  5
18B2
 10
-13.6056
 20
-15.2998
 30
0.000000
  70
    32
  0
VERTEX
  8
240
  5
18B3
 10
-13.6053
 20
-15.2998
 30
0.000000
  70
    32
  0
VERTEX
  8
240
  5
18B4
 10
-13.6051
 20
-15.2998
 30
0.000000
  70
    32
  0
VERTEX
  8
240
  5
18B5
 10
-13.6048
 20
-15.2997
 30
0.000000
  70
    32
  0
VERTEX
  8
240
  5
18B6
 10
-13.6046
 20
-15.2997
 30
0.000000
  70
    32
  0
VERTEX
  8
240
  5
18B7
 10
-13.6044
 20
-15.2997
 30
0.000000
  70
    32
  0
VERTEX
  8
240
  5
18B8
 10
-13.6041
 20
-15.2997
 30
0.000000
  70
    32
  0
VERTEX
  8
240
  5
18B9
 10
-13.6039
 20
-15.2997
 30
0.000000
  70
    32
  0
VERTEX
  8
240
  5
18BA
 10
-13.6036
 20
-15.2997
 30
0.000000
  70
    32
  0
VERTEX
  8
240
  5
18BB
 10
-13.6034
 20
-15.2997
 30
0.000000
  70
    32
  0
VERTEX
  8
240
  5
18BC
 10
-13.6031
 20
-15.2997
 30
0.000000
  70
    32
  0
VERTEX
  8
240
  5
18BD
 10
-13.6029
 20
-15.2996
 30
0.000000
  70
    32
  0
VERTEX
  8
240
  5
18BE
 10
-13.6026
 20
-15.2996
 30
0.000000
  70
    32
  0
VERTEX
  8
240
  5
18BF
 10
-13.6024
 20
-15.2996
 30
0.000000
  70
    32
  0
VERTEX
  8
240
  5
18C0
 10
-13.6021
 20
-15.2996
 30
0.000000
  70
    32
  0
VERTEX
  8
240
  5
18C1
 10
-13.6019
 20
-15.2996
 30
0.000000
  70
    32
  0
VERTEX
  8
240
  5
18C2
 10
-13.6016
 20
-15.2996
 30
0.000000
  70
    32
  0
VERTEX
  8
240
  5
18C3
 10
-13.6014
 20
-15.2996
 30
0.000000
  70
    32
  0
VERTEX
  8
240
  5
18C4
 10
-13.6011
 20
-15.2995
 30
0.000000
  70
    32
  0
VERTEX
  8
240
  5
18C5
 10
-13.6009
 20
-15.2995
 30
0.000000
  70
    32
  0
VERTEX
  8
240
  5
18C6
 10
-13.6006
 20
-15.2995
 30
0.000000
  70
    32
  0
VERTEX
  8
240
  5
18C7
 10
-13.6004
 20
-15.2995
 30
0.000000
  70
    32
  0
VERTEX
  8
240
  5
18C8
 10
-13.6001
 20
-15.2995
 30
0.000000
  70
    32
  0
VERTEX
  8
240
  5
18C9
 10
-13.5999
 20
-15.2995
 30
0.000000
  70
    32
  0
VERTEX
  8
240
  5
18CA
 10
-13.5996
 20
-15.2995
 30
0.000000
  70
    32
  0
VERTEX
  8
240
  5
18CB
 10
-13.5994
 20
-15.2994
 30
0.000000
  70
    32
  0
VERTEX
  8
240
  5
18CC
 10
-13.5991
 20
-15.2994
 30
0.000000
  70
    32
  0
VERTEX
  8
240
  5
18CD
 10
-13.5989
 20
-15.2994
 30
0.000000
  70
    32
  0
VERTEX
  8
240
  5
18CE
 10
-13.5986
 20
-15.2994
 30
0.000000
  70
    32
  0
VERTEX
  8
240
  5
18CF
 10
-13.5984
 20
-15.2994
 30
0.000000
  70
    32
  0
VERTEX
  8
240
  5
18D0
 10
-13.5981
 20
-15.2994
 30
0.000000
  70
    32
  0
VERTEX
  8
240
  5
18D1
 10
-13.5979
 20
-15.2993
 30
0.000000
  70
    32
  0
VERTEX
  8
240
  5
18D2
 10
-13.5976
 20
-15.2993
 30
0.000000
  70
    32
  0
VERTEX
  8
240
  5
18D3
 10
-13.5974
 20
-15.2993
 30
0.000000
  70
    32
  0
VERTEX
  8
240
  5
18D4
 10
-13.5971
 20
-15.2993
 30
0.000000
  70
    32
  0
VERTEX
  8
240
  5
18D5
 10
-13.5969
 20
-15.2993
 30
0.000000
  70
    32
  0
VERTEX
  8
240
  5
18D6
 10
-13.5966
 20
-15.2992
 30
0.000000
  70
    32
  0
VERTEX
  8
240
  5
18D7
 10
-13.5963
 20
-15.2992
 30
0.000000
  70
    32
  0
VERTEX
  8
240
  5
18D8
 10
-13.5961
 20
-15.2992
 30
0.000000
  70
    32
  0
VERTEX
  8
240
  5
18D9
 10
-13.5958
 20
-15.2992
 30
0.000000
  70
    32
  0
VERTEX
  8
240
  5
18DA
 10
-13.5956
 20
-15.2992
 30
0.000000
  70
    32
  0
VERTEX
  8
240
  5
18DB
 10
-13.5953
 20
-15.2991
 30
0.000000
  70
    32
  0
VERTEX
  8
240
  5
18DC
 10
-13.5951
 20
-15.2991
 30
0.000000
  70
    32
  0
VERTEX
  8
240
  5
18DD
 10
-13.5948
 20
-15.2991
 30
0.000000
  70
    32
  0
VERTEX
  8
240
  5
18DE
 10
-13.5946
 20
-15.2991
 30
0.000000
  70
    32
  0
VERTEX
  8
240
  5
18DF
 10
-13.5943
 20
-15.2991
 30
0.000000
  70
    32
  0
VERTEX
  8
240
  5
18E0
 10
-13.5940
 20
-15.2990
 30
0.000000
  70
    32
  0
VERTEX
  8
240
  5
18E1
 10
-13.5938
 20
-15.2990
 30
0.000000
  70
    32
  0
VERTEX
  8
240
  5
18E2
 10
-13.5935
 20
-15.2990
 30
0.000000
  70
    32
  0
VERTEX
  8
240
  5
18E3
 10
-13.5933
 20
-15.2990
 30
0.000000
  70
    32
  0
VERTEX
  8
240
  5
18E4
 10
-13.5930
 20
-15.2990
 30
0.000000
  70
    32
  0
VERTEX
  8
240
  5
18E5
 10
-13.5928
 20
-15.2989
 30
0.000000
  70
    32
  0
VERTEX
  8
240
  5
18E6
 10
-13.5925
 20
-15.2989
 30
0.000000
  70
    32
  0
VERTEX
  8
240
  5
18E7
 10
-13.5922
 20
-15.2989
 30
0.000000
  70
    32
  0
VERTEX
  8
240
  5
18E8
 10
-13.5920
 20
-15.2989
 30
0.000000
  70
    32
  0
VERTEX
  8
240
  5
18E9
 10
-13.5917
 20
-15.2988
 30
0.000000
  70
    32
  0
VERTEX
  8
240
  5
18EA
 10
-13.5915
 20
-15.2988
 30
0.000000
  70
    32
  0
VERTEX
  8
240
  5
18EB
 10
-13.5912
 20
-15.2988
 30
0.000000
  70
    32
  0
VERTEX
  8
240
  5
18EC
 10
-13.5910
 20
-15.2988
 30
0.000000
  70
    32
  0
VERTEX
  8
240
  5
18ED
 10
-13.5907
 20
-15.2987
 30
0.000000
  70
    32
  0
VERTEX
  8
240
  5
18EE
 10
-13.5904
 20
-15.2987
 30
0.000000
  70
    32
  0
VERTEX
  8
240
  5
18EF
 10
-13.5902
 20
-15.2987
 30
0.000000
  70
    32
  0
VERTEX
  8
240
  5
18F0
 10
-13.5899
 20
-15.2987
 30
0.000000
  70
    32
  0
VERTEX
  8
240
  5
18F1
 10
-13.5897
 20
-15.2987
 30
0.000000
  70
    32
  0
VERTEX
  8
240
  5
18F2
 10
-13.5894
 20
-15.2986
 30
0.000000
  70
    32
  0
VERTEX
  8
240
  5
18F3
 10
-13.5891
 20
-15.2986
 30
0.000000
  70
    32
  0
VERTEX
  8
240
  5
18F4
 10
-13.5889
 20
-15.2986
 30
0.000000
  70
    32
  0
VERTEX
  8
240
  5
18F5
 10
-13.5886
 20
-15.2985
 30
0.000000
  70
    32
  0
VERTEX
  8
240
  5
18F6
 10
-13.5884
 20
-15.2985
 30
0.000000
  70
    32
  0
VERTEX
  8
240
  5
18F7
 10
-13.5881
 20
-15.2985
 30
0.000000
  70
    32
  0
VERTEX
  8
240
  5
18F8
 10
-13.5878
 20
-15.2985
 30
0.000000
  70
    32
  0
VERTEX
  8
240
  5
18F9
 10
-13.5876
 20
-15.2984
 30
0.000000
  70
    32
  0
VERTEX
  8
240
  5
18FA
 10
-13.5873
 20
-15.2984
 30
0.000000
  70
    32
  0
VERTEX
  8
240
  5
18FB
 10
-13.5870
 20
-15.2984
 30
0.000000
  70
    32
  0
VERTEX
  8
240
  5
18FC
 10
-13.5868
 20
-15.2984
 30
0.000000
  70
    32
  0
VERTEX
  8
240
  5
18FD
 10
-13.5865
 20
-15.2983
 30
0.000000
  70
    32
  0
VERTEX
  8
240
  5
18FE
 10
-13.5863
 20
-15.2983
 30
0.000000
  70
    32
  0
VERTEX
  8
240
  5
18FF
 10
-13.5860
 20
-15.2983
 30
0.000000
  70
    32
  0
VERTEX
  8
240
  5
1900
 10
-13.5857
 20
-15.2982
 30
0.000000
  70
    32
  0
VERTEX
  8
240
  5
1901
 10
-13.5855
 20
-15.2982
 30
0.000000
  70
    32
  0
VERTEX
  8
240
  5
1902
 10
-13.5852
 20
-15.2982
 30
0.000000
  70
    32
  0
VERTEX
  8
240
  5
1903
 10
-13.5849
 20
-15.2982
 30
0.000000
  70
    32
  0
VERTEX
  8
240
  5
1904
 10
-13.5847
 20
-15.2981
 30
0.000000
  70
    32
  0
VERTEX
  8
240
  5
1905
 10
-13.5844
 20
-15.2981
 30
0.000000
  70
    32
  0
VERTEX
  8
240
  5
1906
 10
-13.5841
 20
-15.2981
 30
0.000000
  70
    32
  0
SEQEND
  8
240
  5
1907
  0
LINE
  5
17A3
  8
240
 10
-12.72792217787355
 20
-15.55043843650391
 30
0.0
 11
-12.72792217787361
 21
-15.20748605579133
 31
0.0
  0
LINE
  5
17A4
  8
241
 10
-13.493556878529491
 20
1.679999226704268
 30
0.0
 11
-13.392388238571581
 21
1.679999226704268
 31
0.0
  0
LINE
  5
17A5
  8
241
 10
-0.4639610415325138
 20
1.679999226704268
 30
0.0
 11
-13.392388238571581
 21
1.679999226704268
 31
0.0
  0
POLYLINE
  5
17A6
  8
241
 66
     1
 10
0.0
 20
0.0
 30
0.0
 70
   128
  0
VERTEX
  5
187D
  8
241
 10
-5.7639608858153224
 20
-20.832369863986941
 30
0.0
  0
VERTEX
  5
187E
  8
241
 10
-3.346767625771462
 20
-18.40629690885541
 30
0.0
  0
VERTEX
  5
187F
  8
241
 10
-0.9325901919510216
 20
-15.98056481778619
 30
0.0
  0
SEQEND
  5
1880
  8
241
  0
LINE
  5
17A7
  8
240
 10
-0.0585786385619827
 20
-15.69185996216237
 30
0.0
 11
-5.5982750185044088
 21
-21.231556749543699
 31
0.0
  0
LINE
  5
17A8
  8
241
 10
-6.9639611756429067
 20
-20.832369863986941
 30
0.0
 11
-5.7639608858153224
 21
-20.832369863986941
 31
0.0
  0
LINE
  5
17A9
  8
240
 10
-5.7396963799424148
 20
-21.29013539850709
 30
0.0
 11
-6.9882256815147912
 21
-21.29013539850709
 31
0.0
  0
LINE
  5
17AA
  8
240
 10
-0.4639610415324569
 20
-1.5000007729977081
 30
0.0
 11
-0.4639610415350717
 21
-13.755107127129801
 31
0.0
  0
LINE
  5
17AB
  8
241
 10
-0.4639610415324569
 20
-13.755107127132529
 30
0.0
 11
-0.4639610414957361
 21
-14.76498061348954
 31
0.0
  0
LINE
  5
17AC
  8
240
 10
-0.4639610415324569
 20
-13.75510712713
 30
0.0
 11
-0.0585787351184308
 21
-14.160488909804529
 31
0.0
  0
LINE
  5
17AD
  8
241
 10
-0.9325901919510216
 20
-15.98056481778619
 30
0.0
 11
-0.9029504435602576
 21
-15.949959695339169
 31
0.0
  0
ARC
  5
17AE
  8
241
 10
-2.3106179084271612
 20
-14.750027822554751
 30
0.0
 40
1.8496929991133031
 50
319.55487472857538
 51
359.20182187787412
  0
LINE
  5
17AF
  8
240
 10
0.0
 20
-14.301465652883021
 30
0.0
 11
0.0
 21
-15.550438611125751
 31
0.0
  0
LINE
  5
17B0
  8
241
 10
-13.728041327516509
 20
-1.5000007729993849
 30
0.0
 11
-0.4639610415324569
 21
-1.500000772996656
 31
0.0
  0
LINE
  5
17B1
  8
240
 10
-0.4639610415324569
 20
-1.500000772997395
 30
0.0
 11
-0.000000000007617
 21
-1.500000772997395
 31
0.0
  0
LINE
  5
17B2
  8
240
 10
-0.3904549487976965
 20
1.679999226704239
 30
0.0
 11
-0.0000000000090949
 21
-1.500000772997395
 31
0.0
  0
LINE
  5
17B3
  8
240
 10
-0.3904549179470109
 20
1.679999226704239
 30
0.0
 11
-0.4639610415322295
 21
1.679999226704268
 31
0.0
  0
LINE
  5
17B4
  8
240
 10
-13.58607119916763
 20
15.299999326467541
 30
0.0
 11
-64.749747044406831
 21
15.299999326467541
 31
0.0
  0
LINE
  5
17B5
  8
240
 10
-65.863962746225283
 20
16.000000000000028
 30
0.0
 11
-173.16396383102989
 21
16.000000000000028
 31
0.0
  0
LINE
  5
17B6
  8
240
 10
-65.456855571828783
 20
15.59289282560351
 30
0.0
 11
-65.863962746225283
 21
16.000000000000028
 31
0.0
  0
ARC
  5
17B7
  8
240
 10
-64.749747479159396
 20
16.299999240040759
 30
0.0
 40
1.0
 50
225.0
 51
270.0
  0
LINE
  5
17B8
  8
240
 10
-7.1296451810507051
 20
21.23866308277184
 30
0.0
 11
-12.669343540054451
 21
15.69896425812348
 31
0.0
  0
LINE
  5
17B9
  8
241
 10
-12.669343534110849
 20
14.167594578302211
 30
0.0
 11
-7.1296454966737883
 21
8.6278965408654074
 31
0.0
  0
LINE
  5
17BA
  8
241
 10
-12.72792217787355
 20
14.309015934537451
 30
0.0
 11
-12.727922177882871
 21
15.207486055791319
 31
0.0
  0
LINE
  5
17BB
  8
240
 10
-12.72792217787349
 20
15.557542907829831
 30
0.0
 11
-12.72792217787355
 21
15.207486055791319
 31
0.0
  0
LINE
  5
17BC
  8
240
 10
-0.0585786385619827
 20
15.69896443348833
 30
0.0
 11
-5.598276881149558
 21
21.238663083514808
 31
0.0
  0
LINE
  5
17BD
  8
241
 10
-5.5982766678190501
 20
8.6278965388332551
 30
0.0
 11
-0.4639610415387097
 21
13.76221201755973
 31
0.0
  0
LINE
  5
17BE
  8
240
 10
-0.4639610415324569
 20
13.762211598455931
 30
0.0
 11
-0.0585785727082566
 21
14.1675944746332
 31
0.0
  0
LINE
  5
17BF
  8
240
 10
0.0000000000000568
 20
14.30901575981613
 30
0.0
 11
0.0
 21
15.5575430824517
 31
0.0
  0
LINE
  5
17C0
  8
240
 10
-5.739698242587564
 20
21.29724173247817
 30
0.0
 11
-6.9882238188697547
 21
21.29724173247817
 31
0.0
  0
LINE
  5
17C1
  8
241
 10
-5.7396980220242417
 20
8.5693178971027066
 30
0.0
 11
-6.9882241404365004
 21
8.5693178971027351
 31
0.0
  0
ARC
  5
17C2
  8
240
 10
-6.9882238188697547
 20
21.097241732478182
 30
0.0
 40
0.2
 50
90.0
 51
135.00000240802549
1001
GENIUS_GENOBJ-N-FIL_13
1002
{
1000
OWNER
1000
GEN
1002
}
1001
GENIUS_GENODEF_13
1002
{
1000
HIER
1070
     0
1002
}
1002
{
1000
MANEDIT
1070
     0
1002
}
1002
{
1000
NOSEL
1070
     0
1002
}
1002
{
1000
BEHIND
1070
     0
1002
}
1002
{
1000
OTHER
1070
     0
1002
}
1002
{
1000
REACTOR
1002
}
  0
ARC
  5
17C3
  8
240
 10
-5.739698242587564
 20
21.097241732478182
 30
0.0
 40
0.2
 50
44.999997892978108
 51
90.0
1001
GENIUS_GENOBJ-N-FIL_13
1002
{
1000
OWNER
1000
GEN
1002
}
1001
GENIUS_GENODEF_13
1002
{
1000
HIER
1070
     0
1002
}
1002
{
1000
MANEDIT
1070
     0
1002
}
1002
{
1000
NOSEL
1070
     0
1002
}
1002
{
1000
BEHIND
1070
     0
1002
}
1002
{
1000
OTHER
1070
     0
1002
}
1002
{
1000
REACTOR
1002
}
  0
ARC
  5
17C4
  8
240
 10
-0.1999999999999886
 20
15.5575430824517
 30
0.0
 40
0.2
 50
0.0
 51
44.999997892978108
1001
GENIUS_GENODEF_13
1002
{
1000
HIER
1070
     0
1002
}
1002
{
1000
MANEDIT
1070
     0
1002
}
1002
{
1000
NOSEL
1070
     0
1002
}
1002
{
1000
BEHIND
1070
     0
1002
}
1002
{
1000
OTHER
1070
     0
1002
}
1002
{
1000
REACTOR
1002
}
1001
GENIUS_GENOBJ-N-FIL_13
1002
{
1000
OWNER
1000
GEN
1002
}
  0
ARC
  5
17C5
  8
240
 10
-0.1999999999999318
 20
14.30901575981613
 30
0.0
 40
0.2
 50
315.00002878713519
 51
0.0
1001
GENIUS_GENODEF_13
1002
{
1000
HIER
1070
     0
1002
}
1002
{
1000
MANEDIT
1070
     0
1002
}
1002
{
1000
NOSEL
1070
     0
1002
}
1002
{
1000
BEHIND
1070
     0
1002
}
1002
{
1000
OTHER
1070
     0
1002
}
1002
{
1000
REACTOR
1002
}
1001
GENIUS_GENOBJ-N-FIL_13
1002
{
1000
OWNER
1000
GEN
1002
}
  0
ARC
  5
17C6
  8
241
 10
-5.7396980220242417
 20
8.7693178971026953
 30
0.0
 40
0.2
 50
270.0
 51
314.99999917669493
1001
GENIUS_GENOBJ-N-FIL_13
1002
{
1000
OWNER
1000
GEN
1002
}
1001
GENIUS_GENODEF_13
1002
{
1000
HIER
1070
     0
1002
}
1002
{
1000
MANEDIT
1070
     0
1002
}
1002
{
1000
NOSEL
1070
     0
1002
}
1002
{
1000
BEHIND
1070
     0
1002
}
1002
{
1000
OTHER
1070
     0
1002
}
1002
{
1000
REACTOR
1002
}
  0
ARC
  5
17C7
  8
241
 10
-6.9882241404365004
 20
8.7693178971027237
 30
0.0
 40
0.2
 50
225.0
 51
270.0
1001
GENIUS_GENOBJ-N-FIL_13
1002
{
1000
OWNER
1000
GEN
1002
}
1001
GENIUS_GENODEF_13
1002
{
1000
HIER
1070
     0
1002
}
1002
{
1000
MANEDIT
1070
     0
1002
}
1002
{
1000
NOSEL
1070
     0
1002
}
1002
{
1000
BEHIND
1070
     0
1002
}
1002
{
1000
OTHER
1070
     0
1002
}
1002
{
1000
REACTOR
1002
}
  0
ARC
  5
17C8
  8
241
 10
-12.52792217787356
 20
14.309015934539531
 30
0.0
 40
0.2
 50
180.00000000059109
 51
225.0
1001
GENIUS_GENOBJ-N-FIL_13
1002
{
1000
OWNER
1000
GEN
1002
}
1001
GENIUS_GENODEF_13
1002
{
1000
HIER
1070
     0
1002
}
1002
{
1000
MANEDIT
1070
     0
1002
}
1002
{
1000
NOSEL
1070
     0
1002
}
1002
{
1000
BEHIND
1070
     0
1002
}
1002
{
1000
OTHER
1070
     0
1002
}
1002
{
1000
REACTOR
1002
}
  0
ARC
  5
17C9
  8
240
 10
-12.527922177873499
 20
15.557542907829831
 30
0.0
 40
0.2
 50
135.00000240802549
 51
180.0
1001
GENIUS_GENOBJ-N-FIL_13
1002
{
1000
OWNER
1000
GEN
1002
}
1001
GENIUS_GENODEF_13
1002
{
1000
HIER
1070
     0
1002
}
1002
{
1000
MANEDIT
1070
     0
1002
}
1002
{
1000
NOSEL
1070
     0
1002
}
1002
{
1000
BEHIND
1070
     0
1002
}
1002
{
1000
OTHER
1070
     0
1002
}
1002
{
1000
REACTOR
1002
}
  0
CIRCLE
  5
17CA
  8
246
 10
-6.3639610415324341
 20
14.93327981479044
 30
0.0
 40
4.9999995494399716
  0
LINE
  5
17CB
  8
241
 10
-13.493556878529491
 20
1.679999226704268
 30
0.0
 11
-13.728041327516509
 21
-1.5000007729993849
 31
0.0
  0
ARC
  5
17CC
  8
240
 10
-0.1999999999999886
 20
-14.30191035739753
 30
0.0
 40
0.2
 50
0.0
 51
45.000037012072163
1001
GENIUS_GENOBJ-N-FIL_13
1002
{
1000
OWNER
1000
GEN
1002
}
1001
GENIUS_GENODEF_13
1002
{
1000
HIER
1070
     0
1002
}
1002
{
1000
MANEDIT
1070
     0
1002
}
1002
{
1000
NOSEL
1070
     0
1002
}
1002
{
1000
BEHIND
1070
     0
1002
}
1002
{
1000
OTHER
1070
     0
1002
}
1002
{
1000
REACTOR
1002
}
  0
ARC
  5
17CD
  8
240
 10
-0.1999999999999886
 20
-15.550438611125751
 30
0.0
 40
0.2
 50
315.00000210702188
 51
0.0
1001
GENIUS_GENOBJ-N-FIL_13
1002
{
1000
OWNER
1000
GEN
1002
}
1001
GENIUS_GENODEF_13
1002
{
1000
HIER
1070
     0
1002
}
1002
{
1000
MANEDIT
1070
     0
1002
}
1002
{
1000
NOSEL
1070
     0
1002
}
1002
{
1000
BEHIND
1070
     0
1002
}
1002
{
1000
OTHER
1070
     0
1002
}
1002
{
1000
REACTOR
1002
}
  0
ARC
  5
17CE
  8
240
 10
-5.7396963799424148
 20
-21.090135398507091
 30
0.0
 40
0.2
 50
270.0
 51
315.00000210702188
1001
GENIUS_GENOBJ-N-FIL_13
1002
{
1000
OWNER
1000
GEN
1002
}
1001
GENIUS_GENODEF_13
1002
{
1000
HIER
1070
     0
1002
}
1002
{
1000
MANEDIT
1070
     0
1002
}
1002
{
1000
NOSEL
1070
     0
1002
}
1002
{
1000
BEHIND
1070
     0
1002
}
1002
{
1000
OTHER
1070
     0
1002
}
1002
{
1000
REACTOR
1002
}
  0
ARC
  5
17CF
  8
240
 10
-6.9882256815147912
 20
-21.090135398507091
 30
0.0
 40
0.2
 50
224.99999759197451
 51
270.0
1001
GENIUS_GENODEF_13
1002
{
1000
HIER
1070
     0
1002
}
1002
{
1000
MANEDIT
1070
     0
1002
}
1002
{
1000
NOSEL
1070
     0
1002
}
1002
{
1000
BEHIND
1070
     0
1002
}
1002
{
1000
OTHER
1070
     0
1002
}
1002
{
1000
REACTOR
1002
}
1001
GENIUS_GENOBJ-N-FIL_13
1002
{
1000
OWNER
1000
GEN
1002
}
  0
ARC
  5
17D0
  8
240
 10
-12.52792217787356
 20
-15.55043843650388
 30
0.0
 40
0.2
 50
180.00000000000981
 51
224.99999759197451
1001
GENIUS_GENOBJ-N-FIL_13
1002
{
1000
OWNER
1000
GEN
1002
}
1001
GENIUS_GENODEF_13
1002
{
1000
HIER
1070
     0
1002
}
1002
{
1000
MANEDIT
1070
     0
1002
}
1002
{
1000
NOSEL
1070
     0
1002
}
1002
{
1000
BEHIND
1070
     0
1002
}
1002
{
1000
OTHER
1070
     0
1002
}
1002
{
1000
REACTOR
1002
}
  0
LINE
  5
17D1
  8
241
 10
-12.72792217787366
 20
-15.207486055791319
 30
0.0
 11
-12.56396788414594
 21
-15.207486055791311
 31
0.0
  0
POLYLINE
  5
17D2
  8
240
 66
     1
 10
0.0
 20
0.0
 30
0.0
 70
   128
  0
VERTEX
  5
1881
  8
240
 10
-13.493556878529491
 20
15.20748605579135
 30
0.0
  0
VERTEX
  5
1882
  8
240
 10
-13.53877724613994
 20
15.25270549207923
 30
0.0
  0
VERTEX
  5
1883
  8
240
 10
-13.5689809685573
 20
15.282910145819161
 30
0.0
  0
VERTEX
  5
1884
  8
240
 10
-13.58607119916763
 20
15.299999326467541
 30
0.0
  0
SEQEND
  5
1885
  8
240
  0
LINE
  5
17D3
  8
240
 10
-13.493556878529491
 20
15.20748605579135
 30
0.0
 11
-12.727922177882871
 21
15.207486055791319
 31
0.0
  0
ENDBLK
  5
17D6
  8
0
  0
BLOCK
  8
0
  2
*U33
 70
     1
 10
0.0
 20
0.0
 30
0.0
  3
*U33
  1

  0
TEXT
  5
1807
  8
250
 62
    40
 10
347.2179999999999
 20
135.56238574471999
 30
0.0
 40
3.0
  1
\U+2205
 50
90.0
  0
TEXT
  5
1808
  8
250
 62
    40
 10
347.2179999999999
 20
138.27667145900571
 30
0.0
 40
3.0
  1
30.6
 50
90.0
  0
ENDBLK
  5
180A
  8
0
  0
BLOCK
  8
0
  2
*U34
 70
     1
 10
0.0
 20
0.0
 30
0.0
  3
*U34
  1

  0
TEXT
  5
180C
  8
250
 62
    40
 10
348.90555853501172
 20
106.0
 30
0.0
 40
3.0
  1
65
  0
ENDBLK
  5
180E
  8
0
  0
BLOCK
  8
0
  2
*U35
 70
     1
 10
0.0
 20
0.0
 30
0.0
  3
*U35
  1

  0
TEXT
  5
1810
  8
250
 62
    40
 10
374.8683773502384
 20
170.1660351184222
 30
0.0
 40
2.7999999999999989
  1
45üï
 50
19.509460731230671
  0
ENDBLK
  5
1812
  8
0
  0
BLOCK
  8
0
  2
*U36
 70
     1
 10
0.0
 20
0.0
 30
0.0
  3
*U36
  1

  0
TEXT
  5
1814
  8
250
 62
    40
 10
260.05214602151023
 20
106.0
 30
0.0
 40
2.7999999999999989
  1
110
  0
ENDBLK
  5
1816
  8
0
  0
BLOCK
  8
0
  2
*U37
 70
     1
 10
0.0
 20
0.0
 30
0.0
  3
*U37
  1

  0
TEXT
  5
1818
  8
250
 62
    40
 10
292.12701976108991
 20
99.0
 30
0.0
 40
3.0
  1
175
  0
ENDBLK
  5
181A
  8
0
  0
BLOCK
  8
0
  2
*U38
 70
     1
 10
0.0
 20
0.0
 30
0.0
  3
*U38
  1

  0
TEXT
  5
181C
  8
250
 62
    40
 10
195.0
 20
137.70524288757721
 30
0.0
 40
3.0
  1
\U+2205
 50
90.0
  0
TEXT
  5
181D
  8
250
 62
    40
 10
195.0
 20
140.41952860186291
 30
0.0
 40
3.0
  1
32
 50
90.0
  0
ENDBLK
  5
181F
  8
0
  0
BLOCK
  8
0
  2
*U39
 70
     1
 10
0.0
 20
0.0
 30
0.0
  3
*U39
  1

  0
TEXT
  5
1821
  8
250
 62
    40
 10
404.99999999999989
 20
135.8814341237269
 30
0.0
 40
3.0
  1
\U+2205
 50
90.0
  0
TEXT
  5
1822
  8
250
 62
    40
 10
404.89999999999992
 20
138.5957198380126
 30
0.0
 40
2.7999999999999989
  1
42.7
 50
90.0
  0
ENDBLK
  5
1824
  8
0
  0
BLOCK
  8
0
  2
*U40
 70
     1
 10
0.0
 20
0.0
 30
0.0
  3
*U40
  1

  0
TEXT
  5
1826
  8
240
 62
    40
 10
362.99999999999989
 20
137.70524364753641
 30
0.0
 40
3.0
  1
\U+2205
 50
90.0
  0
TEXT
  5
1827
  8
240
 62
    40
 10
362.99999999999989
 20
140.41952936182199
 30
0.0
 40
3.0
  1
32
 50
90.0
  0
ENDBLK
  5
1829
  8
0
  0
BLOCK
  8
0
  2
*U41
 70
     1
 10
0.0
 20
0.0
 30
0.0
  3
*U41
  1

  0
TEXT
  5
182B
  8
240
 62
    40
 10
391.0
 20
137.70524364753641
 30
0.0
 40
3.0
  1
\U+2205
 50
90.0
  0
TEXT
  5
182C
  8
240
 62
    40
 10
391.0
 20
140.41952936182199
 30
0.0
 40
3.0
  1
32
 50
90.0
  0
ENDBLK
  5
182E
  8
0
  0
BLOCK
  8
0
  2
*U42
 70
     1
 10
0.0
 20
0.0
 30
0.0
  3
*U42
  1

  0
TEXT
  5
1830
  8
240
 62
    40
 10
397.99999999999977
 20
137.70524364753641
 30
0.0
 40
3.0
  1
\U+2205
 50
90.0
  0
TEXT
  5
1831
  8
240
 62
    40
 10
397.99999999999977
 20
140.41952936182199
 30
0.0
 40
3.0
  1
42
 50
90.0
  0
ENDBLK
  5
1833
  8
0
  0
BLOCK
  8
0
  2
*U43
 70
     1
 10
0.0
 20
0.0
 30
0.0
  3
*U43
  1

  0
TEXT
  5
1847
  8
240
 62
    40
 10
-21.20900370316286
 20
-4.0714285714285587
 30
0.0
 40
3.0
  1
\U+2205
 50
90.0
  0
TEXT
  5
1848
  8
240
 62
    40
 10
-21.20900370316286
 20
-1.357142857142845
 30
0.0
 40
3.0
  1
32
 50
90.0
  0
ENDBLK
  5
184A
  8
0
  0
BLOCK
  8
0
  2
*U44
 70
     1
 10
0.0
 20
0.0
 30
0.0
  3
*U44
  1

  0
TEXT
  5
184C
  8
250
 62
    40
 10
20.790996296837189
 20
-5.8952380952380521
 30
0.0
 40
3.0
  1
\U+2205
 50
90.0
  0
TEXT
  5
184D
  8
250
 62
    40
 10
20.690996296837191
 20
-3.180952380952339
 30
0.0
 40
2.7999999999999989
  1
42.7
 50
90.0
  0
ENDBLK
  5
184F
  8
0
  0
BLOCK
  8
0
  2
*U45
 70
     1
 10
0.0
 20
0.0
 30
0.0
  3
*U45
  1

  0
TEXT
  5
1851
  8
250
 62
    40
 10
-9.3406263529244331
 20
28.389362899457389
 30
0.0
 40
2.7999999999999989
  1
45üï
 50
19.50946073123043
  0
ENDBLK
  5
1853
  8
0
  0
BLOCK
  8
0
  2
*U46
 70
     1
 10
0.0
 20
0.0
 30
0.0
  3
*U46
  1

  0
TEXT
  5
1855
  8
250
 62
    40
 10
-36.991003703162853
 20
-5.8952388551973014
 30
0.0
 40
3.0
  1
\U+2205
 50
90.0
  0
TEXT
  5
1856
  8
250
 62
    40
 10
-37.091003703162848
 20
-3.180953140911587
 30
0.0
 40
2.7999999999999989
  1
30.6
 50
90.0
  0
ENDBLK
  5
1858
  8
0
  0
BLOCK
  8
0
  2
*U47
 70
     1
 10
0.0
 20
0.0
 30
0.0
  3
*U47
  1

  0
TEXT
  5
185A
  8
250
 62
    40
 10
-124.1568576816526
 20
-35.776672218964883
 30
0.0
 40
2.7999999999999989
  1
110
  0
ENDBLK
  5
185C
  8
0
  0
BLOCK
  8
0
  2
*U48
 70
     1
 10
0.0
 20
0.0
 30
0.0
  3
*U48
  1

  0
TEXT
  5
185E
  8
240
 62
    40
 10
20.0
 20
-4.0714285714285641
 30
0.0
 40
3.0
  1
\U+2205
 50
90.0
  0
TEXT
  5
185F
  8
240
 62
    40
 10
20.0
 20
-1.3571428571428501
 30
0.0
 40
3.0
  1
42
 50
90.0
  0
ENDBLK
  5
1861
  8
0
  0
BLOCK
  8
0
  2
*U49
 70
     1
 10
0.0
 20
0.0
 30
0.0
  3
*U49
  1

  0
TEXT
  5
1863
  8
240
 62
    40
 10
13.0
 20
-4.0714285714285721
 30
0.0
 40
3.0
  1
\U+2205
 50
90.0
  0
TEXT
  5
1864
  8
240
 62
    40
 10
13.0
 20
-1.357142857142857
 30
0.0
 40
3.0
  1
32
 50
90.0
  0
ENDBLK
  5
1866
  8
0
  0
BLOCK
  8
0
  2
*U50
 70
     1
 10
0.0
 20
0.0
 30
0.0
  3
*U50
  1

  0
TEXT
  5
1868
  8
250
 62
    40
 10
-35.108207072913039
 20
-27.0
 30
0.0
 40
2.7999999999999989
  1
65
  0
ENDBLK
  5
186A
  8
0
  0
BLOCK
  8
0
  2
*U51
 70
     1
 10
0.0
 20
0.0
 30
0.0
  3
*U51
  1

  0
TEXT
  5
186C
  8
250
 62
    40
 10
-91.781983942072884
 20
-34.0
 30
0.0
 40
2.7999999999999989
  1
175
  0
ENDBLK
  5
186E
  8
0
  0
BLOCK
  8
0
  2
*U52
 70
     1
 10
0.0
 20
0.0
 30
0.0
  3
*U52
  1

  0
TEXT
  5
1870
  8
250
 62
    40
 10
-190.0
 20
-3.8952388551973129
 30
0.0
 40
3.0
  1
\U+2205
 50
90.0
  0
TEXT
  5
1871
  8
250
 62
    40
 10
-190.09999999999999
 20
-1.180953140911599
 30
0.0
 40
2.7999999999999989
  1
32
 50
90.0
  0
ENDBLK
  5
1873
  8
0
  0
ENDSEC
  0
SECTION
  2
ENTITIES
  0
TEXT
  5
1445
  8
241
 10
-173.54698019759149
 20
33.249894499542989
 30
0.0
 40
3.0
  1
ST32-C3242-45B-65
  7
YOKO
 11
-173.54698019759149
 21
33.249894499542989
 31
0.0
 73
     1
  0
LINE
  5
1674
  8
250
 10
-173.66396383102989
 20
-16.00000151991841
 30
0.0
 11
-190.0
 21
-16.00000151991841
 31
0.0
  0
LINE
  5
1675
  8
250
 10
-173.66396383102989
 20
16.000000000000028
 30
0.0
 11
-190.0
 21
16.000000000000028
 31
0.0
  0
LINE
  5
1676
  8
250
 10
-189.0
 20
-13.770001519918409
 30
0.0
 11
-189.0
 21
13.77000000000003
 31
0.0
  0
LINE
  5
167A
  8
250
 10
-175.16396788414571
 20
-14.500001192092871
 30
0.0
 11
-175.16396788414571
 21
-36.0
 31
0.0
  0
LINE
  5
167B
  8
250
 10
0.0
 20
-16.050883315503569
 30
0.0
 11
-0.0000000000000013
 21
-36.0
 31
0.0
  0
LINE
  5
167C
  8
250
 10
-172.93396788414569
 20
-35.0
 30
0.0
 11
-2.2300000000000009
 21
-35.0
 31
0.0
  0
LINE
  5
1680
  8
250
 10
-64.749747479159396
 20
-15.800000846385929
 30
0.0
 11
-64.749747479159396
 21
-29.0
 31
0.0
  0
LINE
  5
1681
  8
250
 10
0.0
 20
-16.050883315503569
 30
0.0
 11
-0.0000000000000008
 21
-29.0
 31
0.0
  0
LINE
  5
1682
  8
250
 10
-62.519747479159399
 20
-28.0
 30
0.0
 11
-2.23
 21
-28.0
 31
0.0
  0
LINE
  5
1686
  8
250
 10
0.1403858170671128
 20
16.0
 30
0.0
 11
15.0
 21
15.999999999999989
 31
0.0
  0
LINE
  5
1687
  8
250
 10
0.1332813462637432
 20
-16.0
 30
0.0
 11
15.0
 21
-16.0
 31
0.0
  0
LINE
  5
1688
  8
250
 10
14.0
 20
13.77
 30
0.0
 11
14.0
 21
-13.77
 31
0.0
  0
LINE
  5
168C
  8
250
 10
-4.8667182859914533
 20
-21.000000000000011
 30
0.0
 11
21.999999999999989
 21
-21.000000000000021
 31
0.0
  0
LINE
  5
168D
  8
250
 10
-4.8667182859915661
 20
21.000000000000028
 30
0.0
 11
22.0
 21
21.000000000000028
 31
0.0
  0
LINE
  5
168E
  8
250
 10
20.999999999999989
 20
-18.770000000000021
 30
0.0
 11
21.0
 21
18.770000000000021
 31
0.0
  0
LINE
  5
1692
  8
250
 10
0.0000000000000009
 20
16.14038579061798
 30
0.0
 11
0.0000000000000071
 21
30.549588727355761
 31
0.0
  0
LINE
  5
1693
  8
250
 10
-5.951929300591809
 20
21.59231552896793
 30
0.0
 11
-10.54239811096252
 21
26.18278467696279
 31
0.0
  0
ARC
  5
1694
  8
250
 10
0.0
 20
15.64038579061798
 30
0.0
 40
13.909202936737779
 50
99.195841687228949
 51
125.8041562057489
  0
LINE
  5
1698
  8
250
 10
-12.86830782348175
 20
16.000000000000028
 30
0.0
 11
-21.20900370316286
 21
16.000000000000028
 31
0.0
  0
LINE
  5
1699
  8
250
 10
-12.86120335275308
 20
-16.0
 30
0.0
 11
-21.20900370316286
 21
-16.0
 31
0.0
  0
LINE
  5
169A
  8
250
 10
-20.20900370316286
 20
13.77000000000003
 30
0.0
 11
-20.209003703162871
 21
-13.77
 31
0.0
  0
TEXT
  5
169E
  8
250
 10
-21.20900370316286
 20
-4.0714285714285587
 30
0.0
 40
3.0
  1
\U+2205
 50
90.0
  0
TEXT
  5
169F
  8
250
 10
-21.20900370316286
 20
-1.357142857142845
 30
0.0
 40
3.0
  1
32
 50
90.0
  0
LINE
  5
16A0
  8
250
 10
-19.837337036496201
 20
-13.77
 30
0.0
 11
-20.209003703162871
 21
-16.0
 31
0.0
  0
LINE
  5
16A1
  8
250
 10
-20.58067036982953
 20
-13.77
 30
0.0
 11
-20.209003703162871
 21
-16.0
 31
0.0
  0
LINE
  5
16A2
  8
250
 10
-20.209003703162871
 20
-16.0
 30
0.0
 11
-20.209003703162871
 21
-13.77
 31
0.0
  0
LINE
  5
16A3
  8
250
 10
-20.58067036982953
 20
13.77000000000003
 30
0.0
 11
-20.20900370316286
 21
16.000000000000028
 31
0.0
  0
LINE
  5
16A4
  8
250
 10
-19.837337036496191
 20
13.77000000000003
 30
0.0
 11
-20.20900370316286
 21
16.000000000000028
 31
0.0
  0
LINE
  5
16A5
  8
250
 10
-20.20900370316286
 20
16.000000000000028
 30
0.0
 11
-20.20900370316286
 21
13.77000000000003
 31
0.0
  0
TEXT
  5
16A6
  8
250
 10
20.0
 20
-4.0714285714285641
 30
0.0
 40
3.0
  1
\U+2205
 50
90.0
  0
TEXT
  5
16A7
  8
250
 10
20.0
 20
-1.3571428571428501
 30
0.0
 40
3.0
  1
42
 50
90.0
  0
LINE
  5
16A8
  8
250
 10
20.62833333333333
 20
18.770000000000021
 30
0.0
 11
21.0
 21
21.000000000000028
 31
0.0
  0
LINE
  5
16A9
  8
250
 10
21.37166666666667
 20
18.770000000000021
 30
0.0
 11
21.0
 21
21.000000000000028
 31
0.0
  0
LINE
  5
16AA
  8
250
 10
21.0
 20
21.000000000000028
 30
0.0
 11
21.0
 21
18.770000000000021
 31
0.0
  0
LINE
  5
16AB
  8
250
 10
21.371666666666659
 20
-18.770000000000021
 30
0.0
 11
20.999999999999989
 21
-21.000000000000021
 31
0.0
  0
LINE
  5
16AC
  8
250
 10
20.62833333333333
 20
-18.770000000000021
 30
0.0
 11
20.999999999999989
 21
-21.000000000000021
 31
0.0
  0
LINE
  5
16AD
  8
250
 10
20.999999999999989
 20
-21.000000000000021
 30
0.0
 11
20.999999999999989
 21
-18.770000000000021
 31
0.0
  0
TEXT
  5
16AE
  8
250
 10
13.0
 20
-4.0714285714285721
 30
0.0
 40
3.0
  1
\U+2205
 50
90.0
  0
TEXT
  5
16AF
  8
250
 10
13.0
 20
-1.357142857142857
 30
0.0
 40
3.0
  1
32
 50
90.0
  0
LINE
  5
16B0
  8
250
 10
14.371666666666661
 20
-13.77
 30
0.0
 11
14.0
 21
-16.0
 31
0.0
  0
LINE
  5
16B1
  8
250
 10
13.62833333333333
 20
-13.77
 30
0.0
 11
14.0
 21
-16.0
 31
0.0
  0
LINE
  5
16B2
  8
250
 10
14.0
 20
-16.0
 30
0.0
 11
14.0
 21
-13.77
 31
0.0
  0
LINE
  5
16B3
  8
250
 10
13.628333333333339
 20
13.77
 30
0.0
 11
14.0
 21
15.999999999999989
 31
0.0
  0
LINE
  5
16B4
  8
250
 10
14.37166666666667
 20
13.77
 30
0.0
 11
14.0
 21
15.999999999999989
 31
0.0
  0
LINE
  5
16B5
  8
250
 10
14.0
 20
15.999999999999989
 30
0.0
 11
14.0
 21
13.77
 31
0.0
  0
TEXT
  5
16B6
  8
250
 10
-9.3406263529244331
 20
28.389362899457389
 30
0.0
 40
2.7999999999999989
  1
45üï
 50
19.50946073123043
  0
LINE
  5
16B7
  8
250
 10
-7.8962185018377546
 20
26.638017139615059
 30
0.0
 11
-9.8352913557794501
 21
25.47567786977277
 31
0.0
  0
LINE
  5
16B8
  8
250
 10
-8.3780081490266998
 20
27.204076483064139
 30
0.0
 11
-9.8352913557794501
 21
25.47567786977277
 31
0.0
  0
LINE
  5
16B9
  8
250
 10
-9.8352913557794501
 20
25.47567786977277
 30
0.0
 11
-8.1371133254322281
 21
26.9210468113396
 31
0.0
  0
LINE
  5
16BA
  8
250
 10
-2.2526172106059472
 20
29.741296352642181
 30
0.0
 11
0.0000000000000071
 21
29.549588727355761
 31
0.0
  0
LINE
  5
16BB
  8
250
 10
-2.1930295641795992
 20
29.000355223511249
 30
0.0
 11
0.0000000000000071
 21
29.549588727355761
 31
0.0
  0
LINE
  5
16BC
  8
250
 10
0.0000000000000071
 20
29.549588727355761
 30
0.0
 11
-2.222823387392773
 21
29.370825788076711
 31
0.0
  0
TEXT
  5
16BD
  8
250
 10
-35.108207072913039
 20
-27.0
 30
0.0
 40
2.7999999999999989
  1
65
  0
LINE
  5
16BE
  8
250
 10
-2.23
 20
-27.62833333333333
 30
0.0
 11
-0.0000000000000008
 21
-28.0
 31
0.0
  0
LINE
  5
16BF
  8
250
 10
-2.23
 20
-28.371666666666659
 30
0.0
 11
-0.0000000000000008
 21
-28.0
 31
0.0
  0
LINE
  5
16C0
  8
250
 10
-0.0000000000000008
 20
-28.0
 30
0.0
 11
-2.23
 21
-28.0
 31
0.0
  0
LINE
  5
16C1
  8
250
 10
-62.519747479159399
 20
-28.371666666666659
 30
0.0
 11
-64.749747479159396
 21
-28.0
 31
0.0
  0
LINE
  5
16C2
  8
250
 10
-62.519747479159399
 20
-27.62833333333333
 30
0.0
 11
-64.749747479159396
 21
-28.0
 31
0.0
  0
LINE
  5
16C3
  8
250
 10
-64.749747479159396
 20
-28.0
 30
0.0
 11
-62.519747479159399
 21
-28.0
 31
0.0
  0
TEXT
  5
16C4
  8
250
 10
-91.781983942072884
 20
-34.0
 30
0.0
 40
2.7999999999999989
  1
175
  0
LINE
  5
16C5
  8
250
 10
-2.2300000000000009
 20
-34.62833333333333
 30
0.0
 11
-0.0000000000000012
 21
-35.0
 31
0.0
  0
LINE
  5
16C6
  8
250
 10
-2.2300000000000009
 20
-35.37166666666667
 30
0.0
 11
-0.0000000000000012
 21
-35.0
 31
0.0
  0
LINE
  5
16C7
  8
250
 10
-0.0000000000000012
 20
-35.0
 30
0.0
 11
-2.2300000000000009
 21
-35.0
 31
0.0
  0
LINE
  5
16C8
  8
250
 10
-172.93396788414569
 20
-35.37166666666667
 30
0.0
 11
-175.16396788414571
 21
-35.0
 31
0.0
  0
LINE
  5
16C9
  8
250
 10
-172.93396788414569
 20
-34.62833333333333
 30
0.0
 11
-175.16396788414571
 21
-35.0
 31
0.0
  0
LINE
  5
16CA
  8
250
 10
-175.16396788414571
 20
-35.0
 30
0.0
 11
-172.93396788414569
 21
-35.0
 31
0.0
  0
TEXT
  5
16CB
  8
250
 10
-190.0
 20
-3.8952388551973129
 30
0.0
 40
3.0
  1
\U+2205
 50
90.0
  0
TEXT
  5
16CC
  8
250
 10
-190.09999999999999
 20
-1.180953140911599
 30
0.0
 40
2.7999999999999989
  1
32
 50
90.0
  0
LINE
  5
16CD
  8
250
 10
-189.37166666666661
 20
13.77000000000003
 30
0.0
 11
-189.0
 21
16.000000000000028
 31
0.0
  0
LINE
  5
16CE
  8
250
 10
-188.6283333333333
 20
13.77000000000003
 30
0.0
 11
-189.0
 21
16.000000000000028
 31
0.0
  0
LINE
  5
16CF
  8
250
 10
-189.0
 20
16.000000000000028
 30
0.0
 11
-189.0
 21
13.77000000000003
 31
0.0
  0
LINE
  5
16D0
  8
250
 10
-188.6283333333333
 20
-13.770001519918409
 30
0.0
 11
-189.0
 21
-16.00000151991841
 31
0.0
  0
LINE
  5
16D1
  8
250
 10
-189.37166666666661
 20
-13.770001519918409
 30
0.0
 11
-189.0
 21
-16.00000151991841
 31
0.0
  0
LINE
  5
16D2
  8
250
 10
-189.0
 20
-16.00000151991841
 30
0.0
 11
-189.0
 21
-13.770001519918409
 31
0.0
  0
INSERT
  5
17D7
  8
240
  2
A$C3D610D05
 10
0.0
 20
0.0
 30
0.0
  0
VIEWPORT
  5
22
 67
     1
  8
0
 10
261.51769911504419
 20
148.5
 30
0.0
 40
523.0353982300885
 41
297.0
 68
     1
 69
     1
1001
ACAD
1000
MVIEW
1002
{
1070
    16
1010
0.0
1020
0.0
1030
0.0
1010
0.0
1020
0.0
1030
1.0
1040
0.0
1040
297.0
1040
261.51769911504419
1040
148.5
1040
50.0
1040
0.0
1040
0.0
1070
     0
1070
   100
1070
     1
1070
     1
1070
     0
1070
     0
1070
     0
1070
     0
1040
0.0
1040
0.0
1040
0.0
1040
1.0
1040
1.0
1040
10.0
1040
10.0
1070
     0
1002
{
1002
}
1002
}
1001
GENIUS_GENODEF_13
1002
{
1000
HIER
1070
     0
1002
}
1002
{
1000
MANEDIT
1070
     0
1002
}
1002
{
1000
NOSEL
1070
     0
1002
}
1002
{
1000
BEHIND
1070
     0
1002
}
1002
{
1000
OTHER
1070
     0
1002
}
1002
{
1000
REACTOR
1002
}
1001
GENIUS_GENOBJ-N-SDF_13
1002
{
1000
OWNER
1000
GEN
1002
}
1001
GENIUS_GENSCREG_15
1000
PF
1040
1.0
1000
DF
1040
1.0
1000
MIN
1011
0.0
1021
0.0
1031
1.1267669659347045E+045
1021
0.0
1031
0.0
1000
MAX
1011
523.0353982300885
1021
0.0
1031
1.1267669659347045E+045
1021
297.0
1031
0.0
1000
FLAGS
1070
     2
  0
ENDSEC
  0
EOF
