  0
SECTION
  2
HEADER
  9
$ACADVER
  1
AC1009
  9
$INSBASE
 10
0.0
 20
0.0
 30
0.0
  9
$EXTMIN
 10
-227.90000000000001
 20
-36.0
 30
0.0
  9
$EXTMAX
 10
22.0
 20
40.000000000000021
 30
0.0
  9
$LIMMIN
 10
0.0
 20
0.0
  9
$LIMMAX
 10
297.0
 20
210.0
  9
$ORTHOMODE
 70
     0
  9
$REGENMODE
 70
     1
  9
$FILLMODE
 70
     1
  9
$QTEXTMODE
 70
     0
  9
$MIRRTEXT
 70
     1
  9
$DRAGMODE
 70
     2
  9
$LTSCALE
 40
10.0
  9
$OSMODE
 70
  2799
  9
$ATTMODE
 70
     1
  9
$TEXTSIZE
 40
3.0
  9
$TRACEWID
 40
1.0
  9
$TEXTSTYLE
  7
YOKO
  9
$CLAYER
  8
240
  9
$CELTYPE
  6
BYLAYER
  9
$CECOLOR
 62
   256
  9
$DIMSCALE
 40
1.0
  9
$DIMASZ
 40
2.2299999999999991
  9
$DIMEXO
 40
0.5
  9
$DIMDLI
 40
7.0
  9
$DIMRND
 40
0.0
  9
$DIMDLE
 40
0.0
  9
$DIMEXE
 40
1.0
  9
$DIMTP
 40
0.0
  9
$DIMTM
 40
0.01
  9
$DIMTXT
 40
2.799999999999998
  9
$DIMCEN
 40
0.0
  9
$DIMTSZ
 40
0.0
  9
$DIMTOL
 70
     0
  9
$DIMLIM
 70
     0
  9
$DIMTIH
 70
     0
  9
$DIMTOH
 70
     0
  9
$DIMSE1
 70
     0
  9
$DIMSE2
 70
     0
  9
$DIMTAD
 70
     3
  9
$DIMZIN
 70
     9
  9
$DIMBLK
  1
OPEN
  9
$DIMASO
 70
     1
  9
$DIMSHO
 70
     1
  9
$DIMPOST
  1

  9
$DIMAPOST
  1

  9
$DIMALT
 70
     0
  9
$DIMALTD
 70
     2
  9
$DIMALTF
 40
25.399999999999999
  9
$DIMLFAC
 40
1.0
  9
$DIMTOFL
 70
     1
  9
$DIMTVP
 40
0.0
  9
$DIMTIX
 70
     1
  9
$DIMSOXD
 70
     0
  9
$DIMSAH
 70
     0
  9
$DIMBLK1
  1

  9
$DIMBLK2
  1

  9
$DIMSTYLE
  2
BIGT
  9
$DIMCLRD
 70
   256
  9
$DIMCLRE
 70
   256
  9
$DIMCLRT
 70
    40
  9
$DIMTFAC
 40
1.0
  9
$DIMGAP
 40
1.0
  9
$LUNITS
 70
     2
  9
$LUPREC
 70
     3
  9
$SKETCHINC
 40
1.0
  9
$FILLETRAD
 40
0.0
  9
$AUNITS
 70
     0
  9
$AUPREC
 70
     3
  9
$MENU
  1
.
  9
$ELEVATION
 40
0.0
  9
$PELEVATION
 40
0.0
  9
$THICKNESS
 40
0.0
  9
$LIMCHECK
 70
     0
  9
$BLIPMODE
 70
     0
  9
$CHAMFERA
 40
0.25
  9
$CHAMFERB
 40
0.25
  9
$SKPOLY
 70
     0
  9
$TDCREATE
 40
2454090.3673450118
  9
$TDUPDATE
 40
2454809.4342169329
  9
$TDINDWG
 40
0.0221524074
  9
$TDUSRTIMER
 40
0.0221520486
  9
$USRTIMER
 70
     1
  9
$ANGBASE
 50
0.0
  9
$ANGDIR
 70
     0
  9
$PDMODE
 70
     1
  9
$PDSIZE
 40
0.0
  9
$PLINEWID
 40
0.0
  9
$COORDS
 70
     0
  9
$SPLFRAME
 70
     0
  9
$SPLINETYPE
 70
     6
  9
$SPLINESEGS
 70
     4
  9
$ATTDIA
 70
     1
  9
$ATTREQ
 70
     1
  9
$HANDLING
 70
     1
  9
$HANDSEED
  5
1FA7
  9
$SURFTAB1
 70
     6
  9
$SURFTAB2
 70
     6
  9
$SURFTYPE
 70
     6
  9
$SURFU
 70
     6
  9
$SURFV
 70
     6
  9
$UCSNAME
  2

  9
$UCSORG
 10
0.0
 20
0.0
 30
0.0
  9
$UCSXDIR
 10
1.0
 20
0.0
 30
0.0
  9
$UCSYDIR
 10
0.0
 20
1.0
 30
0.0
  9
$PUCSNAME
  2

  9
$PUCSORG
 10
0.0
 20
0.0
 30
0.0
  9
$PUCSXDIR
 10
1.0
 20
0.0
 30
0.0
  9
$PUCSYDIR
 10
0.0
 20
1.0
 30
0.0
  9
$USERI1
 70
     1
  9
$USERI2
 70
     0
  9
$USERI3
 70
     0
  9
$USERI4
 70
     0
  9
$USERI5
 70
     0
  9
$USERR1
 40
0.0
  9
$USERR2
 40
0.0
  9
$USERR3
 40
0.0
  9
$USERR4
 40
0.0
  9
$USERR5
 40
0.0
  9
$WORLDVIEW
 70
     1
  9
$SHADEDGE
 70
     3
  9
$SHADEDIF
 70
    70
  9
$TILEMODE
 70
     1
  9
$MAXACTVP
 70
    16
  9
$PLIMCHECK
 70
     0
  9
$PEXTMIN
 10
1.0000000000000000E+020
 20
1.0000000000000000E+020
 30
1.0000000000000000E+020
  9
$PEXTMAX
 10
-1.0000000000000000E+020
 20
-1.0000000000000000E+020
 30
-1.0000000000000000E+020
  9
$PLIMMIN
 10
0.0
 20
0.0
  9
$PLIMMAX
 10
420.0
 20
297.0
  9
$UNITMODE
 70
     0
  9
$VISRETAIN
 70
     1
  9
$PLINEGEN
 70
     0
  9
$PSLTSCALE
 70
     1
  0
ENDSEC
  0
SECTION
  2
TABLES
  0
TABLE
  2
VPORT
 70
     3
  0
VPORT
  2
*ACTIVE
 70
     0
 10
0.0
 20
0.0
 11
1.0
 21
1.0
 12
-102.9375426290039
 22
2.001591341901217
 13
0.0
 23
0.0
 14
7.0
 24
7.0
 15
7.0
 25
7.0
 16
0.0
 26
0.0
 36
1.0
 17
0.0
 27
0.0
 37
0.0
 40
162.0271256710528
 41
1.5487804878048781
 42
50.0
 43
0.0
 44
0.0
 50
0.0
 51
0.0
 71
     0
 72
  2000
 73
     1
 74
     0
 75
     1
 76
     0
 77
     0
 78
     0
  0
ENDTAB
  0
TABLE
  2
LTYPE
 70
    16
  0
LTYPE
  2
CONTINUOUS
 70
     0
  3
Solid line
 72
    65
 73
     0
 40
0.0
  0
LTYPE
  2
CENTER2
 70
     0
  3
___ _ ___ _ ___ _ ___ _ ___ _ ___ _ ___ _ ___ _
 72
    65
 73
     4
 40
1.125
 49
0.75
 49
-0.125
 49
0.125
 49
-0.125
  0
LTYPE
  2
HIDDEN2
 70
     0
  3
_ _ _ _ _ _ _ _ _ _ _ _ _ _ _ _ _ _ _ _ _ _ _ _
 72
    65
 73
     2
 40
0.1875
 49
0.125
 49
-0.0625
  0
LTYPE
  2
PHANTOM2
 70
     0
  3
___ _ _ ___ _ _ ___ _ _ ___ _ _ ___ _ _ ___ _ _
 72
    65
 73
     6
 40
1.25
 49
0.625
 49
-0.125
 49
0.125
 49
-0.125
 49
0.125
 49
-0.125
  0
LTYPE
  2
CENTER
 70
     0
  3
____ _ ____ _ ____ _ ____ _ ____ _ ____ _ ____ 
 72
    65
 73
     4
 40
2.0
 49
1.25
 49
-0.25
 49
0.25
 49
-0.25
  0
LTYPE
  2
AMCONSTR
 70
     0
  3
_______________________
 72
    65
 73
     2
 40
9999.0
 49
9999.0
 49
0.0
  0
LTYPE
  2
HIDDEN
 70
     0
  3
Hidden __ __ __ __ __ __ __ __ __ __ __ __ __ _
 72
    65
 73
     2
 40
9.5249999999999986
 49
6.3499999999999979
 49
-3.174999999999998
  0
LTYPE
  2
AMZIGZAG2
 70
     0
  3
/\/-/\/-/\/-/\/-/\/-/\/
 72
    65
 73
     2
 40
0.4401
 49
0.0001
 49
-0.4400000000000001
  0
LTYPE
  2
ACANSTGB
 70
     0
  3
__ . . __ . .
 72
    65
 73
     6
 40
0.35433070866
 49
0.15748031496
 49
-0.03937007874
 49
0.03937007874
 49
-0.03937007874
 49
0.03937007874
 49
-0.03937007874
  0
LTYPE
  2
ACANSTGL
 70
     0
  3
_ _ _ _ _
 72
    65
 73
     2
 40
0.11811023622
 49
0.07874015748
 49
-0.03937007874
  0
ENDTAB
  0
TABLE
  2
LAYER
 70
     8
  0
LAYER
  2
0
 70
     0
 62
     7
  6
CONTINUOUS
  0
LAYER
  2
240
 70
     0
 62
     4
  6
CONTINUOUS
  0
LAYER
  2
DEFPOINTS
 70
     0
 62
     7
  6
CONTINUOUS
  0
LAYER
  2
245
 70
     0
 62
     2
  6
CENTER2
  0
LAYER
  2
241
 70
     0
 62
   211
  6
CONTINUOUS
  0
LAYER
  2
246
 70
     0
 62
     3
  6
PHANTOM2
  0
LAYER
  2
247
 70
     0
 62
    60
  6
CONTINUOUS
  0
LAYER
  2
250
 70
     0
 62
     3
  6
CONTINUOUS
  0
ENDTAB
  0
TABLE
  2
STYLE
 70
     5
  0
STYLE
  2
STANDARD
 70
     0
 40
0.0
 41
1.0
 50
0.0
 71
     0
 42
3.0
  3
romans.shx
  4
extfont.shx
  0
STYLE
  2
YOKO
 70
     0
 40
0.0
 41
1.0
 50
0.0
 71
     0
 42
3.0
  3
romans.shx
  4
extfont.shx
  0
STYLE
  2

 70
     1
 40
0.0
 41
1.0
 50
0.0
 71
     0
 42
3.0
  3
ltypeshp.shx
  4

  0
STYLE
  2
ACANSTS
 70
     0
 40
1.0
 41
1.0
 50
0.0
 71
     0
 42
3.0
  3
romans.shx
  4
extfont.shx
  0
STYLE
  2
ACANSGDT
 70
     0
 40
0.0
 41
1.0
 50
0.0
 71
     0
 42
3.0
  3
amgdtans.shx
  4

  0
ENDTAB
  0
TABLE
  2
VIEW
 70
     0
  0
ENDTAB
  0
TABLE
  2
UCS
 70
     0
  0
ENDTAB
  0
TABLE
  2
APPID
 70
    31
  0
APPID
  2
ACAD
 70
     0
  0
APPID
  2
GLOBAL
 70
     0
  0
APPID
  2
DETAIL
 70
     0
  0
APPID
  2
GRPNAME
 70
     0
  0
APPID
  2
GPARA
 70
     0
  0
APPID
  2
MCAD_NO_VIS
 70
     0
  0
APPID
  2
ACAD_TEMP_GRAPHIC
 70
     0
  0
APPID
  2
ACATTRIBSERVICES
 70
     0
  0
APPID
  2
GENIUS_GENSCREG_15
 70
     0
  0
APPID
  2
GENIUS_GENODEF_13
 70
     0
  0
APPID
  2
GENIUS_GENOBJ-N-SDF_13
 70
     0
  0
APPID
  2
GENIUS_GENREC_14
 70
     0
  0
APPID
  2
GENIUS_GENOBJ-N-REC_13
 70
     0
  0
APPID
  2
GENIUS_GENDIMSH_14
 70
     0
  0
APPID
  2
GENIUS_GENOBJ-N-DIM_13
 70
     0
  0
APPID
  2
GENIUS_GENDIM_13
 70
     0
  0
APPID
  2
GENIUS_GENDTOL_13
 70
     0
  0
APPID
  2
GENIUS_GENOLIS_13
 70
     0
  0
APPID
  2
GENIUS_GENOENT_13
 70
     0
  0
APPID
  2
GENIUS_GENOBJ-F-FEM_13
 70
     0
  0
APPID
  2
GENIUS_GENOREF_13
 70
     0
  0
APPID
  2
GENIUS_GEFFEM_13
 70
     0
  0
APPID
  2
GENIUS_GEFFEMP_13
 70
     0
  0
APPID
  2
AD_DRAW
 70
     0
  0
APPID
  2
DESIGNERASSEMBLIES
 70
     0
  0
APPID
  2
ACADM_DIM_EDIT
 70
     0
  0
APPID
  2
AMDT_DM_ADJ
 70
     0
  0
APPID
  2
GENIUS_GENOBJ-N-FIL_13
 70
     0
  0
APPID
  2
HATCH_TYPE
 70
     0
  0
APPID
  2
HATCH_DISPLAY
 70
     0
  0
APPID
  2
HATCH_DISTANCE
 70
     0
  0
ENDTAB
  0
TABLE
  2
DIMSTYLE
 70
     7
  0
DIMSTYLE
  2
BIGT
 70
     0
  3

  4

  5

  6

  7

 40
1.0
 41
2.2299999999999991
 42
0.5
 43
7.0
 44
1.0
 45
0.0
 46
0.0
 47
0.0
 48
0.01
140
2.799999999999998
141
0.0
142
0.0
143
25.399999999999999
144
1.0
145
0.0
146
1.0
147
1.0
 71
     0
 72
     0
 73
     0
 74
     0
 75
     0
 76
     0
 77
     3
 78
     9
170
     0
171
     2
172
     1
173
     0
174
     1
175
     0
176
   256
177
   256
178
    40
  0
DIMSTYLE
  2
AM_ANSI
 70
     0
  3

  4
mm
  5

  6

  7

 40
1.0
 41
0.1
 42
0.05
 43
0.5
 44
0.1
 45
0.0
 46
0.0
 47
0.1
 48
0.1
140
0.12
141
0.0
142
0.0
143
25.399999999999999
144
1.0
145
0.0
146
0.71
147
0.06
 71
     0
 72
     0
 73
     1
 74
     1
 75
     0
 76
     0
 77
     0
 78
     7
170
     0
171
     2
172
     0
173
     0
174
     0
175
     0
176
   256
177
   256
178
     2
  0
DIMSTYLE
  2
AM_ANSI$3
 70
     0
  3

  4
mm
  5

  6

  7

 40
1.0
 41
0.1
 42
0.05
 43
0.5
 44
0.1
 45
0.0
 46
0.0
 47
0.1
 48
0.1
140
0.12
141
0.0
142
0.0
143
25.399999999999999
144
1.0
145
0.0
146
0.71
147
0.06
 71
     0
 72
     0
 73
     1
 74
     1
 75
     0
 76
     0
 77
     0
 78
     7
170
     0
171
     2
172
     0
173
     0
174
     0
175
     0
176
   256
177
   256
178
     2
  0
DIMSTYLE
  2
AM_ANSI$4
 70
     0
  3

  4
mm
  5

  6

  7

 40
1.0
 41
0.1
 42
0.05
 43
0.5
 44
0.1
 45
0.0
 46
0.0
 47
0.1
 48
0.1
140
0.12
141
0.0
142
0.0
143
25.399999999999999
144
1.0
145
0.0
146
0.71
147
0.06
 71
     0
 72
     0
 73
     1
 74
     1
 75
     0
 76
     0
 77
     0
 78
     7
170
     0
171
     2
172
     0
173
     0
174
     0
175
     0
176
   256
177
   256
178
     2
  0
DIMSTYLE
  2
AM_ANSI$7
 70
     0
  3

  4
mm
  5

  6

  7

 40
1.0
 41
0.1
 42
0.05
 43
0.5
 44
0.1
 45
0.0
 46
0.0
 47
0.1
 48
0.1
140
0.24
141
0.0
142
0.0
143
25.399999999999999
144
1.0
145
0.0
146
0.71
147
0.06
 71
     0
 72
     0
 73
     1
 74
     1
 75
     0
 76
     0
 77
     0
 78
     7
170
     0
171
     2
172
     0
173
     0
174
     0
175
     0
176
   256
177
   256
178
     2
  0
DIMSTYLE
  2
AM_ANSI$SF
 70
     0
  3

  4
mm
  5

  6

  7

 40
1.0
 41
0.1
 42
0.05
 43
0.5
 44
0.1
 45
0.0
 46
0.0
 47
0.1
 48
0.1
140
0.12
141
0.0
142
0.0
143
25.399999999999999
144
1.0
145
0.0
146
0.71
147
0.06
 71
     0
 72
     0
 73
     1
 74
     1
 75
     1
 76
     1
 77
     0
 78
     7
170
     0
171
     2
172
     0
173
     0
174
     0
175
     0
176
   256
177
   256
178
     2
  0
DIMSTYLE
  2
AM_ANSI$SH
 70
     0
  3

  4
mm
  5

  6
GENAXEH
  7

 40
1.0
 41
0.1
 42
0.05
 43
0.5
 44
0.1
 45
0.0
 46
0.0
 47
0.1
 48
0.1
140
0.12
141
0.0
142
0.0
143
25.399999999999999
144
1.0
145
0.0
146
0.71
147
0.06
 71
     0
 72
     0
 73
     1
 74
     1
 75
     1
 76
     1
 77
     0
 78
     7
170
     0
171
     2
172
     0
173
     1
174
     0
175
     0
176
   256
177
   256
178
     2
  0
ENDTAB
  0
ENDSEC
  0
SECTION
  2
BLOCKS
  0
BLOCK
  8
0
  2
$MODEL_SPACE
 70
     0
 10
0.0
 20
0.0
 30
0.0
  3
$MODEL_SPACE
  1

  0
ENDBLK
  5
1929
  8
0
  0
BLOCK
 67
     1
  8
0
  2
$PAPER_SPACE
 70
     0
 10
0.0
 20
0.0
 30
0.0
  3
$PAPER_SPACE
  1

  0
ENDBLK
  5
1925
 67
     1
  8
0
  0
BLOCK
  8
0
  2
_OPEN
 70
     0
 10
0.0
 20
0.0
 30
0.0
  3
_OPEN
  1

  0
LINE
  5
595
  8
0
  6
BYBLOCK
 62
     0
 10
-1.0
 20
0.1666666666666666
 30
0.0
 11
0.0
 21
0.0
 31
0.0
  0
LINE
  5
596
  8
0
  6
BYBLOCK
 62
     0
 10
-1.0
 20
-0.1666666666666666
 30
0.0
 11
0.0
 21
0.0
 31
0.0
  0
LINE
  5
597
  8
0
  6
BYBLOCK
 62
     0
 10
0.0
 20
0.0
 30
0.0
 11
-1.0
 21
0.0
 31
0.0
  0
ENDBLK
  5
599
  8
0
  0
BLOCK
  8
0
  2
GENAXEH
 70
     0
 10
0.0
 20
0.0
 30
0.0
  3
GENAXEH
  1

  0
LINE
  5
6E8
  8
0
 10
-1.0
 20
0.0
 30
0.0
 11
1.0
 21
0.0
 31
0.0
  0
ENDBLK
  5
6EA
  8
0
  0
BLOCK
  8
0
  2
A$C35555145
 70
     0
 10
0.0
 20
0.0
 30
0.0
  3
A$C35555145
  1

  0
LINE
  5
1C97
  8
247
 10
-200.26571378952849
 20
-11.236191631471501
 30
0.0
 11
-199.3763417812458
 21
-10.346819623188839
 31
0.0
  0
LINE
  5
1C98
  8
247
 10
-200.30218957504201
 20
-11.5312987932717
 30
0.0
 11
-200.0311884440699
 21
-11.260297662299619
 31
0.0
  0
LINE
  5
1C99
  8
247
 10
-199.35223575041769
 20
-10.581344968647491
 30
0.0
 11
-199.08123461944561
 21
-10.31034383767541
 31
0.0
  0
LINE
  5
1C9A
  8
247
 10
-200.2794562149175
 20
-11.767196809433999
 30
0.0
 11
-200.0690878381516
 21
-11.55682843266818
 31
0.0
  0
LINE
  5
1C9B
  8
247
 10
-199.05540728096079
 20
-10.54314787547742
 30
0.0
 11
-198.82260259346091
 21
-10.31034318797742
 31
0.0
  0
LINE
  5
1C9C
  8
247
 10
-200.2218910181376
 20
-11.968262988940859
 30
0.0
 11
-200.0370535051895
 21
-11.78342547599286
 31
0.0
  0
LINE
  5
1C9D
  8
247
 10
-198.79677590467409
 20
-10.54314787547742
 30
0.0
 11
-198.6133674598581
 21
-10.359739430661421
 31
0.0
  0
LINE
  5
1C9E
  8
247
 10
-200.13852458523431
 20
-12.143527932324449
 30
0.0
 11
-199.96662621700921
 21
-11.97162956409934
 31
0.0
  0
LINE
  5
1C9F
  8
247
 10
-200.0335071083725
 20
-12.297141831749441
 30
0.0
 11
-199.86766048172211
 21
-12.13129520509904
 31
0.0
  0
LINE
  5
1CA0
  8
247
 10
-199.90866818276001
 20
-12.43093428242374
 30
0.0
 11
-199.74388491209089
 21
-12.266151011754619
 31
0.0
  0
LINE
  5
1CA1
  8
247
 10
-199.76432160433109
 20
-12.545219080281599
 30
0.0
 11
-199.5959060945641
 21
-12.376803570514641
 31
0.0
  0
LINE
  5
1CA2
  8
247
 10
-199.5993859545969
 20
-12.638914806834251
 30
0.0
 11
-199.42159385410289
 21
-12.461122706340181
 31
0.0
  0
LINE
  5
1CA3
  8
247
 10
-199.41094797440249
 20
-12.70910820292657
 30
0.0
 11
-199.21460713406759
 21
-12.51276736259168
 31
0.0
  0
LINE
  5
1CA4
  8
247
 10
-199.19276749777461
 20
-12.74955910258546
 30
0.0
 11
-198.96517881094971
 21
-12.521970415760631
 31
0.0
  0
LINE
  5
1CA5
  8
247
 10
-198.93935211617151
 20
-12.754775097269119
 30
0.0
 11
-198.70654743466301
 21
-12.521970415760631
 31
0.0
  0
LINE
  5
1CA6
  8
247
 10
-198.68072073988469
 20
-12.754775097269119
 30
0.0
 11
-198.44791605837611
 21
-12.521970415760631
 31
0.0
  0
LINE
  5
1CA7
  8
247
 10
-198.42208936359791
 20
-12.754775097269119
 30
0.0
 11
-198.18928468208941
 21
-12.521970415760631
 31
0.0
  0
LINE
  5
1CA8
  8
247
 10
-198.16345798731109
 20
-12.75477509726913
 30
0.0
 11
-197.93065330580259
 21
-12.521970415760631
 31
0.0
  0
LINE
  5
1CA9
  8
247
 10
-197.9048266110243
 20
-12.75477509726913
 30
0.0
 11
-197.67202192951581
 21
-12.521970415760631
 31
0.0
  0
LINE
  5
1CAA
  8
247
 10
-197.64619523473749
 20
-12.754775097269119
 30
0.0
 11
-197.41339055322899
 21
-12.521970415760631
 31
0.0
  0
LINE
  5
1CAB
  8
247
 10
-197.3875638584507
 20
-12.754775097269119
 30
0.0
 11
-197.15475917694221
 21
-12.521970415760631
 31
0.0
  0
LINE
  5
1CAC
  8
247
 10
-197.12893248216389
 20
-12.754775097269119
 30
0.0
 11
-196.89612780065539
 21
-12.521970415760631
 31
0.0
  0
LINE
  5
1CAD
  8
247
 10
-196.8703011058771
 20
-12.754775097269119
 30
0.0
 11
-196.63749642436861
 21
-12.521970415760631
 31
0.0
  0
LINE
  5
1CAE
  8
247
 10
-194.6178678669356
 20
-10.50234185832764
 30
0.0
 11
-194.4281141803238
 21
-10.312588171715831
 31
0.0
  0
LINE
  5
1CAF
  8
247
 10
-196.61166972959029
 20
-12.75477509726913
 30
0.0
 11
-196.37886504808179
 21
-12.521970415760631
 31
0.0
  0
LINE
  5
1CB0
  8
247
 10
-194.40116397380621
 20
-10.544269341484981
 30
0.0
 11
-194.17973502429379
 21
-10.32284039197263
 31
0.0
  0
LINE
  5
1CB1
  8
247
 10
-196.3530383533035
 20
-12.754775097269119
 30
0.0
 11
-196.12023367179509
 21
-12.521970415760631
 31
0.0
  0
LINE
  5
1CB2
  8
247
 10
-194.16052573981889
 20
-10.56226248378449
 30
0.0
 11
-193.97039038993961
 21
-10.37212713390516
 31
0.0
  0
LINE
  5
1CB3
  8
247
 10
-196.09440697701669
 20
-12.754775097269119
 30
0.0
 11
-195.86160229550831
 21
-12.521970415760631
 31
0.0
  0
LINE
  5
1CB4
  8
247
 10
-193.96324182214209
 20
-10.623609942394539
 30
0.0
 11
-193.78863427457659
 21
-10.44900239482897
 31
0.0
  0
LINE
  5
1CB5
  8
247
 10
-195.8357756007299
 20
-12.75477509726913
 30
0.0
 11
-195.60297091922149
 21
-12.52197041576062
 31
0.0
  0
LINE
  5
1CB6
  8
247
 10
-193.79633095397901
 20
-10.715330450518129
 30
0.0
 11
-193.62937184742361
 21
-10.54837134396278
 31
0.0
  0
LINE
  5
1CB7
  8
247
 10
-195.5771442244432
 20
-12.75477509726913
 30
0.0
 11
-195.3443395429347
 21
-12.521970415760631
 31
0.0
  0
LINE
  5
1CB8
  8
247
 10
-193.65487944367129
 20
-10.83251031649729
 30
0.0
 11
-193.49026164533601
 21
-10.66789251816193
 31
0.0
  0
LINE
  5
1CB9
  8
247
 10
-195.31851284815639
 20
-12.75477509726913
 30
0.0
 11
-195.08570816664789
 21
-12.521970415760631
 31
0.0
  0
LINE
  5
1CBA
  8
247
 10
-193.53753801785061
 20
-10.973800266963419
 30
0.0
 11
-193.37061047490121
 21
-10.806872724013971
 31
0.0
  0
LINE
  5
1CBB
  8
247
 10
-195.0598814718696
 20
-12.754775097269119
 30
0.0
 11
-194.8270767903611
 21
-12.521970415760631
 31
0.0
  0
LINE
  5
1CBC
  8
247
 10
-193.4456373075347
 20
-11.14053093293426
 30
0.0
 11
-193.2711021097933
 21
-10.96599573519282
 31
0.0
  0
LINE
  5
1CBD
  8
247
 10
-194.80125009558279
 20
-12.754775097269119
 30
0.0
 11
-194.56844541407429
 21
-12.521970415760631
 31
0.0
  0
LINE
  5
1CBE
  8
247
 10
-193.3840592221874
 20
-11.33758422387373
 30
0.0
 11
-193.19406474385869
 21
-11.14758974554503
 31
0.0
  0
LINE
  5
1CBF
  8
247
 10
-194.542618719296
 20
-12.75477509726913
 30
0.0
 11
-194.30877653236141
 21
-12.520932910334469
 31
0.0
  0
LINE
  5
1CC0
  8
247
 10
-193.36569522894541
 20
-11.577851606918539
 30
0.0
 11
-193.1445677443445
 21
-11.35672412231764
 31
0.0
  0
LINE
  5
1CC1
  8
247
 10
-194.28185163877541
 20
-12.75263939303529
 30
0.0
 11
-193.97617146309011
 21
-12.44695921735002
 31
0.0
  0
LINE
  5
1CC2
  8
247
 10
-193.43966892192989
 20
-11.91045667618981
 30
0.0
 11
-193.1339887462446
 21
-11.60477650050454
 31
0.0
  0
LINE
  5
1CC3
  8
247
 10
-193.9601282501111
 20
-12.68954738065784
 30
0.0
 11
-193.19708075862201
 21
-11.926499889168779
 31
0.0
  0
LINE
  5
1CC4
  8
247
 10
-196.77760819850661
 20
-10.334399803317551
 30
0.0
 11
-196.75355158316651
 21
-10.31034318797742
 31
0.0
  0
LINE
  5
1CC5
  8
247
 10
-196.76273825503409
 20
-10.5781612361318
 30
0.0
 11
-196.49492020687981
 21
-10.310343187977431
 31
0.0
  0
LINE
  5
1CC6
  8
247
 10
-196.86671514779911
 20
-10.94076950518353
 30
0.0
 11
-196.23628883059291
 21
-10.31034318797742
 31
0.0
  0
LINE
  5
1CC7
  8
247
 10
-196.97069204056399
 20
-11.30337777423526
 30
0.0
 11
-196.24066465262081
 21
-10.57335038629204
 31
0.0
  0
LINE
  5
1CC8
  8
247
 10
-197.07466893332889
 20
-11.66598604328699
 30
0.0
 11
-196.34464012643821
 21
-10.935957236396289
 31
0.0
  0
LINE
  5
1CC9
  8
247
 10
-197.17864582609391
 20
-12.02859431233871
 30
0.0
 11
-196.44861560025569
 21
-11.29856408650053
 31
0.0
  0
LINE
  5
1CCA
  8
247
 10
-197.28262271885879
 20
-12.391202581390431
 30
0.0
 11
-196.55259107407309
 21
-11.66117093660478
 31
0.0
  0
LINE
  5
1CCB
  8
247
 10
-197.03835683319221
 20
-12.405568072010601
 30
0.0
 11
-196.65656654789061
 21
-12.023777786709029
 31
0.0
  0
LINE
  5
1CCC
  8
247
 10
-196.7797254569054
 20
-12.405568072010601
 30
0.0
 11
-196.76054202170809
 21
-12.38638463681326
 31
0.0
  0
LINE
  5
1CCD
  8
247
 10
-196.18962596092251
 20
-11.03957444716732
 30
0.0
 11
-195.4641062281226
 21
-10.314054714367449
 31
0.0
  0
LINE
  5
1CCE
  8
247
 10
-196.27548972133371
 20
-11.384069583865379
 30
0.0
 11
-195.2207602008707
 21
-10.329340063402309
 31
0.0
  0
LINE
  5
1CCF
  8
247
 10
-196.3121364481301
 20
-11.67934768694856
 30
0.0
 11
-195.55303766519279
 21
-10.92024890401121
 31
0.0
  0
LINE
  5
1CD0
  8
247
 10
-195.20683185664379
 20
-10.574043095462249
 30
0.0
 11
-195.0325092931611
 21
-10.399720531979559
 31
0.0
  0
LINE
  5
1CD1
  8
247
 10
-196.27099205773379
 20
-11.896834672839001
 30
0.0
 11
-195.6570144980177
 21
-11.282857113122891
 31
0.0
  0
LINE
  5
1CD2
  8
247
 10
-195.05832922769139
 20
-10.68417184279661
 30
0.0
 11
-194.77266409162871
 21
-10.398506706733899
 31
0.0
  0
LINE
  5
1CD3
  8
247
 10
-196.18507637637049
 20
-12.06955036776252
 30
0.0
 11
-195.76099133084259
 21
-11.645465322234569
 31
0.0
  0
LINE
  5
1CD4
  8
247
 10
-194.73489924969149
 20
-10.619373241083551
 30
0.0
 11
-194.71066065084489
 21
-10.595134642236919
 31
0.0
  0
LINE
  5
1CD5
  8
247
 10
-196.06541068267401
 20
-12.20851605035285
 30
0.0
 11
-195.81885319045
 21
-11.961958558128829
 31
0.0
  0
LINE
  5
1CD6
  8
247
 10
-195.30797024217361
 20
-11.45107560985242
 30
0.0
 11
-195.07516555467359
 21
-11.218270922352421
 31
0.0
  0
LINE
  5
1CD7
  8
247
 10
-195.913906017291
 20
-12.315642761256649
 30
0.0
 11
-195.7106266509889
 21
-12.112363394954491
 31
0.0
  0
LINE
  5
1CD8
  8
247
 10
-195.25588578128921
 20
-11.657622525254739
 30
0.0
 11
-194.8165341783868
 21
-11.21827092235243
 31
0.0
  0
LINE
  5
1CD9
  8
247
 10
-195.7259132530194
 20
-12.386281373271791
 30
0.0
 11
-195.4525967388463
 21
-12.1129648590987
 31
0.0
  0
LINE
  5
1CDA
  8
247
 10
-195.3732023426812
 20
-12.03357046293357
 30
0.0
 11
-194.6807612264702
 21
-11.341129346722621
 31
0.0
  0
LINE
  5
1CDB
  8
247
 10
-195.4830381871983
 20
-12.40203768373744
 30
0.0
 11
-194.78473770586439
 21
-11.703737202403531
 31
0.0
  0
LINE
  5
1CDC
  8
247
 10
-195.10696506593359
 20
-12.28459593875961
 30
0.0
 11
-194.88871418525841
 21
-12.06634505808443
 31
0.0
  0
LINE
  5
1CDD
  8
247
 10
-196.16524881849
 20
-10.31034318797742
 30
0.0
 11
-196.77070975599
 21
-10.31034318797742
 31
0.0
1001
HATCH_DISTANCE
1040
1.0
1001
HATCH_DISPLAY
1070
     0
1001
HATCH_TYPE
1070
     7
  0
LINE
  5
1CDE
  8
247
 10
-196.7660427638024
 20
-12.40556807201059
 30
0.0
 11
-196.16524881849
 21
-10.31034318797742
 31
0.0
1001
HATCH_DISTANCE
1040
1.0
1001
HATCH_DISPLAY
1070
     0
1001
HATCH_TYPE
1070
     7
  0
LINE
  5
1CDF
  8
247
 10
-197.28674198255251
 20
-12.40556807201059
 30
0.0
 11
-196.7660427638024
 21
-12.40556807201059
 31
0.0
1001
HATCH_DISTANCE
1040
1.0
1001
HATCH_DISPLAY
1070
     0
1001
HATCH_TYPE
1070
     7
  0
LINE
  5
1CE0
  8
247
 10
-196.7593718653649
 20
-10.56642131297742
 30
0.0
 11
-197.28674198255251
 21
-12.40556807201059
 31
0.0
1001
HATCH_DISTANCE
1040
1.0
1001
HATCH_DISPLAY
1070
     0
1001
HATCH_TYPE
1070
     7
  0
LINE
  5
1CE1
  8
247
 10
-196.84414237317739
 20
-10.56642131297742
 30
0.0
 11
-196.7593718653649
 21
-10.56642131297742
 31
0.0
1001
HATCH_DISTANCE
1040
1.0
1001
HATCH_DISPLAY
1070
     0
1001
HATCH_TYPE
1070
     7
  0
LINE
  5
1CE2
  8
247
 10
-196.77070975599
 20
-10.31034318797742
 30
0.0
 11
-196.84414237317739
 21
-10.56642131297742
 31
0.0
1001
HATCH_DISTANCE
1040
1.0
1001
HATCH_DISPLAY
1070
     0
1001
HATCH_TYPE
1070
     7
  0
LINE
  5
1CE3
  8
247
 10
-196.16524881849
 20
-10.31034318797742
 30
0.0
 11
-196.77070975599
 21
-10.31034318797742
 31
0.0
  0
LINE
  5
1CE4
  8
247
 10
-196.7660427638024
 20
-12.40556807201059
 30
0.0
 11
-196.16524881849
 21
-10.31034318797742
 31
0.0
  0
LINE
  5
1CE5
  8
247
 10
-197.28674198255251
 20
-12.40556807201059
 30
0.0
 11
-196.7660427638024
 21
-12.40556807201059
 31
0.0
  0
LINE
  5
1CE6
  8
247
 10
-196.7593718653649
 20
-10.56642131297742
 30
0.0
 11
-197.28674198255251
 21
-12.40556807201059
 31
0.0
  0
LINE
  5
1CE7
  8
247
 10
-196.84414237317739
 20
-10.56642131297742
 30
0.0
 11
-196.7593718653649
 21
-10.56642131297742
 31
0.0
  0
LINE
  5
1CE8
  8
247
 10
-196.77070975599
 20
-10.31034318797742
 30
0.0
 11
-196.84414237317739
 21
-10.56642131297742
 31
0.0
  0
LINE
  5
1CE9
  8
247
 10
-194.59556620130249
 20
-10.57306584422742
 30
0.0
 11
-194.59556620130249
 21
-10.57306584422742
 31
0.0
1001
HATCH_DISTANCE
1040
1.0
1001
HATCH_DISPLAY
1070
     0
1001
HATCH_TYPE
1070
     7
  0
LINE
  5
1CEA
  8
247
 10
-194.66567655286499
 20
-10.35072893016493
 30
0.0
 11
-194.59556620130249
 21
-10.57306584422742
 31
0.0
1001
HATCH_DISTANCE
1040
1.0
1001
HATCH_DISPLAY
1070
     0
1001
HATCH_TYPE
1070
     7
  0
LINE
  5
1CEB
  8
247
 10
-194.66567655286499
 20
-10.35072893016493
 30
0.0
 11
-194.66567655286499
 21
-10.35072893016493
 31
0.0
1001
HATCH_DISTANCE
1040
1.0
1001
HATCH_DISPLAY
1070
     0
1001
HATCH_TYPE
1070
     7
  0
LINE
  5
1CEC
  8
247
 10
-194.59556620130249
 20
-10.57306584422742
 30
0.0
 11
-194.66567655286499
 21
-10.35072893016493
 31
0.0
1001
HATCH_DISTANCE
1040
1.0
1001
HATCH_DISPLAY
1070
     0
1001
HATCH_TYPE
1070
     7
  0
LINE
  5
1CED
  8
247
 10
-194.59556620130249
 20
-10.57306584422742
 30
0.0
 11
-194.59556620130249
 21
-10.57306584422742
 31
0.0
  0
LINE
  5
1CEE
  8
247
 10
-194.66567655286499
 20
-10.35072893016493
 30
0.0
 11
-194.59556620130249
 21
-10.57306584422742
 31
0.0
  0
LINE
  5
1CEF
  8
247
 10
-194.66567655286499
 20
-10.35072893016493
 30
0.0
 11
-194.66567655286499
 21
-10.35072893016493
 31
0.0
  0
LINE
  5
1CF0
  8
247
 10
-194.59556620130249
 20
-10.57306584422742
 30
0.0
 11
-194.66567655286499
 21
-10.35072893016493
 31
0.0
  0
LINE
  5
1CF1
  8
247
 10
-194.59556620130249
 20
-10.57306584422742
 30
0.0
 11
-194.59556620130249
 21
-10.57306584422742
 31
0.0
1001
HATCH_DISTANCE
1040
1.0
1001
HATCH_DISPLAY
1070
     0
1001
HATCH_TYPE
1070
     7
  0
LINE
  5
1CF2
  8
247
 10
-194.66567655286499
 20
-10.35072893016493
 30
0.0
 11
-194.59556620130249
 21
-10.57306584422742
 31
0.0
1001
HATCH_DISTANCE
1040
1.0
1001
HATCH_DISPLAY
1070
     0
1001
HATCH_TYPE
1070
     7
  0
LINE
  5
1CF3
  8
247
 10
-194.66567655286499
 20
-10.35072893016493
 30
0.0
 11
-194.66567655286499
 21
-10.35072893016493
 31
0.0
1001
HATCH_DISTANCE
1040
1.0
1001
HATCH_DISPLAY
1070
     0
1001
HATCH_TYPE
1070
     7
  0
LINE
  5
1CF4
  8
247
 10
-194.59556620130249
 20
-10.57306584422742
 30
0.0
 11
-194.66567655286499
 21
-10.35072893016493
 31
0.0
1001
HATCH_DISTANCE
1040
1.0
1001
HATCH_DISPLAY
1070
     0
1001
HATCH_TYPE
1070
     7
  0
LINE
  5
1CF5
  8
247
 10
-194.59556620130249
 20
-10.57306584422742
 30
0.0
 11
-194.59556620130249
 21
-10.57306584422742
 31
0.0
  0
LINE
  5
1CF6
  8
247
 10
-194.66567655286499
 20
-10.35072893016493
 30
0.0
 11
-194.59556620130249
 21
-10.57306584422742
 31
0.0
  0
LINE
  5
1CF7
  8
247
 10
-194.66567655286499
 20
-10.35072893016493
 30
0.0
 11
-194.66567655286499
 21
-10.35072893016493
 31
0.0
  0
LINE
  5
1CF8
  8
247
 10
-194.59556620130249
 20
-10.57306584422742
 30
0.0
 11
-194.66567655286499
 21
-10.35072893016493
 31
0.0
  0
LINE
  5
1CF9
  8
241
 10
-8.2523765740916133
 20
-19.539494827389689
 30
0.0
 11
-6.9639611756429058
 21
-20.832369863986941
 31
0.0
  0
LINE
  5
1CFA
  8
241
 10
-12.56396788414588
 20
-15.20823833646473
 30
0.0
 11
-8.2523765740916133
 21
-19.539494827389689
 31
0.0
  0
LINE
  5
1CFB
  8
240
 10
-13.5689809685573
 20
-15.282910145819161
 30
0.0
 11
-13.584140106104311
 21
-15.2980683520436
 31
0.0
  0
LINE
  5
1CFC
  8
240
 10
-13.53877724613994
 20
-15.25270549207923
 30
0.0
 11
-13.5689809685573
 21
-15.282910145819161
 31
0.0
  0
LINE
  5
1CFD
  8
240
 10
-13.493556878529491
 20
-15.20748605579135
 30
0.0
 11
-13.53877724613994
 21
-15.25270549207923
 31
0.0
  0
LINE
  5
1CFE
  8
240
 10
-13.5844
 20
-15.2981
 30
0.0
 11
-13.584099999999999
 21
-15.2981
 31
0.0
  0
LINE
  5
1CFF
  8
240
 10
-13.5847
 20
-15.2981
 30
0.0
 11
-13.5844
 21
-15.2981
 31
0.0
  0
LINE
  5
1D00
  8
240
 10
-13.584899999999999
 20
-15.2982
 30
0.0
 11
-13.5847
 21
-15.2981
 31
0.0
  0
LINE
  5
1D01
  8
240
 10
-13.5852
 20
-15.2982
 30
0.0
 11
-13.584899999999999
 21
-15.2982
 31
0.0
  0
LINE
  5
1D02
  8
240
 10
-13.5855
 20
-15.2982
 30
0.0
 11
-13.5852
 21
-15.2982
 31
0.0
  0
LINE
  5
1D03
  8
240
 10
-13.585699999999999
 20
-15.2982
 30
0.0
 11
-13.5855
 21
-15.2982
 31
0.0
  0
LINE
  5
1D04
  8
240
 10
-13.586
 20
-15.298299999999999
 30
0.0
 11
-13.585699999999999
 21
-15.2982
 31
0.0
  0
LINE
  5
1D05
  8
240
 10
-13.5863
 20
-15.298299999999999
 30
0.0
 11
-13.586
 21
-15.298299999999999
 31
0.0
  0
LINE
  5
1D06
  8
240
 10
-13.586499999999999
 20
-15.298299999999999
 30
0.0
 11
-13.5863
 21
-15.298299999999999
 31
0.0
  0
LINE
  5
1D07
  8
240
 10
-13.5868
 20
-15.298400000000001
 30
0.0
 11
-13.586499999999999
 21
-15.298299999999999
 31
0.0
  0
LINE
  5
1D08
  8
240
 10
-13.587
 20
-15.298400000000001
 30
0.0
 11
-13.5868
 21
-15.298400000000001
 31
0.0
  0
LINE
  5
1D09
  8
240
 10
-13.587300000000001
 20
-15.298400000000001
 30
0.0
 11
-13.587
 21
-15.298400000000001
 31
0.0
  0
LINE
  5
1D0A
  8
240
 10
-13.5876
 20
-15.298400000000001
 30
0.0
 11
-13.587300000000001
 21
-15.298400000000001
 31
0.0
  0
LINE
  5
1D0B
  8
240
 10
-13.5878
 20
-15.298500000000001
 30
0.0
 11
-13.5876
 21
-15.298400000000001
 31
0.0
  0
LINE
  5
1D0C
  8
240
 10
-13.588100000000001
 20
-15.298500000000001
 30
0.0
 11
-13.5878
 21
-15.298500000000001
 31
0.0
  0
LINE
  5
1D0D
  8
240
 10
-13.5884
 20
-15.298500000000001
 30
0.0
 11
-13.588100000000001
 21
-15.298500000000001
 31
0.0
  0
LINE
  5
1D0E
  8
240
 10
-13.5886
 20
-15.298500000000001
 30
0.0
 11
-13.5884
 21
-15.298500000000001
 31
0.0
  0
LINE
  5
1D0F
  8
240
 10
-13.588900000000001
 20
-15.2986
 30
0.0
 11
-13.5886
 21
-15.298500000000001
 31
0.0
  0
LINE
  5
1D10
  8
240
 10
-13.5891
 20
-15.2986
 30
0.0
 11
-13.588900000000001
 21
-15.2986
 31
0.0
  0
LINE
  5
1D11
  8
240
 10
-13.589399999999999
 20
-15.2986
 30
0.0
 11
-13.5891
 21
-15.2986
 31
0.0
  0
LINE
  5
1D12
  8
240
 10
-13.589700000000001
 20
-15.2987
 30
0.0
 11
-13.589399999999999
 21
-15.2986
 31
0.0
  0
LINE
  5
1D13
  8
240
 10
-13.5899
 20
-15.2987
 30
0.0
 11
-13.589700000000001
 21
-15.2987
 31
0.0
  0
LINE
  5
1D14
  8
240
 10
-13.590199999999999
 20
-15.2987
 30
0.0
 11
-13.5899
 21
-15.2987
 31
0.0
  0
LINE
  5
1D15
  8
240
 10
-13.590400000000001
 20
-15.2987
 30
0.0
 11
-13.590199999999999
 21
-15.2987
 31
0.0
  0
LINE
  5
1D16
  8
240
 10
-13.5907
 20
-15.2987
 30
0.0
 11
-13.590400000000001
 21
-15.2987
 31
0.0
  0
LINE
  5
1D17
  8
240
 10
-13.590999999999999
 20
-15.2988
 30
0.0
 11
-13.5907
 21
-15.2987
 31
0.0
  0
LINE
  5
1D18
  8
240
 10
-13.591200000000001
 20
-15.2988
 30
0.0
 11
-13.590999999999999
 21
-15.2988
 31
0.0
  0
LINE
  5
1D19
  8
240
 10
-13.5915
 20
-15.2988
 30
0.0
 11
-13.591200000000001
 21
-15.2988
 31
0.0
  0
LINE
  5
1D1A
  8
240
 10
-13.591699999999999
 20
-15.2988
 30
0.0
 11
-13.5915
 21
-15.2988
 31
0.0
  0
LINE
  5
1D1B
  8
240
 10
-13.592000000000001
 20
-15.2989
 30
0.0
 11
-13.591699999999999
 21
-15.2988
 31
0.0
  0
LINE
  5
1D1C
  8
240
 10
-13.5922
 20
-15.2989
 30
0.0
 11
-13.592000000000001
 21
-15.2989
 31
0.0
  0
LINE
  5
1D1D
  8
240
 10
-13.592499999999999
 20
-15.2989
 30
0.0
 11
-13.5922
 21
-15.2989
 31
0.0
  0
LINE
  5
1D1E
  8
240
 10
-13.5928
 20
-15.2989
 30
0.0
 11
-13.592499999999999
 21
-15.2989
 31
0.0
  0
LINE
  5
1D1F
  8
240
 10
-13.593
 20
-15.298999999999999
 30
0.0
 11
-13.5928
 21
-15.2989
 31
0.0
  0
LINE
  5
1D20
  8
240
 10
-13.593299999999999
 20
-15.298999999999999
 30
0.0
 11
-13.593
 21
-15.298999999999999
 31
0.0
  0
LINE
  5
1D21
  8
240
 10
-13.593500000000001
 20
-15.298999999999999
 30
0.0
 11
-13.593299999999999
 21
-15.298999999999999
 31
0.0
  0
LINE
  5
1D22
  8
240
 10
-13.5938
 20
-15.298999999999999
 30
0.0
 11
-13.593500000000001
 21
-15.298999999999999
 31
0.0
  0
LINE
  5
1D23
  8
240
 10
-13.593999999999999
 20
-15.298999999999999
 30
0.0
 11
-13.5938
 21
-15.298999999999999
 31
0.0
  0
LINE
  5
1D24
  8
240
 10
-13.5943
 20
-15.299099999999999
 30
0.0
 11
-13.593999999999999
 21
-15.298999999999999
 31
0.0
  0
LINE
  5
1D25
  8
240
 10
-13.5946
 20
-15.299099999999999
 30
0.0
 11
-13.5943
 21
-15.299099999999999
 31
0.0
  0
LINE
  5
1D26
  8
240
 10
-13.594799999999999
 20
-15.299099999999999
 30
0.0
 11
-13.5946
 21
-15.299099999999999
 31
0.0
  0
LINE
  5
1D27
  8
240
 10
-13.5951
 20
-15.299099999999999
 30
0.0
 11
-13.594799999999999
 21
-15.299099999999999
 31
0.0
  0
LINE
  5
1D28
  8
240
 10
-13.5953
 20
-15.299099999999999
 30
0.0
 11
-13.5951
 21
-15.299099999999999
 31
0.0
  0
LINE
  5
1D29
  8
240
 10
-13.595599999999999
 20
-15.299200000000001
 30
0.0
 11
-13.5953
 21
-15.299099999999999
 31
0.0
  0
LINE
  5
1D2A
  8
240
 10
-13.595800000000001
 20
-15.299200000000001
 30
0.0
 11
-13.595599999999999
 21
-15.299200000000001
 31
0.0
  0
LINE
  5
1D2B
  8
240
 10
-13.5961
 20
-15.299200000000001
 30
0.0
 11
-13.595800000000001
 21
-15.299200000000001
 31
0.0
  0
LINE
  5
1D2C
  8
240
 10
-13.596299999999999
 20
-15.299200000000001
 30
0.0
 11
-13.5961
 21
-15.299200000000001
 31
0.0
  0
LINE
  5
1D2D
  8
240
 10
-13.5966
 20
-15.299200000000001
 30
0.0
 11
-13.596299999999999
 21
-15.299200000000001
 31
0.0
  0
LINE
  5
1D2E
  8
240
 10
-13.5969
 20
-15.299300000000001
 30
0.0
 11
-13.5966
 21
-15.299200000000001
 31
0.0
  0
LINE
  5
1D2F
  8
240
 10
-13.597099999999999
 20
-15.299300000000001
 30
0.0
 11
-13.5969
 21
-15.299300000000001
 31
0.0
  0
LINE
  5
1D30
  8
240
 10
-13.5974
 20
-15.299300000000001
 30
0.0
 11
-13.597099999999999
 21
-15.299300000000001
 31
0.0
  0
LINE
  5
1D31
  8
240
 10
-13.5976
 20
-15.299300000000001
 30
0.0
 11
-13.5974
 21
-15.299300000000001
 31
0.0
  0
LINE
  5
1D32
  8
240
 10
-13.597899999999999
 20
-15.299300000000001
 30
0.0
 11
-13.5976
 21
-15.299300000000001
 31
0.0
  0
LINE
  5
1D33
  8
240
 10
-13.598100000000001
 20
-15.2994
 30
0.0
 11
-13.597899999999999
 21
-15.299300000000001
 31
0.0
  0
LINE
  5
1D34
  8
240
 10
-13.5984
 20
-15.2994
 30
0.0
 11
-13.598100000000001
 21
-15.2994
 31
0.0
  0
LINE
  5
1D35
  8
240
 10
-13.598599999999999
 20
-15.2994
 30
0.0
 11
-13.5984
 21
-15.2994
 31
0.0
  0
LINE
  5
1D36
  8
240
 10
-13.5989
 20
-15.2994
 30
0.0
 11
-13.598599999999999
 21
-15.2994
 31
0.0
  0
LINE
  5
1D37
  8
240
 10
-13.5991
 20
-15.2994
 30
0.0
 11
-13.5989
 21
-15.2994
 31
0.0
  0
LINE
  5
1D38
  8
240
 10
-13.599399999999999
 20
-15.2994
 30
0.0
 11
-13.5991
 21
-15.2994
 31
0.0
  0
LINE
  5
1D39
  8
240
 10
-13.599600000000001
 20
-15.2995
 30
0.0
 11
-13.599399999999999
 21
-15.2994
 31
0.0
  0
LINE
  5
1D3A
  8
240
 10
-13.5999
 20
-15.2995
 30
0.0
 11
-13.599600000000001
 21
-15.2995
 31
0.0
  0
LINE
  5
1D3B
  8
240
 10
-13.600099999999999
 20
-15.2995
 30
0.0
 11
-13.5999
 21
-15.2995
 31
0.0
  0
LINE
  5
1D3C
  8
240
 10
-13.6004
 20
-15.2995
 30
0.0
 11
-13.600099999999999
 21
-15.2995
 31
0.0
  0
LINE
  5
1D3D
  8
240
 10
-13.6006
 20
-15.2995
 30
0.0
 11
-13.6004
 21
-15.2995
 31
0.0
  0
LINE
  5
1D3E
  8
240
 10
-13.600899999999999
 20
-15.2995
 30
0.0
 11
-13.6006
 21
-15.2995
 31
0.0
  0
LINE
  5
1D3F
  8
240
 10
-13.601100000000001
 20
-15.2995
 30
0.0
 11
-13.600899999999999
 21
-15.2995
 31
0.0
  0
LINE
  5
1D40
  8
240
 10
-13.6014
 20
-15.2996
 30
0.0
 11
-13.601100000000001
 21
-15.2995
 31
0.0
  0
LINE
  5
1D41
  8
240
 10
-13.601599999999999
 20
-15.2996
 30
0.0
 11
-13.6014
 21
-15.2996
 31
0.0
  0
LINE
  5
1D42
  8
240
 10
-13.601900000000001
 20
-15.2996
 30
0.0
 11
-13.601599999999999
 21
-15.2996
 31
0.0
  0
LINE
  5
1D43
  8
240
 10
-13.6021
 20
-15.2996
 30
0.0
 11
-13.601900000000001
 21
-15.2996
 31
0.0
  0
LINE
  5
1D44
  8
240
 10
-13.602399999999999
 20
-15.2996
 30
0.0
 11
-13.6021
 21
-15.2996
 31
0.0
  0
LINE
  5
1D45
  8
240
 10
-13.602600000000001
 20
-15.2996
 30
0.0
 11
-13.602399999999999
 21
-15.2996
 31
0.0
  0
LINE
  5
1D46
  8
240
 10
-13.6029
 20
-15.2996
 30
0.0
 11
-13.602600000000001
 21
-15.2996
 31
0.0
  0
LINE
  5
1D47
  8
240
 10
-13.6031
 20
-15.2997
 30
0.0
 11
-13.6029
 21
-15.2996
 31
0.0
  0
LINE
  5
1D48
  8
240
 10
-13.603400000000001
 20
-15.2997
 30
0.0
 11
-13.6031
 21
-15.2997
 31
0.0
  0
LINE
  5
1D49
  8
240
 10
-13.6036
 20
-15.2997
 30
0.0
 11
-13.603400000000001
 21
-15.2997
 31
0.0
  0
LINE
  5
1D4A
  8
240
 10
-13.603899999999999
 20
-15.2997
 30
0.0
 11
-13.6036
 21
-15.2997
 31
0.0
  0
LINE
  5
1D4B
  8
240
 10
-13.604100000000001
 20
-15.2997
 30
0.0
 11
-13.603899999999999
 21
-15.2997
 31
0.0
  0
LINE
  5
1D4C
  8
240
 10
-13.6044
 20
-15.2997
 30
0.0
 11
-13.604100000000001
 21
-15.2997
 31
0.0
  0
LINE
  5
1D4D
  8
240
 10
-13.6046
 20
-15.2997
 30
0.0
 11
-13.6044
 21
-15.2997
 31
0.0
  0
LINE
  5
1D4E
  8
240
 10
-13.604799999999999
 20
-15.2997
 30
0.0
 11
-13.6046
 21
-15.2997
 31
0.0
  0
LINE
  5
1D4F
  8
240
 10
-13.6051
 20
-15.299799999999999
 30
0.0
 11
-13.604799999999999
 21
-15.2997
 31
0.0
  0
LINE
  5
1D50
  8
240
 10
-13.6053
 20
-15.299799999999999
 30
0.0
 11
-13.6051
 21
-15.299799999999999
 31
0.0
  0
LINE
  5
1D51
  8
240
 10
-13.605600000000001
 20
-15.299799999999999
 30
0.0
 11
-13.6053
 21
-15.299799999999999
 31
0.0
  0
LINE
  5
1D52
  8
240
 10
-13.6058
 20
-15.299799999999999
 30
0.0
 11
-13.605600000000001
 21
-15.299799999999999
 31
0.0
  0
LINE
  5
1D53
  8
240
 10
-13.6061
 20
-15.299799999999999
 30
0.0
 11
-13.6058
 21
-15.299799999999999
 31
0.0
  0
LINE
  5
1D54
  8
240
 10
-13.606299999999999
 20
-15.299799999999999
 30
0.0
 11
-13.6061
 21
-15.299799999999999
 31
0.0
  0
LINE
  5
1D55
  8
240
 10
-13.6066
 20
-15.299799999999999
 30
0.0
 11
-13.606299999999999
 21
-15.299799999999999
 31
0.0
  0
LINE
  5
1D56
  8
240
 10
-13.6068
 20
-15.299799999999999
 30
0.0
 11
-13.6066
 21
-15.299799999999999
 31
0.0
  0
LINE
  5
1D57
  8
240
 10
-13.607100000000001
 20
-15.299799999999999
 30
0.0
 11
-13.6068
 21
-15.299799999999999
 31
0.0
  0
LINE
  5
1D58
  8
240
 10
-13.6073
 20
-15.299799999999999
 30
0.0
 11
-13.607100000000001
 21
-15.299799999999999
 31
0.0
  0
LINE
  5
1D59
  8
240
 10
-13.6075
 20
-15.299799999999999
 30
0.0
 11
-13.6073
 21
-15.299799999999999
 31
0.0
  0
LINE
  5
1D5A
  8
240
 10
-13.607799999999999
 20
-15.299899999999999
 30
0.0
 11
-13.6075
 21
-15.299799999999999
 31
0.0
  0
LINE
  5
1D5B
  8
240
 10
-13.608000000000001
 20
-15.299899999999999
 30
0.0
 11
-13.607799999999999
 21
-15.299899999999999
 31
0.0
  0
LINE
  5
1D5C
  8
240
 10
-13.6083
 20
-15.299899999999999
 30
0.0
 11
-13.608000000000001
 21
-15.299899999999999
 31
0.0
  0
LINE
  5
1D5D
  8
240
 10
-13.608499999999999
 20
-15.299899999999999
 30
0.0
 11
-13.6083
 21
-15.299899999999999
 31
0.0
  0
LINE
  5
1D5E
  8
240
 10
-13.6088
 20
-15.299899999999999
 30
0.0
 11
-13.608499999999999
 21
-15.299899999999999
 31
0.0
  0
LINE
  5
1D5F
  8
240
 10
-13.609
 20
-15.299899999999999
 30
0.0
 11
-13.6088
 21
-15.299899999999999
 31
0.0
  0
LINE
  5
1D60
  8
240
 10
-13.6092
 20
-15.299899999999999
 30
0.0
 11
-13.609
 21
-15.299899999999999
 31
0.0
  0
LINE
  5
1D61
  8
240
 10
-13.609500000000001
 20
-15.299899999999999
 30
0.0
 11
-13.6092
 21
-15.299899999999999
 31
0.0
  0
LINE
  5
1D62
  8
240
 10
-13.6097
 20
-15.299899999999999
 30
0.0
 11
-13.609500000000001
 21
-15.299899999999999
 31
0.0
  0
LINE
  5
1D63
  8
240
 10
-13.609999999999999
 20
-15.299899999999999
 30
0.0
 11
-13.6097
 21
-15.299899999999999
 31
0.0
  0
LINE
  5
1D64
  8
240
 10
-13.610200000000001
 20
-15.299899999999999
 30
0.0
 11
-13.609999999999999
 21
-15.299899999999999
 31
0.0
  0
LINE
  5
1D65
  8
240
 10
-13.6104
 20
-15.299899999999999
 30
0.0
 11
-13.610200000000001
 21
-15.299899999999999
 31
0.0
  0
LINE
  5
1D66
  8
240
 10
-13.6107
 20
-15.299899999999999
 30
0.0
 11
-13.6104
 21
-15.299899999999999
 31
0.0
  0
LINE
  5
1D67
  8
240
 10
-13.610900000000001
 20
-15.299899999999999
 30
0.0
 11
-13.6107
 21
-15.299899999999999
 31
0.0
  0
LINE
  5
1D68
  8
240
 10
-13.6112
 20
-15.299899999999999
 30
0.0
 11
-13.610900000000001
 21
-15.299899999999999
 31
0.0
  0
LINE
  5
1D69
  8
240
 10
-13.6114
 20
-15.300000000000001
 30
0.0
 11
-13.6112
 21
-15.299899999999999
 31
0.0
  0
LINE
  5
1D6A
  8
240
 10
-13.611599999999999
 20
-15.300000000000001
 30
0.0
 11
-13.6114
 21
-15.300000000000001
 31
0.0
  0
LINE
  5
1D6B
  8
240
 10
-13.6119
 20
-15.300000000000001
 30
0.0
 11
-13.611599999999999
 21
-15.300000000000001
 31
0.0
  0
LINE
  5
1D6C
  8
240
 10
-13.6121
 20
-15.300000000000001
 30
0.0
 11
-13.6119
 21
-15.300000000000001
 31
0.0
  0
LINE
  5
1D6D
  8
240
 10
-13.612399999999999
 20
-15.300000000000001
 30
0.0
 11
-13.6121
 21
-15.300000000000001
 31
0.0
  0
LINE
  5
1D6E
  8
240
 10
-13.6126
 20
-15.300000000000001
 30
0.0
 11
-13.612399999999999
 21
-15.300000000000001
 31
0.0
  0
LINE
  5
1D6F
  8
240
 10
-13.6128
 20
-15.300000000000001
 30
0.0
 11
-13.6126
 21
-15.300000000000001
 31
0.0
  0
LINE
  5
1D70
  8
240
 10
-13.613099999999999
 20
-15.300000000000001
 30
0.0
 11
-13.6128
 21
-15.300000000000001
 31
0.0
  0
LINE
  5
1D71
  8
240
 10
-13.613300000000001
 20
-15.300000000000001
 30
0.0
 11
-13.613099999999999
 21
-15.300000000000001
 31
0.0
  0
LINE
  5
1D72
  8
240
 10
-13.6136
 20
-15.300000000000001
 30
0.0
 11
-13.613300000000001
 21
-15.300000000000001
 31
0.0
  0
LINE
  5
1D73
  8
240
 10
-13.613799999999999
 20
-15.300000000000001
 30
0.0
 11
-13.6136
 21
-15.300000000000001
 31
0.0
  0
LINE
  5
1D74
  8
240
 10
-13.614000000000001
 20
-15.300000000000001
 30
0.0
 11
-13.613799999999999
 21
-15.300000000000001
 31
0.0
  0
LINE
  5
1D75
  8
240
 10
-13.6143
 20
-15.300000000000001
 30
0.0
 11
-13.614000000000001
 21
-15.300000000000001
 31
0.0
  0
LINE
  5
1D76
  8
240
 10
-13.6145
 20
-15.300000000000001
 30
0.0
 11
-13.6143
 21
-15.300000000000001
 31
0.0
  0
LINE
  5
1D77
  8
240
 10
-13.614699999999999
 20
-15.300000000000001
 30
0.0
 11
-13.6145
 21
-15.300000000000001
 31
0.0
  0
LINE
  5
1D78
  8
240
 10
-13.615
 20
-15.300000000000001
 30
0.0
 11
-13.614699999999999
 21
-15.300000000000001
 31
0.0
  0
LINE
  5
1D79
  8
240
 10
-13.6152
 20
-15.300000000000001
 30
0.0
 11
-13.615
 21
-15.300000000000001
 31
0.0
  0
LINE
  5
1D7A
  8
240
 10
-13.615500000000001
 20
-15.300000000000001
 30
0.0
 11
-13.6152
 21
-15.300000000000001
 31
0.0
  0
LINE
  5
1D7B
  8
240
 10
-13.6157
 20
-15.300000000000001
 30
0.0
 11
-13.615500000000001
 21
-15.300000000000001
 31
0.0
  0
LINE
  5
1D7C
  8
240
 10
-13.6159
 20
-15.300000000000001
 30
0.0
 11
-13.6157
 21
-15.300000000000001
 31
0.0
  0
LINE
  5
1D7D
  8
240
 10
-13.616199999999999
 20
-15.300000000000001
 30
0.0
 11
-13.6159
 21
-15.300000000000001
 31
0.0
  0
LINE
  5
1D7E
  8
241
 10
-3.3467676257714611
 20
-18.40629690885541
 30
0.0
 11
-0.9325901919510216
 21
-15.98056481778619
 31
0.0
  0
LINE
  5
1D7F
  8
241
 10
-5.7639608858153206
 20
-20.832369863986941
 30
0.0
 11
-3.3467676257714611
 21
-18.40629690885541
 31
0.0
  0
LINE
  5
1D80
  8
240
 10
-13.5689809685573
 20
15.282910145819161
 30
0.0
 11
-13.58607119916763
 21
15.29999932646753
 31
0.0
  0
LINE
  5
1D81
  8
240
 10
-13.53877724613994
 20
15.25270549207923
 30
0.0
 11
-13.5689809685573
 21
15.282910145819161
 31
0.0
  0
LINE
  5
1D82
  8
240
 10
-13.493556878529491
 20
15.20748605579135
 30
0.0
 11
-13.53877724613994
 21
15.25270549207923
 31
0.0
  0
LINE
  5
1D83
  8
240
 10
-13.493556878529491
 20
15.20748605579135
 30
0.0
 11
-12.727922177882871
 21
15.207486055791319
 31
0.0
  0
LINE
  5
1D84
  8
241
 10
-12.72792217787366
 20
-15.207486055791319
 30
0.0
 11
-12.56396788414594
 21
-15.207486055791311
 31
0.0
  0
ARC
  5
1D85
  8
240
 10
-12.52792217787356
 20
-15.55043843650388
 30
0.0
 40
0.2
 50
180.00000000000981
 51
224.99999759197451
1001
GENIUS_GENOBJ-N-FIL_13
1002
{
1000
OWNER
1000
GEN
1002
}
1001
GENIUS_GENODEF_13
1002
{
1000
HIER
1070
     0
1002
}
1002
{
1000
MANEDIT
1070
     0
1002
}
1002
{
1000
NOSEL
1070
     0
1002
}
1002
{
1000
BEHIND
1070
     0
1002
}
1002
{
1000
OTHER
1070
     0
1002
}
1002
{
1000
REACTOR
1002
}
  0
ARC
  5
1D86
  8
240
 10
-6.9882256815147912
 20
-21.090135398507091
 30
0.0
 40
0.2
 50
224.99999759197451
 51
270.0
1001
GENIUS_GENODEF_13
1002
{
1000
HIER
1070
     0
1002
}
1002
{
1000
MANEDIT
1070
     0
1002
}
1002
{
1000
NOSEL
1070
     0
1002
}
1002
{
1000
BEHIND
1070
     0
1002
}
1002
{
1000
OTHER
1070
     0
1002
}
1002
{
1000
REACTOR
1002
}
1001
GENIUS_GENOBJ-N-FIL_13
1002
{
1000
OWNER
1000
GEN
1002
}
  0
ARC
  5
1D87
  8
240
 10
-5.7396963799424139
 20
-21.090135398507091
 30
0.0
 40
0.2
 50
270.0
 51
315.00000210702188
1001
GENIUS_GENOBJ-N-FIL_13
1002
{
1000
OWNER
1000
GEN
1002
}
1001
GENIUS_GENODEF_13
1002
{
1000
HIER
1070
     0
1002
}
1002
{
1000
MANEDIT
1070
     0
1002
}
1002
{
1000
NOSEL
1070
     0
1002
}
1002
{
1000
BEHIND
1070
     0
1002
}
1002
{
1000
OTHER
1070
     0
1002
}
1002
{
1000
REACTOR
1002
}
  0
ARC
  5
1D88
  8
240
 10
-0.1999999999999886
 20
-15.550438611125751
 30
0.0
 40
0.2
 50
315.00000210702188
 51
0.0
1001
GENIUS_GENOBJ-N-FIL_13
1002
{
1000
OWNER
1000
GEN
1002
}
1001
GENIUS_GENODEF_13
1002
{
1000
HIER
1070
     0
1002
}
1002
{
1000
MANEDIT
1070
     0
1002
}
1002
{
1000
NOSEL
1070
     0
1002
}
1002
{
1000
BEHIND
1070
     0
1002
}
1002
{
1000
OTHER
1070
     0
1002
}
1002
{
1000
REACTOR
1002
}
  0
ARC
  5
1D89
  8
240
 10
-0.1999999999999886
 20
-14.30191035739753
 30
0.0
 40
0.2
 50
0.0
 51
45.000037012072163
1001
GENIUS_GENOBJ-N-FIL_13
1002
{
1000
OWNER
1000
GEN
1002
}
1001
GENIUS_GENODEF_13
1002
{
1000
HIER
1070
     0
1002
}
1002
{
1000
MANEDIT
1070
     0
1002
}
1002
{
1000
NOSEL
1070
     0
1002
}
1002
{
1000
BEHIND
1070
     0
1002
}
1002
{
1000
OTHER
1070
     0
1002
}
1002
{
1000
REACTOR
1002
}
  0
LINE
  5
1D8A
  8
241
 10
-13.493556878529491
 20
1.679999226704268
 30
0.0
 11
-13.728041327516509
 21
-1.5000007729993841
 31
0.0
  0
CIRCLE
  5
1D8B
  8
246
 10
-6.3639610415324332
 20
14.93327981479044
 30
0.0
 40
4.9999995494399707
  0
ARC
  5
1D8C
  8
240
 10
-12.527922177873499
 20
15.557542907829831
 30
0.0
 40
0.2
 50
135.00000240802549
 51
180.0
1001
GENIUS_GENOBJ-N-FIL_13
1002
{
1000
OWNER
1000
GEN
1002
}
1001
GENIUS_GENODEF_13
1002
{
1000
HIER
1070
     0
1002
}
1002
{
1000
MANEDIT
1070
     0
1002
}
1002
{
1000
NOSEL
1070
     0
1002
}
1002
{
1000
BEHIND
1070
     0
1002
}
1002
{
1000
OTHER
1070
     0
1002
}
1002
{
1000
REACTOR
1002
}
  0
ARC
  5
1D8D
  8
241
 10
-12.52792217787356
 20
14.309015934539531
 30
0.0
 40
0.2
 50
180.00000000059109
 51
225.0
1001
GENIUS_GENOBJ-N-FIL_13
1002
{
1000
OWNER
1000
GEN
1002
}
1001
GENIUS_GENODEF_13
1002
{
1000
HIER
1070
     0
1002
}
1002
{
1000
MANEDIT
1070
     0
1002
}
1002
{
1000
NOSEL
1070
     0
1002
}
1002
{
1000
BEHIND
1070
     0
1002
}
1002
{
1000
OTHER
1070
     0
1002
}
1002
{
1000
REACTOR
1002
}
  0
ARC
  5
1D8E
  8
241
 10
-6.9882241404365004
 20
8.7693178971027237
 30
0.0
 40
0.2
 50
225.0
 51
270.0
1001
GENIUS_GENOBJ-N-FIL_13
1002
{
1000
OWNER
1000
GEN
1002
}
1001
GENIUS_GENODEF_13
1002
{
1000
HIER
1070
     0
1002
}
1002
{
1000
MANEDIT
1070
     0
1002
}
1002
{
1000
NOSEL
1070
     0
1002
}
1002
{
1000
BEHIND
1070
     0
1002
}
1002
{
1000
OTHER
1070
     0
1002
}
1002
{
1000
REACTOR
1002
}
  0
ARC
  5
1D8F
  8
241
 10
-5.7396980220242408
 20
8.7693178971026953
 30
0.0
 40
0.2
 50
270.0
 51
314.99999917669493
1001
GENIUS_GENOBJ-N-FIL_13
1002
{
1000
OWNER
1000
GEN
1002
}
1001
GENIUS_GENODEF_13
1002
{
1000
HIER
1070
     0
1002
}
1002
{
1000
MANEDIT
1070
     0
1002
}
1002
{
1000
NOSEL
1070
     0
1002
}
1002
{
1000
BEHIND
1070
     0
1002
}
1002
{
1000
OTHER
1070
     0
1002
}
1002
{
1000
REACTOR
1002
}
  0
ARC
  5
1D90
  8
240
 10
-0.1999999999999318
 20
14.30901575981613
 30
0.0
 40
0.2
 50
315.00002878713519
 51
0.0
1001
GENIUS_GENODEF_13
1002
{
1000
HIER
1070
     0
1002
}
1002
{
1000
MANEDIT
1070
     0
1002
}
1002
{
1000
NOSEL
1070
     0
1002
}
1002
{
1000
BEHIND
1070
     0
1002
}
1002
{
1000
OTHER
1070
     0
1002
}
1002
{
1000
REACTOR
1002
}
1001
GENIUS_GENOBJ-N-FIL_13
1002
{
1000
OWNER
1000
GEN
1002
}
  0
ARC
  5
1D91
  8
240
 10
-0.1999999999999886
 20
15.5575430824517
 30
0.0
 40
0.2
 50
0.0
 51
44.999997892978108
1001
GENIUS_GENODEF_13
1002
{
1000
HIER
1070
     0
1002
}
1002
{
1000
MANEDIT
1070
     0
1002
}
1002
{
1000
NOSEL
1070
     0
1002
}
1002
{
1000
BEHIND
1070
     0
1002
}
1002
{
1000
OTHER
1070
     0
1002
}
1002
{
1000
REACTOR
1002
}
1001
GENIUS_GENOBJ-N-FIL_13
1002
{
1000
OWNER
1000
GEN
1002
}
  0
ARC
  5
1D92
  8
240
 10
-5.739698242587564
 20
21.097241732478189
 30
0.0
 40
0.2
 50
44.999997892978108
 51
90.0
1001
GENIUS_GENOBJ-N-FIL_13
1002
{
1000
OWNER
1000
GEN
1002
}
1001
GENIUS_GENODEF_13
1002
{
1000
HIER
1070
     0
1002
}
1002
{
1000
MANEDIT
1070
     0
1002
}
1002
{
1000
NOSEL
1070
     0
1002
}
1002
{
1000
BEHIND
1070
     0
1002
}
1002
{
1000
OTHER
1070
     0
1002
}
1002
{
1000
REACTOR
1002
}
  0
ARC
  5
1D93
  8
240
 10
-6.9882238188697539
 20
21.097241732478189
 30
0.0
 40
0.2
 50
90.0
 51
135.00000240802549
1001
GENIUS_GENOBJ-N-FIL_13
1002
{
1000
OWNER
1000
GEN
1002
}
1001
GENIUS_GENODEF_13
1002
{
1000
HIER
1070
     0
1002
}
1002
{
1000
MANEDIT
1070
     0
1002
}
1002
{
1000
NOSEL
1070
     0
1002
}
1002
{
1000
BEHIND
1070
     0
1002
}
1002
{
1000
OTHER
1070
     0
1002
}
1002
{
1000
REACTOR
1002
}
  0
LINE
  5
1D94
  8
241
 10
-5.7396980220242408
 20
8.5693178971027049
 30
0.0
 11
-6.9882241404365004
 21
8.5693178971027351
 31
0.0
  0
LINE
  5
1D95
  8
240
 10
-5.739698242587564
 20
21.29724173247817
 30
0.0
 11
-6.9882238188697539
 21
21.29724173247817
 31
0.0
  0
LINE
  5
1D96
  8
240
 10
0.0000000000000568
 20
14.30901575981613
 30
0.0
 11
0.0
 21
15.5575430824517
 31
0.0
  0
LINE
  5
1D97
  8
240
 10
-0.4639610415324569
 20
13.762211598455931
 30
0.0
 11
-0.0585785727082566
 21
14.1675944746332
 31
0.0
  0
LINE
  5
1D98
  8
241
 10
-5.5982766678190492
 20
8.6278965388332551
 30
0.0
 11
-0.4639610415387098
 21
13.76221201755973
 31
0.0
  0
LINE
  5
1D99
  8
240
 10
-0.0585786385619827
 20
15.69896443348833
 30
0.0
 11
-5.598276881149558
 21
21.238663083514808
 31
0.0
  0
LINE
  5
1D9A
  8
240
 10
-12.72792217787349
 20
15.557542907829831
 30
0.0
 11
-12.72792217787355
 21
15.207486055791319
 31
0.0
  0
LINE
  5
1D9B
  8
241
 10
-12.72792217787355
 20
14.309015934537451
 30
0.0
 11
-12.727922177882871
 21
15.207486055791319
 31
0.0
  0
LINE
  5
1D9C
  8
241
 10
-12.66934353411084
 20
14.167594578302211
 30
0.0
 11
-7.1296454966737883
 21
8.6278965408654056
 31
0.0
  0
LINE
  5
1D9D
  8
240
 10
-7.1296451810507051
 20
21.23866308277184
 30
0.0
 11
-12.669343540054451
 21
15.69896425812348
 31
0.0
  0
ARC
  5
1D9E
  8
240
 10
-99.749747479159396
 20
16.299999240040769
 30
0.0
 40
1.0
 50
225.0
 51
270.0
  0
LINE
  5
1D9F
  8
240
 10
-100.4568555718287
 20
15.592892825603521
 30
0.0
 11
-100.8639627462253
 21
16.000000000000028
 31
0.0
  0
LINE
  5
1DA0
  8
240
 10
-100.8639627462253
 20
16.000000000000028
 30
0.0
 11
-208.16396383102989
 21
16.000000000000028
 31
0.0
  0
LINE
  5
1DA1
  8
240
 10
-13.58607119916763
 20
15.29999932646753
 30
0.0
 11
-99.749747044406831
 21
15.29999932646755
 31
0.0
  0
LINE
  5
1DA2
  8
240
 10
-0.3904549179470109
 20
1.6799992267042381
 30
0.0
 11
-0.4639610415322295
 21
1.679999226704268
 31
0.0
  0
LINE
  5
1DA3
  8
240
 10
-0.3904549487976965
 20
1.6799992267042381
 30
0.0
 11
-0.0000000000090949
 21
-1.500000772997395
 31
0.0
  0
LINE
  5
1DA4
  8
240
 10
-0.4639610415324569
 20
-1.500000772997395
 30
0.0
 11
-0.000000000007617
 21
-1.500000772997395
 31
0.0
  0
LINE
  5
1DA5
  8
241
 10
-13.728041327516509
 20
-1.5000007729993841
 30
0.0
 11
-0.4639610415324569
 21
-1.500000772996656
 31
0.0
  0
LINE
  5
1DA6
  8
240
 10
0.0
 20
-14.301465652883021
 30
0.0
 11
0.0
 21
-15.550438611125751
 31
0.0
  0
ARC
  5
1DA7
  8
241
 10
-2.3106179084271599
 20
-14.750027822554751
 30
0.0
 40
1.8496929991133031
 50
319.55487472857538
 51
359.20182187787412
  0
LINE
  5
1DA8
  8
241
 10
-0.9325901919510216
 20
-15.98056481778619
 30
0.0
 11
-0.9029504435602576
 21
-15.949959695339169
 31
0.0
  0
LINE
  5
1DA9
  8
240
 10
-0.4639610415324569
 20
-13.75510712713
 30
0.0
 11
-0.0585787351184308
 21
-14.160488909804529
 31
0.0
  0
LINE
  5
1DAA
  8
241
 10
-0.4639610415324569
 20
-13.755107127132529
 30
0.0
 11
-0.4639610414957362
 21
-14.76498061348954
 31
0.0
  0
LINE
  5
1DAB
  8
240
 10
-0.4639610415324569
 20
-1.5000007729977081
 30
0.0
 11
-0.4639610415350718
 21
-13.755107127129801
 31
0.0
  0
LINE
  5
1DAC
  8
240
 10
-5.7396963799424139
 20
-21.29013539850709
 30
0.0
 11
-6.9882256815147912
 21
-21.29013539850709
 31
0.0
  0
LINE
  5
1DAD
  8
241
 10
-6.9639611756429058
 20
-20.832369863986941
 30
0.0
 11
-5.7639608858153206
 21
-20.832369863986941
 31
0.0
  0
LINE
  5
1DAE
  8
240
 10
-0.0585786385619827
 20
-15.69185996216237
 30
0.0
 11
-5.5982750185044079
 21
-21.231556749543699
 31
0.0
  0
LINE
  5
1DAF
  8
241
 10
-0.4639610415325138
 20
1.679999226704268
 30
0.0
 11
-13.392388238571581
 21
1.679999226704268
 31
0.0
  0
LINE
  5
1DB0
  8
241
 10
-13.493556878529491
 20
1.679999226704268
 30
0.0
 11
-13.392388238571581
 21
1.679999226704268
 31
0.0
  0
LINE
  5
1DB1
  8
240
 10
-12.72792217787355
 20
-15.55043843650391
 30
0.0
 11
-12.72792217787361
 21
-15.20748605579133
 31
0.0
  0
LINE
  5
1DB2
  8
240
 10
-13.493556878529491
 20
-15.20748605579135
 30
0.0
 11
-12.72792217787366
 21
-15.207486055791319
 31
0.0
  0
LINE
  5
1DB3
  8
241
 10
-12.56396788414594
 20
-15.207486055791311
 30
0.0
 11
-12.563967884145599
 21
-1.5000007729977081
 31
0.0
  0
LINE
  5
1DB4
  8
240
 10
-7.129546138457953
 20
-21.23165765404698
 30
0.0
 11
-12.6693435400545
 21
-15.69185978679754
 31
0.0
  0
LINE
  5
1DB5
  8
241
 10
-7.129546138457953
 20
-1.5000007729977081
 30
0.0
 11
-12.66944350209087
 21
-1.5000007729977081
 31
0.0
  0
ARC
  5
1DB6
  8
240
 10
-99.749747479159396
 20
-16.30000075995919
 30
0.0
 40
1.0
 50
90.0
 51
135.0
  0
LINE
  5
1DB7
  8
240
 10
-100.8639627462253
 20
-16.000001519918399
 30
0.0
 11
-100.4568555718287
 21
-15.59289434552189
 31
0.0
  0
LINE
  5
1DB8
  8
240
 10
-208.16396383102989
 20
-16.000001519918399
 30
0.0
 11
-100.8639627462253
 21
-16.000001519918399
 31
0.0
  0
LINE
  5
1DB9
  8
240
 10
-99.749747044406831
 20
-15.30000084638591
 30
0.0
 11
-13.61615711357444
 21
-15.300000846385929
 31
0.0
  0
LINE
  5
1DBA
  8
241
 10
-100.8639627462253
 20
-16.000001519918399
 30
0.0
 11
-100.8639627462253
 21
16.000000000000028
 31
0.0
  0
LINE
  5
1DBB
  8
240
 10
-0.4639610415324569
 20
13.7622115984665
 30
0.0
 11
-0.4639610415325707
 21
1.679999226690426
 31
0.0
  0
LINE
  5
1DBC
  8
241
 10
-99.749747479159396
 20
15.299999240040769
 30
0.0
 11
-99.749747479159396
 21
-15.30000075995919
 31
0.0
  0
LINE
  5
1DBD
  8
241
 10
-12.56396788414577
 20
14.062218928337099
 30
0.0
 11
-12.56396788414577
 21
1.679999226704268
 31
0.0
  0
LINE
  5
1DBE
  8
240
 10
-210.16396788414571
 20
-14.00000119209286
 30
0.0
 11
-210.16396788414571
 21
13.999999672174489
 31
0.0
  0
ARC
  5
1DBF
  8
240
 10
-208.1639610415325
 20
-14.000000759959139
 30
0.0
 40
2.0
 50
180.0
 51
270.0
  0
ARC
  5
1DC0
  8
240
 10
-208.1639610415325
 20
13.99999924004084
 30
0.0
 40
2.0
 50
90.0
 51
180.0
  0
LINE
  5
1DC1
  8
245
 10
2.825787610379848
 20
0.0
 30
0.0
 11
-213.9661619507381
 21
0.0000000000000692
 31
0.0
  0
ARC
  5
1DC2
  8
247
 10
-195.38924491224
 20
-11.0669496332899
 30
0.0
 40
0.7566075439453125
 50
53.444012197057553
 51
164.00018438768521
  0
LINE
  5
1DC3
  8
247
 10
-195.81610331067751
 20
-11.83766252391492
 30
0.0
 11
-195.5023513575525
 21
-10.74348576610242
 31
0.0
  0
ARC
  5
1DC4
  8
247
 10
-195.58112772474001
 20
-11.90503947703993
 30
0.0
 40
0.2444446334838867
 50
164.00027305718231
 51
344.00027305718248
  0
ARC
  5
1DC5
  8
247
 10
-194.31910624036499
 20
-11.688740648914919
 30
0.0
 40
1.9799648437499999
 50
155.2051773698407
 51
172.79482596205219
  0
ARC
  5
1DC6
  8
247
 10
-194.35406913099001
 20
-11.53255900828993
 30
0.0
 40
0.9894138793945311
 50
110.8721834020737
 51
132.5419489373875
  0
ARC
  5
1DC7
  8
247
 10
-195.26737577161501
 20
-10.810871508289919
 30
0.0
 40
0.2444448051452637
 50
1.7101213820627319
 51
163.9983983544472
  0
ARC
  5
1DC8
  8
247
 10
-194.35406913099001
 20
-11.53255900828993
 30
0.0
 40
1.222216369628905
 50
110.22964506332001
 51
118.57168892371671
  0
LINE
  5
1DC9
  8
247
 10
-194.70658084973999
 20
-10.608072680164931
 30
0.0
 11
-194.7766912013025
 21
-10.385735766102391
 31
0.0
  0
LINE
  5
1DCA
  8
247
 10
-194.59556620130249
 20
-10.57306584422742
 30
0.0
 11
-194.66567655286499
 21
-10.35072893016493
 31
0.0
  0
LINE
  5
1DCB
  8
247
 10
-194.98598514661501
 20
-12.40556807201059
 30
0.0
 11
-194.645532021615
 21
-11.218270922352421
 31
0.0
  0
LINE
  5
1DCC
  8
247
 10
-195.3236521388024
 20
-11.218270922352421
 30
0.0
 11
-194.645532021615
 21
-11.218270922352421
 31
0.0
  0
LINE
  5
1DCD
  8
247
 10
-195.39040506849
 20
-11.45107560985241
 30
0.0
 11
-195.3236521388024
 21
-11.218270922352421
 31
0.0
  0
LINE
  5
1DCE
  8
247
 10
-195.12254959974001
 20
-12.26901240794815
 30
0.0
 11
-194.98598514661501
 21
-12.40556807201059
 31
0.0
  0
LINE
  5
1DCF
  8
247
 10
-195.39040506849
 20
-11.45107560985241
 30
0.0
 11
-195.19665897473999
 21
-11.45107560985241
 31
0.0
  0
LINE
  5
1DD0
  8
247
 10
-195.34615213880241
 20
-11.97241643016492
 30
0.0
 11
-195.19665897473999
 21
-11.45107560985241
 31
0.0
  0
ARC
  5
1DD1
  8
247
 10
-194.35406913099001
 20
-11.53255900828993
 30
0.0
 40
0.9894111328124999
 50
270.0
 51
104.1274364964102
  0
ARC
  5
1DD2
  8
247
 10
-194.35406913099001
 20
-11.53255900828993
 30
0.0
 40
1.2222158203124971
 50
270.0
 51
104.7707939660925
  0
LINE
  5
1DD3
  8
247
 10
-198.95781522473999
 20
-12.40556807201059
 30
0.0
 11
-198.42377420911521
 21
-10.54314787547815
 31
0.0
  0
LINE
  5
1DD4
  8
247
 10
-198.6897230076282
 20
-11.470620483578729
 30
0.0
 11
-197.8748099307237
 21
-10.65570740667426
 31
0.0
  0
ARC
  5
1DD5
  8
247
 10
-197.98442655286499
 20
-10.869072680164949
 30
0.0
 40
0.349197280883789
 50
261.6626016879294
 51
66.338155095189776
  0
LINE
  5
1DD6
  8
247
 10
-197.84427951242861
 20
-10.549232801423139
 30
0.0
 11
-198.0350603366322
 21
-11.214579497634681
 31
0.0
  0
LINE
  5
1DD7
  8
247
 10
-197.28674198255251
 20
-12.40556807201059
 30
0.0
 11
-196.7593718653649
 21
-10.56642131297742
 31
0.0
  0
LINE
  5
1DD8
  8
247
 10
-198.0005742638499
 20
-11.55736586866087
 30
0.0
 11
-197.1674876404133
 21
-10.72427924522424
 31
0.0
  0
LINE
  5
1DD9
  8
247
 10
-198.5857468501803
 20
-11.10801294984403
 30
0.0
 11
-197.7880770883138
 21
-10.3103431879775
 31
0.0
  0
ARC
  5
1DDA
  8
247
 10
-197.72470096692749
 20
-10.892346117664911
 30
0.0
 40
0.5820078735351563
 50
287.66957754739968
 51
90.236159842671583
  0
LINE
  5
1DDB
  8
247
 10
-197.64268471603421
 20
-10.940844944558309
 30
0.0
 11
-197.25310854638349
 21
-10.55126877490758
 31
0.0
  0
LINE
  5
1DDC
  8
247
 10
-198.4817706927324
 20
-10.7454054161093
 30
0.0
 11
-198.0467084646005
 21
-10.31034318797747
 31
0.0
  0
LINE
  5
1DDD
  8
247
 10
-199.07997440442739
 20
-10.54314787547742
 30
0.0
 11
-198.66595682630239
 21
-10.54314787547742
 31
0.0
  0
LINE
  5
1DDE
  8
247
 10
-198.54486991224019
 20
-10.54314787547742
 30
0.0
 11
-198.42377420911521
 21
-10.54314787547815
 31
0.0
  0
LINE
  5
1DDF
  8
247
 10
-197.67252366718341
 20
-10.71205251942075
 30
0.0
 11
-197.3822334270223
 21
-10.4217622792596
 31
0.0
  0
LINE
  5
1DE0
  8
247
 10
-199.07997440442739
 20
-10.31034318797742
 30
0.0
 11
-198.59920389661499
 21
-10.31034318797742
 31
0.0
  0
LINE
  5
1DE1
  8
247
 10
-198.47811698255231
 20
-10.31034318797742
 30
0.0
 11
-197.7270998608746
 21
-10.3103431879775
 31
0.0
  0
LINE
  5
1DE2
  8
247
 10
-198.47811698255231
 20
-10.31034318797742
 30
0.0
 11
-198.54486991224019
 21
-10.54314787547742
 31
0.0
  0
LINE
  5
1DE3
  8
247
 10
-198.59920389661499
 20
-10.31034318797742
 30
0.0
 11
-198.66595682630239
 21
-10.54314787547742
 31
0.0
  0
LINE
  5
1DE4
  8
247
 10
-198.53814452838731
 20
-10.54314787547748
 30
0.0
 11
-198.30533984088731
 21
-10.31034318797747
 31
0.0
  0
LINE
  5
1DE5
  8
247
 10
-197.7948916309453
 20
-10.575789106895799
 30
0.0
 11
-197.5547937265861
 21
-10.335691202536619
 31
0.0
  0
LINE
  5
1DE6
  8
247
 10
-196.84414237317739
 20
-10.56642131297742
 30
0.0
 11
-196.7593718653649
 21
-10.56642131297742
 31
0.0
  0
LINE
  5
1DE7
  8
247
 10
-196.84414237317739
 20
-10.56642131297742
 30
0.0
 11
-196.77070975599
 21
-10.31034318797742
 31
0.0
  0
LINE
  5
1DE8
  8
247
 10
-197.91029367518931
 20
-11.72571665628703
 30
0.0
 11
-197.14691728407399
 21
-10.962340265171701
 31
0.0
  0
ARC
  5
1DE9
  8
247
 10
-197.99172147473999
 20
-11.82356486766494
 30
0.0
 40
0.5820029296875
 50
270.0
 51
40.329840654167192
  0
LINE
  5
1DEA
  8
247
 10
-198.79369916507611
 20
-11.83322801731347
 30
0.0
 11
-197.97878265620449
 21
-11.01831150844186
 31
0.0
  0
LINE
  5
1DEB
  8
247
 10
-198.8976753225239
 20
-12.195835551048161
 30
0.0
 11
-197.91265428847149
 21
-11.210814516995731
 31
0.0
  0
LINE
  5
1DEC
  8
247
 10
-198.95781522473999
 20
-12.40556807201059
 30
0.0
 11
-197.99172147473999
 21
-12.40556807201059
 31
0.0
  0
LINE
  5
1DED
  8
247
 10
-198.33151371462611
 20
-12.40556807201059
 30
0.0
 11
-197.47730038481541
 21
-11.551354742199949
 31
0.0
  0
ARC
  5
1DEE
  8
247
 10
-198.25144706067741
 20
-11.80028264110239
 30
0.0
 40
0.3492072715759277
 50
261.66285421114719
 51
66.338192159113575
  0
LINE
  5
1DEF
  8
247
 10
-198.11129724167461
 20
-11.480433072156391
 30
0.0
 11
-198.3020812044638
 21
-12.14579950321559
 31
0.0
  0
LINE
  5
1DF0
  8
247
 10
-198.07288233833941
 20
-12.405568072010629
 30
0.0
 11
-197.4147226834076
 21
-11.747408417078899
 31
0.0
  0
LINE
  5
1DF1
  8
247
 10
-198.59014509091301
 20
-12.40556807201059
 30
0.0
 11
-198.29070637881941
 21
-12.106129359917199
 31
0.0
  0
LINE
  5
1DF2
  8
247
 10
-198.84877646719971
 20
-12.40556807201059
 30
0.0
 11
-198.18673557886669
 21
-11.74352718367763
 31
0.0
  0
LINE
  5
1DF3
  8
247
 10
-197.77061507788321
 20
-12.361932187841269
 30
0.0
 11
-197.4533541545637
 21
-12.0446712645217
 31
0.0
  0
LINE
  5
1DF4
  8
247
 10
-197.28674198255251
 20
-12.40556807201059
 30
0.0
 11
-196.7660427638024
 21
-12.40556807201059
 31
0.0
  0
ARC
  5
1DF5
  8
247
 10
-199.07997440442739
 20
-11.532559008289921
 30
0.0
 40
1.2222158203124971
 50
90.0
 51
270.0
  0
ARC
  5
1DF6
  8
247
 10
-199.07997440442739
 20
-11.532559008289921
 30
0.0
 40
0.9894111328124999
 50
90.0
 51
270.0
  0
ARC
  5
1DF7
  8
247
 10
-195.55613163099
 20
-11.648961352039921
 30
0.0
 40
0.756615234375
 50
163.99975070172931
 51
304.96387329163048
  0
LINE
  5
1DF8
  8
247
 10
-199.07997440442739
 20
-12.521970415760631
 30
0.0
 11
-194.35406913099001
 21
-12.521970415760631
 31
0.0
  0
LINE
  5
1DF9
  8
247
 10
-199.07997440442739
 20
-12.754775097269111
 30
0.0
 11
-194.35406913099001
 21
-12.754775097269111
 31
0.0
  0
LINE
  5
1DFA
  8
247
 10
-196.7660427638024
 20
-12.40556807201059
 30
0.0
 11
-196.16524881849
 21
-10.31034318797742
 31
0.0
  0
LINE
  5
1DFB
  8
247
 10
-196.77070975599
 20
-10.31034318797742
 30
0.0
 11
-196.16524881849
 21
-10.31034318797742
 31
0.0
  0
TEXT
  5
1DFC
  8
247
 10
-192.1029612289642
 20
-12.457986373344889
 30
0.0
 40
2.0
  1
ST32-C3242-45B-100
 41
0.7
  7
YOKO
 11
-192.1029612289642
 21
-12.457986373344889
 31
0.0
 73
     1
  0
ENDBLK
  5
1DFE
  8
0
  0
ENDSEC
  0
SECTION
  2
ENTITIES
  0
TEXT
  5
1445
  8
241
 10
-210.0
 20
35.0
 30
0.0
 40
5.0
  1
ST32-C3242-45B-100
  7
YOKO
 11
-210.0
 21
35.0
 31
0.0
 73
     1
  0
LINE
  5
1674
  8
250
 10
-208.66396383102989
 20
-16.000001519918399
 30
0.0
 11
-225.0
 21
-16.000001519918399
 31
0.0
  0
LINE
  5
1675
  8
250
 10
-208.66396383102989
 20
16.000000000000028
 30
0.0
 11
-225.0
 21
16.000000000000028
 31
0.0
  0
LINE
  5
1676
  8
250
 10
-224.0
 20
-13.77000151991839
 30
0.0
 11
-224.0
 21
13.77000000000004
 31
0.0
  0
LINE
  5
167A
  8
250
 10
-210.16396788414571
 20
-14.50000119209286
 30
0.0
 11
-210.16396788414571
 21
-35.999999999999993
 31
0.0
  0
LINE
  5
167B
  8
250
 10
0.0
 20
-16.050883315503569
 30
0.0
 11
-0.0000000000000013
 21
-36.0
 31
0.0
  0
LINE
  5
167C
  8
250
 10
-207.93396788414569
 20
-34.999999999999993
 30
0.0
 11
-2.23
 21
-35.0
 31
0.0
  0
LINE
  5
1680
  8
250
 10
-99.749747479159396
 20
-15.80000084638591
 30
0.0
 11
-99.749747479159396
 21
-28.999999999999979
 31
0.0
  0
LINE
  5
1681
  8
250
 10
0.0
 20
-16.050883315503569
 30
0.0
 11
-0.0000000000000008
 21
-29.0
 31
0.0
  0
LINE
  5
1682
  8
250
 10
-97.519747479159406
 20
-27.999999999999989
 30
0.0
 11
-2.2299999999999991
 21
-28.0
 31
0.0
  0
LINE
  5
1686
  8
250
 10
0.1403858170671128
 20
16.0
 30
0.0
 11
15.0
 21
15.99999999999998
 31
0.0
  0
LINE
  5
1687
  8
250
 10
0.1332813462637432
 20
-16.0
 30
0.0
 11
15.0
 21
-16.0
 31
0.0
  0
LINE
  5
1688
  8
250
 10
14.0
 20
13.77
 30
0.0
 11
14.0
 21
-13.77
 31
0.0
  0
LINE
  5
168C
  8
250
 10
-4.8667182859914524
 20
-21.000000000000011
 30
0.0
 11
21.999999999999989
 21
-21.000000000000021
 31
0.0
  0
LINE
  5
168D
  8
250
 10
-4.8667182859915661
 20
21.000000000000028
 30
0.0
 11
22.0
 21
21.000000000000028
 31
0.0
  0
LINE
  5
168E
  8
250
 10
20.999999999999989
 20
-18.770000000000021
 30
0.0
 11
21.0
 21
18.770000000000021
 31
0.0
  0
LINE
  5
1692
  8
250
 10
0.0000000000000009
 20
16.14038579061798
 30
0.0
 11
0.0000000000000071
 21
30.549588727355761
 31
0.0
  0
LINE
  5
1693
  8
250
 10
-5.9519293005918081
 20
21.59231552896793
 30
0.0
 11
-10.54239811096252
 21
26.18278467696279
 31
0.0
  0
ARC
  5
1694
  8
250
 10
0.0
 20
15.64038579061798
 30
0.0
 40
13.909202936737779
 50
99.195841687228949
 51
125.8041562057489
  0
LINE
  5
1698
  8
250
 10
-12.86830782348175
 20
16.000000000000021
 30
0.0
 11
-21.20900370316286
 21
16.000000000000021
 31
0.0
  0
LINE
  5
1699
  8
250
 10
-12.86120335275308
 20
-16.0
 30
0.0
 11
-21.20900370316286
 21
-16.0
 31
0.0
  0
LINE
  5
169A
  8
250
 10
-20.20900370316286
 20
13.77000000000003
 30
0.0
 11
-20.209003703162871
 21
-13.77
 31
0.0
  0
TEXT
  5
169E
  8
250
 10
-21.20900370316286
 20
-4.0714285714285587
 30
0.0
 40
3.0
  1
\U+2205
 50
90.0
  0
TEXT
  5
169F
  8
250
 10
-21.20900370316286
 20
-1.3571428571428441
 30
0.0
 40
3.0
  1
32
 50
90.0
  0
LINE
  5
16A0
  8
250
 10
-19.837337036496201
 20
-13.77
 30
0.0
 11
-20.209003703162871
 21
-16.0
 31
0.0
  0
LINE
  5
16A1
  8
250
 10
-20.58067036982953
 20
-13.77
 30
0.0
 11
-20.209003703162871
 21
-16.0
 31
0.0
  0
LINE
  5
16A2
  8
250
 10
-20.209003703162871
 20
-16.0
 30
0.0
 11
-20.209003703162871
 21
-13.77
 31
0.0
  0
LINE
  5
16A3
  8
250
 10
-20.58067036982953
 20
13.77000000000003
 30
0.0
 11
-20.20900370316286
 21
16.000000000000021
 31
0.0
  0
LINE
  5
16A4
  8
250
 10
-19.837337036496191
 20
13.77000000000003
 30
0.0
 11
-20.20900370316286
 21
16.000000000000021
 31
0.0
  0
LINE
  5
16A5
  8
250
 10
-20.20900370316286
 20
16.000000000000021
 30
0.0
 11
-20.20900370316286
 21
13.77000000000003
 31
0.0
  0
TEXT
  5
16A6
  8
250
 10
20.0
 20
-4.0714285714285641
 30
0.0
 40
3.0
  1
\U+2205
 50
90.0
  0
TEXT
  5
16A7
  8
250
 10
20.0
 20
-1.3571428571428501
 30
0.0
 40
3.0
  1
42
 50
90.0
  0
LINE
  5
16A8
  8
250
 10
20.62833333333333
 20
18.770000000000021
 30
0.0
 11
21.0
 21
21.000000000000028
 31
0.0
  0
LINE
  5
16A9
  8
250
 10
21.37166666666667
 20
18.770000000000021
 30
0.0
 11
21.0
 21
21.000000000000028
 31
0.0
  0
LINE
  5
16AA
  8
250
 10
21.0
 20
21.000000000000028
 30
0.0
 11
21.0
 21
18.770000000000021
 31
0.0
  0
LINE
  5
16AB
  8
250
 10
21.371666666666648
 20
-18.770000000000021
 30
0.0
 11
20.999999999999989
 21
-21.000000000000021
 31
0.0
  0
LINE
  5
16AC
  8
250
 10
20.62833333333333
 20
-18.770000000000021
 30
0.0
 11
20.999999999999989
 21
-21.000000000000021
 31
0.0
  0
LINE
  5
16AD
  8
250
 10
20.999999999999989
 20
-21.000000000000021
 30
0.0
 11
20.999999999999989
 21
-18.770000000000021
 31
0.0
  0
TEXT
  5
16AE
  8
250
 10
13.0
 20
-4.0714285714285721
 30
0.0
 40
3.0
  1
\U+2205
 50
90.0
  0
TEXT
  5
16AF
  8
250
 10
13.0
 20
-1.3571428571428561
 30
0.0
 40
3.0
  1
32
 50
90.0
  0
LINE
  5
16B0
  8
250
 10
14.371666666666661
 20
-13.77
 30
0.0
 11
14.0
 21
-16.0
 31
0.0
  0
LINE
  5
16B1
  8
250
 10
13.62833333333333
 20
-13.77
 30
0.0
 11
14.0
 21
-16.0
 31
0.0
  0
LINE
  5
16B2
  8
250
 10
14.0
 20
-16.0
 30
0.0
 11
14.0
 21
-13.77
 31
0.0
  0
LINE
  5
16B3
  8
250
 10
13.628333333333339
 20
13.77
 30
0.0
 11
14.0
 21
15.99999999999998
 31
0.0
  0
LINE
  5
16B4
  8
250
 10
14.37166666666667
 20
13.77
 30
0.0
 11
14.0
 21
15.99999999999998
 31
0.0
  0
LINE
  5
16B5
  8
250
 10
14.0
 20
15.99999999999998
 30
0.0
 11
14.0
 21
13.77
 31
0.0
  0
TEXT
  5
16B6
  8
250
 10
-9.3406263529244313
 20
28.389362899457389
 30
0.0
 40
2.799999999999998
  1
45üï
 50
19.50946073123043
  0
LINE
  5
16B7
  8
250
 10
-7.8962185018377529
 20
26.638017139615059
 30
0.0
 11
-9.8352913557794501
 21
25.47567786977277
 31
0.0
  0
LINE
  5
16B8
  8
250
 10
-8.3780081490267015
 20
27.204076483064139
 30
0.0
 11
-9.8352913557794501
 21
25.47567786977277
 31
0.0
  0
LINE
  5
16B9
  8
250
 10
-9.8352913557794501
 20
25.47567786977277
 30
0.0
 11
-8.1371133254322263
 21
26.9210468113396
 31
0.0
  0
LINE
  5
16BA
  8
250
 10
-2.2526172106059472
 20
29.741296352642181
 30
0.0
 11
0.0000000000000071
 21
29.549588727355761
 31
0.0
  0
LINE
  5
16BB
  8
250
 10
-2.1930295641795992
 20
29.000355223511249
 30
0.0
 11
0.0000000000000071
 21
29.549588727355761
 31
0.0
  0
LINE
  5
16BC
  8
250
 10
0.0000000000000071
 20
29.549588727355761
 30
0.0
 11
-2.2228233873927721
 21
29.370825788076711
 31
0.0
  0
TEXT
  5
16BD
  8
250
 10
-54.717300682014532
 20
-27.0
 30
0.0
 40
2.799999999999998
  1
100
  0
LINE
  5
16BE
  8
250
 10
-2.2299999999999991
 20
-27.62833333333333
 30
0.0
 11
-0.0000000000000008
 21
-28.0
 31
0.0
  0
LINE
  5
16BF
  8
250
 10
-2.2299999999999991
 20
-28.371666666666659
 30
0.0
 11
-0.0000000000000008
 21
-28.0
 31
0.0
  0
LINE
  5
16C0
  8
250
 10
-0.0000000000000008
 20
-28.0
 30
0.0
 11
-2.2299999999999991
 21
-28.0
 31
0.0
  0
LINE
  5
16C1
  8
250
 10
-97.519747479159406
 20
-28.371666666666641
 30
0.0
 11
-99.749747479159396
 21
-27.999999999999989
 31
0.0
  0
LINE
  5
16C2
  8
250
 10
-97.519747479159406
 20
-27.62833333333332
 30
0.0
 11
-99.749747479159396
 21
-27.999999999999989
 31
0.0
  0
LINE
  5
16C3
  8
250
 10
-99.749747479159396
 20
-27.999999999999989
 30
0.0
 11
-97.519747479159406
 21
-27.999999999999989
 31
0.0
  0
TEXT
  5
16C4
  8
250
 10
-109.0087928668503
 20
-33.999999999999993
 30
0.0
 40
2.799999999999998
  1
211
  0
LINE
  5
16C5
  8
250
 10
-2.23
 20
-34.62833333333333
 30
0.0
 11
-0.0000000000000012
 21
-35.0
 31
0.0
  0
LINE
  5
16C6
  8
250
 10
-2.23
 20
-35.37166666666667
 30
0.0
 11
-0.0000000000000012
 21
-35.0
 31
0.0
  0
LINE
  5
16C7
  8
250
 10
-0.0000000000000012
 20
-35.0
 30
0.0
 11
-2.23
 21
-35.0
 31
0.0
  0
LINE
  5
16C8
  8
250
 10
-207.93396788414569
 20
-35.371666666666663
 30
0.0
 11
-210.16396788414571
 21
-34.999999999999993
 31
0.0
  0
LINE
  5
16C9
  8
250
 10
-207.93396788414569
 20
-34.628333333333323
 30
0.0
 11
-210.16396788414571
 21
-34.999999999999993
 31
0.0
  0
LINE
  5
16CA
  8
250
 10
-210.16396788414571
 20
-34.999999999999993
 30
0.0
 11
-207.93396788414569
 21
-34.999999999999993
 31
0.0
  0
TEXT
  5
16CB
  8
250
 10
-225.0
 20
-3.8952388551973001
 30
0.0
 40
3.0
  1
\U+2205
 50
90.0
  0
TEXT
  5
16CC
  8
250
 10
-225.09999999999999
 20
-1.1809531409115861
 30
0.0
 40
2.799999999999998
  1
32
 50
90.0
  0
LINE
  5
16CD
  8
250
 10
-224.37166666666661
 20
13.77000000000004
 30
0.0
 11
-224.0
 21
16.000000000000028
 31
0.0
  0
LINE
  5
16CE
  8
250
 10
-223.6283333333333
 20
13.77000000000004
 30
0.0
 11
-224.0
 21
16.000000000000028
 31
0.0
  0
LINE
  5
16CF
  8
250
 10
-224.0
 20
16.000000000000028
 30
0.0
 11
-224.0
 21
13.77000000000004
 31
0.0
  0
LINE
  5
16D0
  8
250
 10
-223.6283333333333
 20
-13.77000151991839
 30
0.0
 11
-224.0
 21
-16.000001519918399
 31
0.0
  0
LINE
  5
16D1
  8
250
 10
-224.37166666666661
 20
-13.77000151991839
 30
0.0
 11
-224.0
 21
-16.000001519918399
 31
0.0
  0
LINE
  5
16D2
  8
250
 10
-224.0
 20
-16.000001519918399
 30
0.0
 11
-224.0
 21
-13.77000151991839
 31
0.0
  0
INSERT
  5
1E00
  8
240
  2
A$C35555145
 10
0.0
 20
0.0
 30
0.0
  0
VIEWPORT
  5
22
 67
     1
  8
0
 10
261.51769911504419
 20
148.5
 30
0.0
 40
523.0353982300885
 41
297.0
 68
     1
 69
     1
1001
ACAD
1000
MVIEW
1002
{
1070
    16
1010
0.0
1020
0.0
1030
0.0
1010
0.0
1020
0.0
1030
1.0
1040
0.0
1040
297.0
1040
261.51769911504419
1040
148.5
1040
50.0
1040
0.0
1040
0.0
1070
     0
1070
   100
1070
     1
1070
     1
1070
     0
1070
     0
1070
     0
1070
     0
1040
0.0
1040
0.0
1040
0.0
1040
1.0
1040
1.0
1040
10.0
1040
10.0
1070
     0
1002
{
1002
}
1002
}
1001
GENIUS_GENODEF_13
1002
{
1000
HIER
1070
     0
1002
}
1002
{
1000
MANEDIT
1070
     0
1002
}
1002
{
1000
NOSEL
1070
     0
1002
}
1002
{
1000
BEHIND
1070
     0
1002
}
1002
{
1000
OTHER
1070
     0
1002
}
1002
{
1000
REACTOR
1002
}
1001
GENIUS_GENOBJ-N-SDF_13
1002
{
1000
OWNER
1000
GEN
1002
}
1001
GENIUS_GENSCREG_15
1000
PF
1040
1.0
1000
DF
1040
1.0
1000
MIN
1011
0.0
1021
1.2301717446234740E+160
1031
0.0
1021
0.0
1031
0.0
1000
MAX
1011
523.0353982300885
1021
1.2301717446234740E+160
1031
0.0
1021
297.0
1031
0.0
1000
FLAGS
1070
     2
  0
ENDSEC
  0
EOF
