  0
SECTION
  2
HEADER
  9
$ACADVER
  1
AC1009
  9
$INSBASE
 10
0.0
 20
0.0
 30
0.0
  9
$EXTMIN
 10
-146.80260018318731
 20
-28.257659619999998
 30
0.0
  9
$EXTMAX
 10
71.00000000000027
 20
61.000000000000007
 30
0.0
  9
$LIMMIN
 10
0.0
 20
0.0
  9
$LIMMAX
 10
297.0
 20
210.0
  9
$ORTHOMODE
 70
     0
  9
$REGENMODE
 70
     1
  9
$FILLMODE
 70
     1
  9
$QTEXTMODE
 70
     0
  9
$MIRRTEXT
 70
     1
  9
$DRAGMODE
 70
     2
  9
$LTSCALE
 40
10.0
  9
$OSMODE
 70
    37
  9
$ATTMODE
 70
     1
  9
$TEXTSIZE
 40
3.0
  9
$TRACEWID
 40
1.0
  9
$TEXTSTYLE
  7
YOKO
  9
$CLAYER
  8
240
  9
$CELTYPE
  6
BYLAYER
  9
$CECOLOR
 62
   256
  9
$DIMSCALE
 40
1.0
  9
$DIMASZ
 40
2.2299999999999991
  9
$DIMEXO
 40
0.5
  9
$DIMDLI
 40
7.0
  9
$DIMRND
 40
0.0
  9
$DIMDLE
 40
0.0
  9
$DIMEXE
 40
1.0
  9
$DIMTP
 40
0.0
  9
$DIMTM
 40
0.01
  9
$DIMTXT
 40
2.799999999999998
  9
$DIMCEN
 40
0.0
  9
$DIMTSZ
 40
0.0
  9
$DIMTOL
 70
     0
  9
$DIMLIM
 70
     0
  9
$DIMTIH
 70
     0
  9
$DIMTOH
 70
     0
  9
$DIMSE1
 70
     0
  9
$DIMSE2
 70
     0
  9
$DIMTAD
 70
     3
  9
$DIMZIN
 70
     9
  9
$DIMBLK
  1
OPEN
  9
$DIMASO
 70
     1
  9
$DIMSHO
 70
     1
  9
$DIMPOST
  1

  9
$DIMAPOST
  1

  9
$DIMALT
 70
     0
  9
$DIMALTD
 70
     2
  9
$DIMALTF
 40
25.399999999999999
  9
$DIMLFAC
 40
1.0
  9
$DIMTOFL
 70
     1
  9
$DIMTVP
 40
0.0
  9
$DIMTIX
 70
     1
  9
$DIMSOXD
 70
     0
  9
$DIMSAH
 70
     0
  9
$DIMBLK1
  1

  9
$DIMBLK2
  1

  9
$DIMSTYLE
  2
BIGT
  9
$DIMCLRD
 70
   256
  9
$DIMCLRE
 70
   256
  9
$DIMCLRT
 70
    40
  9
$DIMTFAC
 40
1.0
  9
$DIMGAP
 40
1.0
  9
$LUNITS
 70
     2
  9
$LUPREC
 70
     6
  9
$SKETCHINC
 40
1.0
  9
$FILLETRAD
 40
0.0
  9
$AUNITS
 70
     0
  9
$AUPREC
 70
     6
  9
$MENU
  1
.
  9
$ELEVATION
 40
0.0
  9
$PELEVATION
 40
0.0
  9
$THICKNESS
 40
0.0
  9
$LIMCHECK
 70
     0
  9
$BLIPMODE
 70
     0
  9
$CHAMFERA
 40
0.2
  9
$CHAMFERB
 40
0.2
  9
$SKPOLY
 70
     0
  9
$TDCREATE
 40
2457654.6711780559
  9
$TDUPDATE
 40
2457654.7504045721
  9
$TDINDWG
 40
0.0269406019
  9
$TDUSRTIMER
 40
0.0269405556
  9
$USRTIMER
 70
     1
  9
$ANGBASE
 50
0.0
  9
$ANGDIR
 70
     0
  9
$PDMODE
 70
     1
  9
$PDSIZE
 40
0.0
  9
$PLINEWID
 40
0.0
  9
$COORDS
 70
     1
  9
$SPLFRAME
 70
     0
  9
$SPLINETYPE
 70
     6
  9
$SPLINESEGS
 70
     4
  9
$ATTDIA
 70
     1
  9
$ATTREQ
 70
     1
  9
$HANDLING
 70
     1
  9
$HANDSEED
  5
4988
  9
$SURFTAB1
 70
     6
  9
$SURFTAB2
 70
     6
  9
$SURFTYPE
 70
     6
  9
$SURFU
 70
     6
  9
$SURFV
 70
     6
  9
$UCSNAME
  2

  9
$UCSORG
 10
0.0
 20
0.0
 30
0.0
  9
$UCSXDIR
 10
1.0
 20
0.0
 30
0.0
  9
$UCSYDIR
 10
0.0
 20
1.0
 30
0.0
  9
$PUCSNAME
  2

  9
$PUCSORG
 10
0.0
 20
0.0
 30
0.0
  9
$PUCSXDIR
 10
1.0
 20
0.0
 30
0.0
  9
$PUCSYDIR
 10
0.0
 20
1.0
 30
0.0
  9
$USERI1
 70
     1
  9
$USERI2
 70
     0
  9
$USERI3
 70
     0
  9
$USERI4
 70
     0
  9
$USERI5
 70
     0
  9
$USERR1
 40
0.0
  9
$USERR2
 40
0.0
  9
$USERR3
 40
0.0
  9
$USERR4
 40
0.0
  9
$USERR5
 40
0.0
  9
$WORLDVIEW
 70
     1
  9
$SHADEDGE
 70
     3
  9
$SHADEDIF
 70
    70
  9
$TILEMODE
 70
     1
  9
$MAXACTVP
 70
    16
  9
$PLIMCHECK
 70
     0
  9
$PEXTMIN
 10
1.0000000000000000E+020
 20
1.0000000000000000E+020
 30
1.0000000000000000E+020
  9
$PEXTMAX
 10
-1.0000000000000000E+020
 20
-1.0000000000000000E+020
 30
-1.0000000000000000E+020
  9
$PLIMMIN
 10
0.0
 20
0.0
  9
$PLIMMAX
 10
420.0
 20
297.0
  9
$UNITMODE
 70
     0
  9
$VISRETAIN
 70
     1
  9
$PLINEGEN
 70
     0
  9
$PSLTSCALE
 70
     1
  0
ENDSEC
  0
SECTION
  2
TABLES
  0
TABLE
  2
VPORT
 70
     1
  0
VPORT
  2
*ACTIVE
 70
     0
 10
0.0
 20
0.0
 11
1.0
 21
1.0
 12
16.848160621364851
 22
20.506085727490209
 13
0.0
 23
0.0
 14
7.0
 24
7.0
 15
7.0
 25
7.0
 16
0.0
 26
0.0
 36
1.0
 17
0.0
 27
0.0
 37
0.0
 40
192.54735792777799
 41
1.469813391877058
 42
50.0
 43
0.0
 44
0.0
 50
0.0
 51
0.0
 71
     0
 72
  2000
 73
     1
 74
     0
 75
     0
 76
     1
 77
     0
 78
     0
  0
ENDTAB
  0
TABLE
  2
LTYPE
 70
    21
  0
LTYPE
  2
CONTINUOUS
 70
     0
  3
Solid line
 72
    65
 73
     0
 40
0.0
  0
LTYPE
  2
CENTER2
 70
     0
  3
___ _ ___ _ ___ _ ___ _ ___ _ ___ _ ___ _ ___ _
 72
    65
 73
     4
 40
1.125
 49
0.75
 49
-0.125
 49
0.125
 49
-0.125
  0
LTYPE
  2
HIDDEN2
 70
     0
  3
_ _ _ _ _ _ _ _ _ _ _ _ _ _ _ _ _ _ _ _ _ _ _ _
 72
    65
 73
     2
 40
0.1875
 49
0.125
 49
-0.0625
  0
LTYPE
  2
PHANTOM2
 70
     0
  3
___ _ _ ___ _ _ ___ _ _ ___ _ _ ___ _ _ ___ _ _
 72
    65
 73
     6
 40
1.25
 49
0.625
 49
-0.125
 49
0.125
 49
-0.125
 49
0.125
 49
-0.125
  0
LTYPE
  2
AMCONSTR
 70
     0
  3
_______________________
 72
    65
 73
     2
 40
9999.0
 49
9999.0
 49
0.0
  0
LTYPE
  2
HIDDEN
 70
     0
  3
Hidden __ __ __ __ __ __ __ __ __ __ __ __ __ _
 72
    65
 73
     2
 40
0.375
 49
0.25
 49
-0.125
  0
LTYPE
  2
CENTER
 70
     0
  3
Center ____ _ ____ _ ____ _ ____ _ ____ _ ____
 72
    65
 73
     4
 40
2.0
 49
1.25
 49
-0.25
 49
0.25
 49
-0.25
  0
LTYPE
  2
AMZIGZAG2
 70
     0
  3
/\/-/\/-/\/-/\/-/\/-/\/
 72
    65
 73
     2
 40
0.4401
 49
0.0001
 49
-0.4400000000000001
  0
LTYPE
  2
ACANSTGB
 70
     0
  3
__ . . __ . .
 72
    65
 73
     6
 40
0.35433070866
 49
0.15748031496
 49
-0.03937007874
 49
0.03937007874
 49
-0.03937007874
 49
0.03937007874
 49
-0.03937007874
  0
LTYPE
  2
ACANSTGL
 70
     0
  3
_ _ _ _ _
 72
    65
 73
     2
 40
0.11811023622
 49
0.07874015748
 49
-0.03937007874
  0
ENDTAB
  0
TABLE
  2
LAYER
 70
     8
  0
LAYER
  2
0
 70
     0
 62
     7
  6
CONTINUOUS
  0
LAYER
  2
240
 70
     0
 62
     4
  6
CONTINUOUS
  0
LAYER
  2
DEFPOINTS
 70
     0
 62
     7
  6
CONTINUOUS
  0
LAYER
  2
245
 70
     0
 62
     2
  6
CENTER2
  0
LAYER
  2
241
 70
     0
 62
   211
  6
CONTINUOUS
  0
LAYER
  2
247
 70
     0
 62
    60
  6
CONTINUOUS
  0
LAYER
  2
250
 70
     0
 62
     3
  6
CONTINUOUS
  0
ENDTAB
  0
TABLE
  2
STYLE
 70
    10
  0
STYLE
  2
STANDARD
 70
     0
 40
0.0
 41
1.0
 50
0.0
 71
     0
 42
3.0
  3
romans.shx
  4
extfont.shx
  0
STYLE
  2
YOKO
 70
     0
 40
0.0
 41
1.0
 50
0.0
 71
     0
 42
3.0
  3
romans.shx
  4
extfont.shx
  0
STYLE
  2

 70
     1
 40
0.0
 41
1.0
 50
0.0
 71
     0
 42
3.0
  3
genltshp.shx
  4

  0
STYLE
  2
ACANSGDT
 70
     0
 40
0.0
 41
1.0
 50
0.0
 71
     0
 42
3.0
  3
amgdt.shx
  4

  0
ENDTAB
  0
TABLE
  2
VIEW
 70
     0
  0
ENDTAB
  0
TABLE
  2
UCS
 70
     0
  0
ENDTAB
  0
TABLE
  2
APPID
 70
    42
  0
APPID
  2
ACAD
 70
     0
  0
APPID
  2
ACADANNOTATIVE
 70
     0
  0
APPID
  2
GLOBAL
 70
     0
  0
APPID
  2
DETAIL
 70
     0
  0
APPID
  2
GRPNAME
 70
     0
  0
APPID
  2
GPARA
 70
     0
  0
APPID
  2
MCAD_NO_VIS
 70
     0
  0
APPID
  2
ACAD_TEMP_GRAPHIC
 70
     0
  0
APPID
  2
ACATTRIBSERVICES
 70
     0
  0
APPID
  2
GENIUS_GENSCREG_15
 70
     0
  0
APPID
  2
GENIUS_GENODEF_13
 70
     0
  0
APPID
  2
GENIUS_GENOBJ-N-SDF_13
 70
     0
  0
APPID
  2
GENIUS_GENREC_14
 70
     0
  0
APPID
  2
GENIUS_GENOBJ-N-REC_13
 70
     0
  0
APPID
  2
GENIUS_GENDIMSH_14
 70
     0
  0
APPID
  2
GENIUS_GENOBJ-N-DIM_13
 70
     0
  0
APPID
  2
GENIUS_GENDIM_13
 70
     0
  0
APPID
  2
GENIUS_GENDTOL_13
 70
     0
  0
APPID
  2
GENIUS_GENOLIS_13
 70
     0
  0
APPID
  2
GENIUS_GENOENT_13
 70
     0
  0
APPID
  2
GENIUS_GENOBJ-F-FEM_13
 70
     0
  0
APPID
  2
GENIUS_GENOREF_13
 70
     0
  0
APPID
  2
GENIUS_GEFFEM_13
 70
     0
  0
APPID
  2
GENIUS_GEFFEMP_13
 70
     0
  0
APPID
  2
AD_DRAW
 70
     0
  0
APPID
  2
DESIGNERASSEMBLIES
 70
     0
  0
APPID
  2
ACADM_DIM_EDIT
 70
     0
  0
APPID
  2
AMDT_DM_ADJ
 70
     0
  0
APPID
  2
ITEMNAME
 70
     0
  0
APPID
  2
GENIUS_GENOBJ-N-FIL_13
 70
     0
  0
APPID
  2
GENIUS_GENFIL_13
 70
     0
  0
APPID
  2
GENIUS_GENOBJ-N-CHA_13
 70
     0
  0
APPID
  2
ACAD_NAV_VCDISPLAY
 70
     0
  0
APPID
  2
ACAD_DSTYLE_DIMJAG
 70
     0
  0
APPID
  2
ACAD_DSTYLE_DIMBREAK
 70
     0
  0
APPID
  2
ACAECLAYERSTANDARD
 70
     0
  0
APPID
  2
ACAD_PSEXT
 70
     0
  0
APPID
  2
ACAD_MLEADERVER
 70
     0
  0
APPID
  2
ACAD_DSTYLE_DIMARC_LENGTH_
 70
     0
  0
APPID
  2
ACAD_DSTYLE_DIM_LINETYPE
 70
     0
  0
APPID
  2
ACAD_DSTYLE_DIM_EXT1_LINETYPE
 70
     0
  0
APPID
  2
ACAD_DSTYLE_DIM_EXT2_LINETYPE
 70
     0
  0
ENDTAB
  0
TABLE
  2
DIMSTYLE
 70
    31
  0
DIMSTYLE
  2
STANDARD
 70
     0
  3

  4

  5

  6

  7

 40
1.0
 41
0.18
 42
0.0625
 43
0.38
 44
0.18
 45
0.0
 46
0.0
 47
0.0
 48
0.0
140
0.18
141
0.09
142
0.0
143
25.399999999999999
144
1.0
145
0.0
146
1.0
147
0.09
 71
     0
 72
     0
 73
     1
 74
     1
 75
     0
 76
     0
 77
     0
 78
     0
170
     0
171
     2
172
     0
173
     0
174
     0
175
     0
176
     0
177
     0
178
     0
  0
DIMSTYLE
  2
BIGT
 70
     0
  3

  4

  5

  6

  7

 40
1.0
 41
2.2299999999999991
 42
0.5
 43
7.0
 44
1.0
 45
0.0
 46
0.0
 47
0.0
 48
0.01
140
2.799999999999998
141
0.0
142
0.0
143
25.399999999999999
144
1.0
145
0.0
146
1.0
147
1.0
 71
     0
 72
     0
 73
     0
 74
     0
 75
     0
 76
     0
 77
     3
 78
     9
170
     0
171
     2
172
     1
173
     0
174
     1
175
     0
176
   256
177
   256
178
    40
  0
DIMSTYLE
  2
AM_ANSI
 70
     0
  3

  4
mm
  5

  6

  7

 40
1.0
 41
0.12
 42
0.05
 43
0.5
 44
0.1
 45
0.0
 46
0.0
 47
0.1
 48
0.1
140
0.12
141
0.0
142
0.0
143
25.399999999999999
144
1.0
145
0.0
146
0.71
147
0.06
 71
     0
 72
     0
 73
     1
 74
     1
 75
     0
 76
     0
 77
     0
 78
     7
170
     0
171
     2
172
     0
173
     0
174
     0
175
     0
176
   256
177
   256
178
     2
  0
DIMSTYLE
  2
AM_ANSI$3
 70
     0
  3

  4
mm
  5

  6

  7

 40
1.0
 41
0.12
 42
0.05
 43
0.5
 44
0.1
 45
0.0
 46
0.0
 47
0.1
 48
0.1
140
0.12
141
0.0
142
0.0
143
25.399999999999999
144
1.0
145
0.0
146
0.71
147
0.06
 71
     0
 72
     0
 73
     1
 74
     1
 75
     0
 76
     0
 77
     0
 78
     7
170
     0
171
     2
172
     0
173
     0
174
     0
175
     0
176
   256
177
   256
178
     2
  0
DIMSTYLE
  2
AM_ANSI$4
 70
     0
  3

  4
mm
  5

  6

  7

 40
1.0
 41
0.12
 42
0.05
 43
0.5
 44
0.1
 45
0.0
 46
0.0
 47
0.1
 48
0.1
140
0.12
141
0.0
142
0.0
143
25.399999999999999
144
1.0
145
0.0
146
0.71
147
0.06
 71
     0
 72
     0
 73
     1
 74
     1
 75
     0
 76
     0
 77
     0
 78
     7
170
     0
171
     2
172
     0
173
     0
174
     0
175
     0
176
   256
177
   256
178
     2
  0
DIMSTYLE
  2
AM_ANSI$7
 70
     0
  3

  4
mm
  5

  6

  7

 40
1.0
 41
0.12
 42
0.05
 43
0.5
 44
0.1
 45
0.0
 46
0.0
 47
0.1
 48
0.1
140
0.12
141
0.0
142
0.0
143
25.399999999999999
144
1.0
145
0.0
146
0.71
147
0.06
 71
     0
 72
     0
 73
     1
 74
     1
 75
     0
 76
     0
 77
     0
 78
     7
170
     0
171
     2
172
     0
173
     0
174
     0
175
     0
176
   256
177
   256
178
     2
  0
DIMSTYLE
  2
AM_ANSI$SF
 70
     0
  3

  4
mm
  5

  6

  7

 40
1.0
 41
0.12
 42
0.05
 43
0.5
 44
0.1
 45
0.0
 46
0.0
 47
0.1
 48
0.1
140
0.12
141
0.0
142
0.0
143
25.399999999999999
144
1.0
145
0.0
146
0.71
147
0.06
 71
     0
 72
     0
 73
     1
 74
     1
 75
     1
 76
     1
 77
     0
 78
     7
170
     0
171
     2
172
     0
173
     0
174
     0
175
     0
176
   256
177
   256
178
     2
  0
DIMSTYLE
  2
AM_ANSI$SH
 70
     0
  3

  4
mm
  5

  6
GENAXEH
  7

 40
1.0
 41
0.12
 42
0.05
 43
0.5
 44
0.1
 45
0.0
 46
0.0
 47
0.1
 48
0.1
140
0.12
141
0.0
142
0.0
143
25.399999999999999
144
1.0
145
0.0
146
0.71
147
0.06
 71
     0
 72
     0
 73
     1
 74
     1
 75
     1
 76
     1
 77
     0
 78
     7
170
     0
171
     2
172
     0
173
     1
174
     0
175
     0
176
   256
177
   256
178
     2
  0
ENDTAB
  0
ENDSEC
  0
SECTION
  2
BLOCKS
  0
BLOCK
  8
0
  2
$MODEL_SPACE
 70
     0
 10
0.0
 20
0.0
 30
0.0
  3
$MODEL_SPACE
  1

  0
ENDBLK
  5
4843
  8
0
  0
BLOCK
 67
     1
  8
0
  2
$PAPER_SPACE
 70
     0
 10
0.0
 20
0.0
 30
0.0
  3
$PAPER_SPACE
  1

  0
ENDBLK
  5
483F
 67
     1
  8
0
  0
BLOCK
  8
0
  2
_OPEN
 70
     0
 10
0.0
 20
0.0
 30
0.0
  3
_OPEN
  1

  0
LINE
  5
4650
  8
0
  6
BYBLOCK
 62
     0
 10
-1.0
 20
0.1666666666666666
 30
0.0
 11
0.0
 21
0.0
 31
0.0
  0
LINE
  5
4651
  8
0
  6
BYBLOCK
 62
     0
 10
-1.0
 20
-0.1666666666666666
 30
0.0
 11
0.0
 21
0.0
 31
0.0
  0
LINE
  5
4652
  8
0
  6
BYBLOCK
 62
     0
 10
0.0
 20
0.0
 30
0.0
 11
-1.0
 21
0.0
 31
0.0
  0
ENDBLK
  5
4653
  8
0
  0
BLOCK
  8
0
  2
GENAXEH
 70
     0
 10
0.0
 20
0.0
 30
0.0
  3
GENAXEH
  1

  0
LINE
  5
468B
  8
0
 10
-1.0
 20
0.0
 30
0.0
 11
1.0
 21
0.0
 31
0.0
  0
ENDBLK
  5
468C
  8
0
  0
BLOCK
  8
0
  2
*U5
 70
     1
 10
0.0
 20
0.0
 30
0.0
  3
*U5
  1

  0
TEXT
  5
41AD
  8
250
 10
19.83463342337912
 20
43.0
 30
0.0
 40
2.799999999999998
  1
45
  0
ENDBLK
  5
41AE
  8
0
  0
BLOCK
  8
0
  2
*U6
 70
     1
 10
0.0
 20
0.0
 30
0.0
  3
*U6
  1

  0
TEXT
  5
41B1
  8
250
 10
-99.0
 20
-3.93333333333333
 30
0.0
 40
2.799999999999998
  1
\U+220532
 50
90.0
  0
ENDBLK
  5
41B2
  8
0
  0
BLOCK
  8
0
  2
_ACMFILLEDHALF
 70
     0
 10
0.0
 20
0.0
 30
0.0
  3
_ACMFILLEDHALF
  1

  0
TRACE
  5
490A
  8
240
 62
     0
 10
-0.8
 20
0.0
 30
0.0
 11
-1.0
 21
0.166666666
 31
0.0
 12
0.0
 22
0.0
 32
0.0
 13
0.0
 23
0.0
 33
0.0
  0
LINE
  5
490B
  8
240
 62
     0
 10
-1.0
 20
0.0
 30
0.0
 11
-0.8
 21
0.0
 31
0.0
  0
ENDBLK
  5
4909
  8
0
  0
ENDSEC
  0
SECTION
  2
ENTITIES
  0
LINE
  5
426C
  8
245
  6
CENTER2
 10
47.802612885079768
 20
0.0
 30
0.0
 11
-82.999999999999702
 21
0.0
 31
0.0
1001
GRPNAME
1000
PASTMD0D
  0
LINE
  5
426D
  8
241
  6
CONTINUOUS
 10
15.454983893536619
 20
20.445331536841309
 30
0.0
 11
34.749281855991867
 21
9.3057634143930539
 31
0.0
  0
LINE
  5
426F
  8
241
  6
CONTINUOUS
 10
25.508302220732439
 20
25.639568122448281
 30
0.0
 11
44.8026001831876
 21
14.500000000000011
 31
0.0
  0
LINE
  5
4275
  8
241
  6
CONTINUOUS
 10
11.802612885079769
 20
22.722987210000039
 30
0.0
 11
11.802612885079769
 21
25.302612885080631
 31
0.0
  0
LINE
  5
4276
  8
241
  6
CONTINUOUS
 10
25.139254916036158
 20
25.655681075749168
 30
0.0
 11
15.48593658884035
 21
21.154264813169728
 31
0.0
  0
ARC
  5
4277
  8
241
  6
CONTINUOUS
 10
15.802612885084431
 20
22.722987210003229
 30
0.0
 40
4.0000000000050751
 50
180.0000000000455
 51
239.99999999996939
  0
LINE
  5
4278
  8
241
  6
CONTINUOUS
 10
13.802612885081929
 20
19.258885594861329
 30
0.0
 11
32.810634610613313
 21
8.2845991348629795
 31
0.0
  0
ARC
  5
427D
  8
241
  6
CONTINUOUS
 10
34.810634610614272
 20
11.74870075000223
 30
0.0
 40
4.000000000002351
 50
240.00000000000981
 51
285.00000000000119
  0
LINE
  5
4280
  8
241
  6
CONTINUOUS
 10
35.118329160688141
 20
9.2896504610921724
 30
0.0
 11
44.771647487883882
 21
13.79106672367158
 31
0.0
  0
LINE
  5
4281
  8
241
  6
CONTINUOUS
 10
44.802612885079768
 20
10.28493853779184
 30
0.0
 11
35.845910791025119
 21
7.8849974448432931
 31
0.0
  0
LINE
  5
4282
  8
240
  6
CONTINUOUS
 10
44.802612885079768
 20
-12.739973091525879
 30
0.0
 11
44.802612885079768
 21
13.80718701072383
 31
0.0
  0
LINE
  5
4283
  8
240
  6
CONTINUOUS
 10
-79.999999999999702
 20
16.0
 30
0.0
 11
-0.0000000000013358
 21
16.0
 31
0.0
1001
GRPNAME
1000
PASTMD0D
  0
LINE
  5
4285
  8
240
  6
CONTINUOUS
 10
-79.999999999999702
 20
-16.0
 30
0.0
 11
-79.999999999999702
 21
16.0
 31
0.0
1001
GRPNAME
1000
PASTMD0D
  0
LINE
  5
428C
  8
240
  6
CONTINUOUS
 10
-79.999999999999702
 20
-16.0
 30
0.0
 11
-0.0000000000003766
 21
-16.0
 31
0.0
1001
GRPNAME
1000
PASTMD0D
  0
ARC
  5
4297
  8
241
  6
CONTINUOUS
 10
25.308302220732461
 20
25.293157960934511
 30
0.0
 40
0.4
 50
60.0
 51
115.0000000000001
1001
GENIUS_GENODEF_13
1002
{
1000
HIER
1070
     0
1002
}
1002
{
1000
MANEDIT
1070
     0
1002
}
1002
{
1000
NOSEL
1070
     0
1002
}
1002
{
1000
BEHIND
1070
     0
1002
}
1002
{
1000
OTHER
1070
     0
1002
}
1002
{
1000
REACTOR
1002
}
1001
GENIUS_GENOBJ-N-FIL_13
1002
{
1000
OWNER
1000
GEN
1002
}
  0
ARC
  5
4298
  8
241
  6
CONTINUOUS
 10
15.654983893536629
 20
20.791741698355072
 30
0.0
 40
0.4
 50
115.0000000000001
 51
240.0000000000004
1001
GENIUS_GENODEF_13
1002
{
1000
HIER
1070
     0
1002
}
1002
{
1000
MANEDIT
1070
     0
1002
}
1002
{
1000
NOSEL
1070
     0
1002
}
1002
{
1000
BEHIND
1070
     0
1002
}
1002
{
1000
OTHER
1070
     0
1002
}
1002
{
1000
REACTOR
1002
}
1001
GENIUS_GENOBJ-N-FIL_13
1002
{
1000
OWNER
1000
GEN
1002
}
  0
ARC
  5
4299
  8
241
  6
CONTINUOUS
 10
34.949281855991842
 20
9.6521735759068328
 30
0.0
 40
0.4
 50
240.0000000000004
 51
295.00000000000023
1001
GENIUS_GENODEF_13
1002
{
1000
HIER
1070
     0
1002
}
1002
{
1000
MANEDIT
1070
     0
1002
}
1002
{
1000
NOSEL
1070
     0
1002
}
1002
{
1000
BEHIND
1070
     0
1002
}
1002
{
1000
OTHER
1070
     0
1002
}
1002
{
1000
REACTOR
1002
}
1001
GENIUS_GENOBJ-N-FIL_13
1002
{
1000
OWNER
1000
GEN
1002
}
  0
ARC
  5
429A
  8
241
  6
CONTINUOUS
 10
44.60260018318759
 20
14.15358983848623
 30
0.0
 40
0.4
 50
295.00000000000023
 51
60.0
1001
GENIUS_GENODEF_13
1002
{
1000
HIER
1070
     0
1002
}
1002
{
1000
MANEDIT
1070
     0
1002
}
1002
{
1000
NOSEL
1070
     0
1002
}
1002
{
1000
BEHIND
1070
     0
1002
}
1002
{
1000
OTHER
1070
     0
1002
}
1002
{
1000
REACTOR
1002
}
1001
GENIUS_GENOBJ-N-FIL_13
1002
{
1000
OWNER
1000
GEN
1002
}
  0
LINE
  5
429B
  8
241
  6
CONTINUOUS
 10
0.0000000000003766
 20
16.0
 30
0.0
 11
-0.0000000000003766
 21
-16.0
 31
0.0
  0
TEXT
  5
429C
  8
241
  6
CONTINUOUS
 10
-80.997399816812404
 20
56.0
 30
0.0
 40
5.0
  1
ST32-C3050C-60
  7
YOKO
  0
LINE
  5
429D
  8
250
  6
CONTINUOUS
 10
44.436574779403173
 20
15.0
 30
0.0
 11
64.000000000000284
 21
14.999999999999989
 31
0.0
  0
LINE
  5
429E
  8
250
  6
CONTINUOUS
 10
63.000000000000277
 20
12.769999999999991
 30
0.0
 11
63.000000000000277
 21
-4.5333333333333403
 31
0.0
  0
LINE
  5
429F
  8
250
  6
CONTINUOUS
 10
62.628333333333607
 20
12.769999999999991
 30
0.0
 11
63.000000000000277
 21
14.999999999999989
 31
0.0
  0
LINE
  5
42A0
  8
250
  6
CONTINUOUS
 10
63.371666666666947
 20
12.769999999999991
 30
0.0
 11
63.000000000000277
 21
14.999999999999989
 31
0.0
  0
LINE
  5
42A1
  8
250
  6
CONTINUOUS
 10
63.000000000000277
 20
14.999999999999989
 30
0.0
 11
63.000000000000277
 21
12.769999999999991
 31
0.0
  0
TEXT
  5
42A2
  8
250
  6
CONTINUOUS
 10
62.00000000000027
 20
-3.9333333333333269
 30
0.0
 40
2.799999999999998
  1
\U+220530
 50
90.0
  0
LINE
  5
42A3
  8
250
  6
CONTINUOUS
 10
27.11606670371431
 20
25.0
 30
0.0
 11
71.00000000000027
 21
24.999999999999989
 31
0.0
  0
LINE
  5
42A4
  8
250
  6
CONTINUOUS
 10
70.00000000000027
 20
22.769999999999989
 30
0.0
 11
70.00000000000027
 21
-4.533333333333343
 31
0.0
  0
LINE
  5
42A5
  8
250
  6
CONTINUOUS
 10
-0.0000000000002984
 20
24.0
 30
0.0
 11
-0.0000000000002984
 21
43.0
 31
0.0
  0
LINE
  5
42A6
  8
250
  6
CONTINUOUS
 10
45.002600180092422
 20
14.65354007760318
 30
0.0
 11
45.002600180092422
 21
43.0
 31
0.0
  0
LINE
  5
42A7
  8
250
  6
CONTINUOUS
 10
2.2299999999997051
 20
42.0
 30
0.0
 11
42.772600180092432
 21
42.0
 31
0.0
  0
INSERT
  5
42A8
  8
250
  6
CONTINUOUS
  2
*U5
 10
0.00000000000027
 20
0.0
 30
0.0
  0
LINE
  5
42A9
  8
250
  6
CONTINUOUS
 10
-79.999999999999702
 20
16.5
 30
0.0
 11
-79.999999999999702
 21
43.0
 31
0.0
  0
LINE
  5
42AA
  8
250
  6
CONTINUOUS
 10
0.0000025582170835
 20
23.000000000000028
 30
0.0
 11
0.0000025582170835
 21
43.0
 31
0.0
  0
LINE
  5
42AB
  8
250
  6
CONTINUOUS
 10
-77.769999999999683
 20
42.0
 30
0.0
 11
-2.2299974417829058
 21
42.0
 31
0.0
  0
LINE
  5
42AC
  8
250
  6
CONTINUOUS
 10
-80.499999999999702
 20
16.0
 30
0.0
 11
-98.99999999999973
 21
16.0
 31
0.0
  0
LINE
  5
42AD
  8
250
  6
CONTINUOUS
 10
-80.499999999999702
 20
-16.0
 30
0.0
 11
-98.99999999999973
 21
-15.99999999999998
 31
0.0
  0
LINE
  5
42AE
  8
250
  6
CONTINUOUS
 10
-97.999999999999744
 20
13.77
 30
0.0
 11
-97.999999999999744
 21
-13.77
 31
0.0
  0
INSERT
  5
42AF
  8
250
  6
CONTINUOUS
  2
*U6
 10
0.00000000000027
 20
0.0
 30
0.0
  0
LINE
  5
42B0
  8
250
  6
CONTINUOUS
 10
69.628333333333615
 20
22.769999999999989
 30
0.0
 11
70.00000000000027
 21
24.999999999999989
 31
0.0
  0
LINE
  5
42B1
  8
250
  6
CONTINUOUS
 10
70.371666666666954
 20
22.769999999999989
 30
0.0
 11
70.00000000000027
 21
24.999999999999989
 31
0.0
  0
LINE
  5
42B2
  8
250
  6
CONTINUOUS
 10
70.00000000000027
 20
24.999999999999989
 30
0.0
 11
70.00000000000027
 21
22.769999999999989
 31
0.0
  0
LINE
  5
42B3
  8
250
  6
CONTINUOUS
 10
-2.2299974417829058
 20
42.371666666666663
 30
0.0
 11
0.0000025582170835
 21
42.0
 31
0.0
  0
LINE
  5
42B4
  8
250
  6
CONTINUOUS
 10
-2.2299974417829058
 20
41.62833333333333
 30
0.0
 11
0.0000025582170835
 21
42.0
 31
0.0
  0
LINE
  5
42B5
  8
250
  6
CONTINUOUS
 10
0.0000025582170835
 20
42.0
 30
0.0
 11
-2.2299974417829058
 21
42.0
 31
0.0
  0
LINE
  5
42B6
  8
250
  6
CONTINUOUS
 10
42.772600180092432
 20
42.371666666666663
 30
0.0
 11
45.002600180092422
 21
42.0
 31
0.0
  0
LINE
  5
42B7
  8
250
  6
CONTINUOUS
 10
42.772600180092432
 20
41.62833333333333
 30
0.0
 11
45.002600180092422
 21
42.0
 31
0.0
  0
LINE
  5
42B8
  8
250
  6
CONTINUOUS
 10
45.002600180092422
 20
42.0
 30
0.0
 11
42.772600180092432
 21
42.0
 31
0.0
  0
LINE
  5
42B9
  8
250
  6
CONTINUOUS
 10
2.2299999999997051
 20
41.62833333333333
 30
0.0
 11
-0.0000000000002984
 21
42.0
 31
0.0
  0
LINE
  5
42BA
  8
250
  6
CONTINUOUS
 10
2.2299999999997051
 20
42.371666666666663
 30
0.0
 11
-0.0000000000002984
 21
42.0
 31
0.0
  0
LINE
  5
42BB
  8
250
  6
CONTINUOUS
 10
-0.0000000000002984
 20
42.0
 30
0.0
 11
2.2299999999997051
 21
42.0
 31
0.0
  0
LINE
  5
42BC
  8
250
  6
CONTINUOUS
 10
-77.769999999999683
 20
41.62833333333333
 30
0.0
 11
-79.999999999999702
 21
42.0
 31
0.0
  0
LINE
  5
42BD
  8
250
  6
CONTINUOUS
 10
-77.769999999999683
 20
42.371666666666663
 30
0.0
 11
-79.999999999999702
 21
42.0
 31
0.0
  0
LINE
  5
42BE
  8
250
  6
CONTINUOUS
 10
-79.999999999999702
 20
42.0
 30
0.0
 11
-77.769999999999683
 21
42.0
 31
0.0
  0
LINE
  5
42BF
  8
250
  6
CONTINUOUS
 10
-98.371666666666385
 20
13.77
 30
0.0
 11
-97.999999999999744
 21
16.0
 31
0.0
  0
LINE
  5
42C0
  8
250
  6
CONTINUOUS
 10
-97.628333333333003
 20
13.77
 30
0.0
 11
-97.999999999999744
 21
16.0
 31
0.0
  0
LINE
  5
42C1
  8
250
  6
CONTINUOUS
 10
-97.999999999999744
 20
16.0
 30
0.0
 11
-97.999999999999744
 21
13.77
 31
0.0
  0
LINE
  5
42C2
  8
250
  6
CONTINUOUS
 10
-97.628333333333003
 20
-13.77
 30
0.0
 11
-97.999999999999744
 21
-15.99999999999998
 31
0.0
  0
LINE
  5
42C3
  8
250
  6
CONTINUOUS
 10
-98.371666666666385
 20
-13.77
 30
0.0
 11
-97.999999999999744
 21
-15.99999999999998
 31
0.0
  0
LINE
  5
42C4
  8
250
  6
CONTINUOUS
 10
-97.999999999999744
 20
-15.99999999999998
 30
0.0
 11
-97.999999999999744
 21
-13.77
 31
0.0
  0
TEXT
  5
42C5
  8
250
  6
CONTINUOUS
 10
69.00000000000027
 20
-3.9333333333333309
 30
0.0
 40
2.799999999999998
  1
\U+220550
 50
90.0
  0
TEXT
  5
42C6
  8
250
  6
CONTINUOUS
 10
-42.666665387557977
 20
43.0
 30
0.0
 40
2.799999999999998
  1
80
  0
LINE
  5
4505
  8
240
  6
CONTINUOUS
 10
-0.0000000000006608
 20
-22.5
 30
0.0
 11
-0.0000000000006608
 21
-15.985857157145739
 31
0.0
1001
GRPNAME
1000
PASTMD0D
  0
LINE
  5
4507
  8
240
  6
CONTINUOUS
 10
13.49999999999924
 20
-27.000000000000089
 30
0.0
 11
21.318128098206721
 21
-27.0
 31
0.0
  0
ARC
  5
4509
  8
240
  6
CONTINUOUS
 10
21.178407774650761
 20
-22.547779673349691
 30
0.0
 40
4.4544121504248793
 50
271.79747582278839
 51
300.03726477760603
  0
LINE
  5
450A
  8
240
  6
CONTINUOUS
 10
-0.0000000000004263
 20
22.500000000000028
 30
0.0
 11
-0.0000000000013358
 21
16.0
 31
0.0
1001
GRPNAME
1000
PASTMD0D
  0
LINE
  5
450B
  8
240
  6
CONTINUOUS
 10
21.319753424396641
 20
26.99833328188987
 30
0.0
 11
13.50009320345452
 21
27.0000932034554
 31
0.0
  0
LINE
  5
450D
  8
240
  6
CONTINUOUS
 10
24.85414572730723
 20
25.522732477634509
 30
0.0
 11
23.408122357070312
 21
26.408856738584468
 31
0.0
  0
ARC
  5
450E
  8
240
  6
CONTINUOUS
 10
21.318125583598238
 20
22.998541846658728
 30
0.0
 40
3.9997917664816112
 50
58.498129823228332
 51
89.976681683575706
  0
LINE
  5
450F
  8
240
  6
CONTINUOUS
 10
23.40812235707067
 20
-26.4039643793508
 30
0.0
 11
44.325111449795749
 21
-13.592613255879989
 31
0.0
  0
ARC
  5
4512
  8
240
  6
CONTINUOUS
 10
43.80261288507976
 20
-12.739973091525879
 30
0.0
 40
1.0000000000000091
 50
301.49999999999312
 51
359.99999999998693
  0
LINE
  5
4514
  8
241
  6
CONTINUOUS
 10
8.999999999999126
 20
-22.500000000000139
 30
0.0
 11
8.9999999999991545
 21
-15.379371162385921
 31
0.0
  0
LINE
  5
4515
  8
240
  6
CONTINUOUS
 10
-0.0000000000006608
 20
-22.5
 30
0.0
 11
8.5857864376261475
 21
-22.5
 31
0.0
  0
ARC
  5
4516
  8
240
  6
CONTINUOUS
 10
8.5857864376261475
 20
-23.5
 30
0.0
 40
1.0
 50
44.999999999999659
 51
90.0
  0
LINE
  5
4517
  8
240
  6
CONTINUOUS
 10
-0.0000000000004263
 20
22.500000000000028
 30
0.0
 11
8.585786437626119
 21
22.500000000000028
 31
0.0
  0
LINE
  5
4519
  8
240
  6
CONTINUOUS
 10
13.50009320345452
 20
27.0000932034554
 30
0.0
 11
9.2928932188126652
 21
22.792893218813479
 31
0.0
  0
ARC
  5
451A
  8
240
  6
CONTINUOUS
 10
8.585786437626119
 20
23.500000000000028
 30
0.0
 40
1.0
 50
270.0
 51
315.00000000000028
  0
LINE
  5
451B
  8
240
  6
CONTINUOUS
 10
13.49999999999924
 20
-27.000000000000089
 30
0.0
 11
9.2928932188126936
 21
-22.79289321881345
 31
0.0
  0
LINE
  5
451C
  8
241
  6
CONTINUOUS
 10
13.49999999999924
 20
19.43359922552338
 30
0.0
 11
13.49999999999924
 21
-13.71193008294042
 31
0.0
  0
LINE
  5
451D
  8
241
  6
CONTINUOUS
 10
21.31812809820649
 20
-13.75897426208053
 30
0.0
 11
13.91421356237019
 21
-13.75897426208053
 31
0.0
  0
ARC
  5
451E
  8
241
  6
CONTINUOUS
 10
13.90876550287434
 20
-11.95989185833321
 30
0.0
 40
1.7990906527536361
 50
247.04503828598371
 51
270.17350503836821
  0
ARC
  5
451F
  8
241
  6
CONTINUOUS
 10
21.34547647865308
 20
-6.339788669791516
 30
0.0
 40
7.4192359975095448
 50
269.7887989645854
 51
286.14166471137833
  0
LINE
  5
4520
  8
241
  6
CONTINUOUS
 10
11.63243253872683
 20
-12.825128601056919
 30
0.0
 11
13.207106781183629
 21
-13.61251851276449
 31
0.0
  0
ARC
  5
4521
  8
241
  6
CONTINUOUS
 10
10.58591496080081
 20
-14.326506572338189
 30
0.0
 40
1.830118808590488
 50
55.122035718971809
 51
134.95274806258081
  0
ARC
  5
4522
  8
241
  6
CONTINUOUS
 10
10.856305401279529
 20
-14.384716381162489
 30
0.0
 40
2.0678146082507221
 50
139.11893474761649
 51
193.57269060297139
  0
LINE
  5
4523
  8
241
  6
CONTINUOUS
 10
8.846238717672648
 20
-14.86998865684771
 30
0.0
 11
9.292893218810363
 21
-16.588337801031201
 31
0.0
  0
POLYLINE
  5
4524
  8
241
  6
CONTINUOUS
 66
     1
 10
0.0
 20
0.0
 30
0.0
 70
     8
  0
VERTEX
  5
4751
  8
241
 10
13.914200183187591
 20
-26.042000000000002
 30
0.0
 70
    32
  0
VERTEX
  5
4752
  8
241
 10
13.969900183187599
 20
-26.053999999999998
 30
0.0
 70
    32
  0
VERTEX
  5
4753
  8
241
 10
14.02560018318759
 20
-26.065899999999999
 30
0.0
 70
    32
  0
VERTEX
  5
4754
  8
241
 10
14.0815001831876
 20
-26.0778
 30
0.0
 70
    32
  0
VERTEX
  5
4755
  8
241
 10
14.137400183187591
 20
-26.089600000000001
 30
0.0
 70
    32
  0
VERTEX
  5
4756
  8
241
 10
14.19340018318759
 20
-26.101299999999998
 30
0.0
 70
    32
  0
VERTEX
  5
4757
  8
241
 10
14.249500183187591
 20
-26.1129
 30
0.0
 70
    32
  0
VERTEX
  5
4758
  8
241
 10
14.305800183187589
 20
-26.124500000000001
 30
0.0
 70
    32
  0
VERTEX
  5
4759
  8
241
 10
14.3621001831876
 20
-26.135999999999999
 30
0.0
 70
    32
  0
VERTEX
  5
475A
  8
241
 10
14.418500183187589
 20
-26.147400000000001
 30
0.0
 70
    32
  0
VERTEX
  5
475B
  8
241
 10
14.475000183187589
 20
-26.158799999999999
 30
0.0
 70
    32
  0
VERTEX
  5
475C
  8
241
 10
14.531600183187591
 20
-26.170000000000002
 30
0.0
 70
    32
  0
VERTEX
  5
475D
  8
241
 10
14.58820018318759
 20
-26.1812
 30
0.0
 70
    32
  0
VERTEX
  5
475E
  8
241
 10
14.645000183187589
 20
-26.192299999999999
 30
0.0
 70
    32
  0
VERTEX
  5
475F
  8
241
 10
14.70190018318759
 20
-26.203399999999998
 30
0.0
 70
    32
  0
VERTEX
  5
4760
  8
241
 10
14.75890018318759
 20
-26.214400000000001
 30
0.0
 70
    32
  0
VERTEX
  5
4761
  8
241
 10
14.815900183187599
 20
-26.225200000000001
 30
0.0
 70
    32
  0
VERTEX
  5
4762
  8
241
 10
14.87310018318759
 20
-26.2361
 30
0.0
 70
    32
  0
VERTEX
  5
4763
  8
241
 10
14.930300183187599
 20
-26.2468
 30
0.0
 70
    32
  0
VERTEX
  5
4764
  8
241
 10
14.98760018318759
 20
-26.2575
 30
0.0
 70
    32
  0
VERTEX
  5
4765
  8
241
 10
15.045100183187589
 20
-26.2681
 30
0.0
 70
    32
  0
VERTEX
  5
4766
  8
241
 10
15.102600183187599
 20
-26.278600000000001
 30
0.0
 70
    32
  0
VERTEX
  5
4767
  8
241
 10
15.160200183187589
 20
-26.289000000000001
 30
0.0
 70
    32
  0
VERTEX
  5
4768
  8
241
 10
15.21790018318759
 20
-26.299399999999999
 30
0.0
 70
    32
  0
VERTEX
  5
4769
  8
241
 10
15.27570018318759
 20
-26.309699999999999
 30
0.0
 70
    32
  0
VERTEX
  5
476A
  8
241
 10
15.33360018318759
 20
-26.319900000000001
 30
0.0
 70
    32
  0
VERTEX
  5
476B
  8
241
 10
15.39150018318759
 20
-26.330100000000002
 30
0.0
 70
    32
  0
VERTEX
  5
476C
  8
241
 10
15.44960018318759
 20
-26.3401
 30
0.0
 70
    32
  0
VERTEX
  5
476D
  8
241
 10
15.507800183187589
 20
-26.350100000000001
 30
0.0
 70
    32
  0
VERTEX
  5
476E
  8
241
 10
15.566000183187599
 20
-26.359999999999999
 30
0.0
 70
    32
  0
VERTEX
  5
476F
  8
241
 10
15.6243001831876
 20
-26.369900000000001
 30
0.0
 70
    32
  0
VERTEX
  5
4770
  8
241
 10
15.68280018318759
 20
-26.3796
 30
0.0
 70
    32
  0
VERTEX
  5
4771
  8
241
 10
15.741300183187599
 20
-26.389299999999999
 30
0.0
 70
    32
  0
VERTEX
  5
4772
  8
241
 10
15.79990018318759
 20
-26.399000000000001
 30
0.0
 70
    32
  0
VERTEX
  5
4773
  8
241
 10
15.858600183187599
 20
-26.4085
 30
0.0
 70
    32
  0
VERTEX
  5
4774
  8
241
 10
15.91740018318759
 20
-26.417999999999999
 30
0.0
 70
    32
  0
VERTEX
  5
4775
  8
241
 10
15.97630018318759
 20
-26.427299999999999
 30
0.0
 70
    32
  0
VERTEX
  5
4776
  8
241
 10
16.035200183187591
 20
-26.436699999999998
 30
0.0
 70
    32
  0
VERTEX
  5
4777
  8
241
 10
16.094300183187588
 20
-26.445900000000002
 30
0.0
 70
    32
  0
VERTEX
  5
4778
  8
241
 10
16.153400183187589
 20
-26.455100000000002
 30
0.0
 70
    32
  0
VERTEX
  5
4779
  8
241
 10
16.2126001831876
 20
-26.464099999999998
 30
0.0
 70
    32
  0
VERTEX
  5
477A
  8
241
 10
16.2720001831876
 20
-26.473199999999999
 30
0.0
 70
    32
  0
VERTEX
  5
477B
  8
241
 10
16.331400183187601
 20
-26.482099999999999
 30
0.0
 70
    32
  0
VERTEX
  5
477C
  8
241
 10
16.3909001831876
 20
-26.491
 30
0.0
 70
    32
  0
VERTEX
  5
477D
  8
241
 10
16.45040018318759
 20
-26.499700000000001
 30
0.0
 70
    32
  0
VERTEX
  5
477E
  8
241
 10
16.510100183187589
 20
-26.508400000000002
 30
0.0
 70
    32
  0
VERTEX
  5
477F
  8
241
 10
16.569900183187588
 20
-26.517099999999999
 30
0.0
 70
    32
  0
VERTEX
  5
4780
  8
241
 10
16.629700183187591
 20
-26.525600000000001
 30
0.0
 70
    32
  0
VERTEX
  5
4781
  8
241
 10
16.689600183187601
 20
-26.534099999999999
 30
0.0
 70
    32
  0
VERTEX
  5
4782
  8
241
 10
16.749700183187588
 20
-26.5425
 30
0.0
 70
    32
  0
VERTEX
  5
4783
  8
241
 10
16.809800183187591
 20
-26.550799999999999
 30
0.0
 70
    32
  0
VERTEX
  5
4784
  8
241
 10
16.870000183187589
 20
-26.559100000000001
 30
0.0
 70
    32
  0
VERTEX
  5
4785
  8
241
 10
16.930200183187601
 20
-26.567299999999999
 30
0.0
 70
    32
  0
VERTEX
  5
4786
  8
241
 10
16.990600183187588
 20
-26.575399999999998
 30
0.0
 70
    32
  0
VERTEX
  5
4787
  8
241
 10
17.0511001831876
 20
-26.583400000000001
 30
0.0
 70
    32
  0
VERTEX
  5
4788
  8
241
 10
17.111600183187601
 20
-26.5914
 30
0.0
 70
    32
  0
VERTEX
  5
4789
  8
241
 10
17.172200183187591
 20
-26.5992
 30
0.0
 70
    32
  0
VERTEX
  5
478A
  8
241
 10
17.232900183187589
 20
-26.606999999999999
 30
0.0
 70
    32
  0
VERTEX
  5
478B
  8
241
 10
17.293700183187589
 20
-26.614699999999999
 30
0.0
 70
    32
  0
VERTEX
  5
478C
  8
241
 10
17.354600183187589
 20
-26.622399999999999
 30
0.0
 70
    32
  0
VERTEX
  5
478D
  8
241
 10
17.415600183187589
 20
-26.629999999999999
 30
0.0
 70
    32
  0
VERTEX
  5
478E
  8
241
 10
17.476600183187589
 20
-26.637499999999999
 30
0.0
 70
    32
  0
VERTEX
  5
478F
  8
241
 10
17.537800183187588
 20
-26.6449
 30
0.0
 70
    32
  0
VERTEX
  5
4790
  8
241
 10
17.599000183187592
 20
-26.652200000000001
 30
0.0
 70
    32
  0
VERTEX
  5
4791
  8
241
 10
17.660300183187591
 20
-26.659500000000001
 30
0.0
 70
    32
  0
VERTEX
  5
4792
  8
241
 10
17.7217001831876
 20
-26.666699999999999
 30
0.0
 70
    32
  0
VERTEX
  5
4793
  8
241
 10
17.783200183187589
 20
-26.6738
 30
0.0
 70
    32
  0
VERTEX
  5
4794
  8
241
 10
17.844700183187591
 20
-26.680800000000001
 30
0.0
 70
    32
  0
VERTEX
  5
4795
  8
241
 10
17.906400183187589
 20
-26.687799999999999
 30
0.0
 70
    32
  0
VERTEX
  5
4796
  8
241
 10
17.968100183187591
 20
-26.694700000000001
 30
0.0
 70
    32
  0
VERTEX
  5
4797
  8
241
 10
18.029900183187589
 20
-26.701499999999999
 30
0.0
 70
    32
  0
VERTEX
  5
4798
  8
241
 10
18.091800183187601
 20
-26.708200000000001
 30
0.0
 70
    32
  0
VERTEX
  5
4799
  8
241
 10
18.153800183187592
 20
-26.7149
 30
0.0
 70
    32
  0
VERTEX
  5
479A
  8
241
 10
18.215800183187589
 20
-26.721399999999999
 30
0.0
 70
    32
  0
VERTEX
  5
479B
  8
241
 10
18.27800018318759
 20
-26.727900000000002
 30
0.0
 70
    32
  0
VERTEX
  5
479C
  8
241
 10
18.340200183187591
 20
-26.734400000000001
 30
0.0
 70
    32
  0
VERTEX
  5
479D
  8
241
 10
18.402500183187591
 20
-26.7407
 30
0.0
 70
    32
  0
VERTEX
  5
479E
  8
241
 10
18.464900183187591
 20
-26.747
 30
0.0
 70
    32
  0
VERTEX
  5
479F
  8
241
 10
18.527300183187592
 20
-26.7532
 30
0.0
 70
    32
  0
VERTEX
  5
47A0
  8
241
 10
18.589900183187591
 20
-26.7593
 30
0.0
 70
    32
  0
VERTEX
  5
47A1
  8
241
 10
18.652500183187591
 20
-26.7653
 30
0.0
 70
    32
  0
VERTEX
  5
47A2
  8
241
 10
18.715200183187591
 20
-26.7713
 30
0.0
 70
    32
  0
VERTEX
  5
47A3
  8
241
 10
18.778000183187601
 20
-26.777200000000001
 30
0.0
 70
    32
  0
VERTEX
  5
47A4
  8
241
 10
18.840900183187589
 20
-26.783000000000001
 30
0.0
 70
    32
  0
VERTEX
  5
47A5
  8
241
 10
18.903900183187591
 20
-26.788699999999999
 30
0.0
 70
    32
  0
VERTEX
  5
47A6
  8
241
 10
18.966900183187601
 20
-26.7944
 30
0.0
 70
    32
  0
VERTEX
  5
47A7
  8
241
 10
19.030000183187589
 20
-26.800000000000001
 30
0.0
 70
    32
  0
VERTEX
  5
47A8
  8
241
 10
19.093200183187591
 20
-26.805499999999999
 30
0.0
 70
    32
  0
VERTEX
  5
47A9
  8
241
 10
19.156500183187589
 20
-26.8109
 30
0.0
 70
    32
  0
VERTEX
  5
47AA
  8
241
 10
19.219900183187601
 20
-26.816299999999998
 30
0.0
 70
    32
  0
VERTEX
  5
47AB
  8
241
 10
19.283300183187588
 20
-26.8216
 30
0.0
 70
    32
  0
VERTEX
  5
47AC
  8
241
 10
19.3468001831876
 20
-26.826799999999999
 30
0.0
 70
    32
  0
VERTEX
  5
47AD
  8
241
 10
19.410400183187601
 20
-26.831900000000001
 30
0.0
 70
    32
  0
VERTEX
  5
47AE
  8
241
 10
19.474100183187591
 20
-26.8369
 30
0.0
 70
    32
  0
VERTEX
  5
47AF
  8
241
 10
19.537900183187588
 20
-26.841899999999999
 30
0.0
 70
    32
  0
VERTEX
  5
47B0
  8
241
 10
19.601700183187589
 20
-26.846800000000002
 30
0.0
 70
    32
  0
VERTEX
  5
47B1
  8
241
 10
19.665600183187589
 20
-26.851600000000001
 30
0.0
 70
    32
  0
VERTEX
  5
47B2
  8
241
 10
19.729600183187589
 20
-26.856400000000001
 30
0.0
 70
    32
  0
VERTEX
  5
47B3
  8
241
 10
19.793700183187589
 20
-26.861000000000001
 30
0.0
 70
    32
  0
VERTEX
  5
47B4
  8
241
 10
19.857800183187589
 20
-26.865600000000001
 30
0.0
 70
    32
  0
VERTEX
  5
47B5
  8
241
 10
19.922100183187592
 20
-26.870100000000001
 30
0.0
 70
    32
  0
VERTEX
  5
47B6
  8
241
 10
19.986400183187591
 20
-26.874600000000001
 30
0.0
 70
    32
  0
VERTEX
  5
47B7
  8
241
 10
20.050800183187601
 20
-26.878900000000002
 30
0.0
 70
    32
  0
VERTEX
  5
47B8
  8
241
 10
20.1152001831876
 20
-26.883199999999999
 30
0.0
 70
    32
  0
VERTEX
  5
47B9
  8
241
 10
20.179800183187592
 20
-26.8874
 30
0.0
 70
    32
  0
VERTEX
  5
47BA
  8
241
 10
20.244400183187601
 20
-26.891500000000001
 30
0.0
 70
    32
  0
VERTEX
  5
47BB
  8
241
 10
20.309100183187599
 20
-26.895600000000002
 30
0.0
 70
    32
  0
VERTEX
  5
47BC
  8
241
 10
20.373800183187601
 20
-26.8995
 30
0.0
 70
    32
  0
VERTEX
  5
47BD
  8
241
 10
20.438700183187589
 20
-26.903400000000001
 30
0.0
 70
    32
  0
VERTEX
  5
47BE
  8
241
 10
20.503600183187601
 20
-26.907299999999999
 30
0.0
 70
    32
  0
VERTEX
  5
47BF
  8
241
 10
20.568600183187598
 20
-26.911000000000001
 30
0.0
 70
    32
  0
VERTEX
  5
47C0
  8
241
 10
20.633700183187599
 20
-26.9147
 30
0.0
 70
    32
  0
VERTEX
  5
47C1
  8
241
 10
20.698800183187601
 20
-26.918199999999999
 30
0.0
 70
    32
  0
VERTEX
  5
47C2
  8
241
 10
20.764100183187601
 20
-26.921800000000001
 30
0.0
 70
    32
  0
VERTEX
  5
47C3
  8
241
 10
20.829400183187602
 20
-26.9252
 30
0.0
 70
    32
  0
VERTEX
  5
47C4
  8
241
 10
20.894700183187599
 20
-26.9285
 30
0.0
 70
    32
  0
VERTEX
  5
47C5
  8
241
 10
20.960200183187599
 20
-26.931799999999999
 30
0.0
 70
    32
  0
VERTEX
  5
47C6
  8
241
 10
21.025700183187588
 20
-26.934999999999999
 30
0.0
 70
    32
  0
VERTEX
  5
47C7
  8
241
 10
21.091300183187599
 20
-26.938199999999998
 30
0.0
 70
    32
  0
VERTEX
  5
47C8
  8
241
 10
21.157000183187598
 20
-26.941199999999998
 30
0.0
 70
    32
  0
VERTEX
  5
47C9
  8
241
 10
21.222700183187602
 20
-26.944199999999999
 30
0.0
 70
    32
  0
VERTEX
  5
47CA
  8
241
 10
21.288600183187601
 20
-26.947099999999999
 30
0.0
 70
    32
  0
VERTEX
  5
47CB
  8
241
 10
21.3545001831876
 20
-26.9499
 30
0.0
 70
    32
  0
VERTEX
  5
47CC
  8
241
 10
21.420400183187599
 20
-26.9526
 30
0.0
 70
    32
  0
VERTEX
  5
47CD
  8
241
 10
21.486500183187591
 20
-26.955300000000001
 30
0.0
 70
    32
  0
VERTEX
  5
47CE
  8
241
 10
21.5526001831876
 20
-26.957899999999999
 30
0.0
 70
    32
  0
VERTEX
  5
47CF
  8
241
 10
21.618800183187592
 20
-26.9604
 30
0.0
 70
    32
  0
VERTEX
  5
47D0
  8
241
 10
21.6851001831876
 20
-26.962800000000001
 30
0.0
 70
    32
  0
VERTEX
  5
47D1
  8
241
 10
21.751400183187599
 20
-26.965199999999999
 30
0.0
 70
    32
  0
SEQEND
  5
47D2
  8
241
  0
POLYLINE
  5
4525
  8
241
  6
CONTINUOUS
 66
     1
 10
0.0
 20
0.0
 30
0.0
 70
   128
  0
VERTEX
  5
4749
  8
241
  6
CONTINUOUS
 10
13.91421356237019
 20
-26.04197434040185
 30
0.0
  0
VERTEX
  5
474A
  8
241
  6
CONTINUOUS
 10
13.56106097117417
 20
-25.883166940818452
 30
0.0
  0
VERTEX
  5
474B
  8
241
  6
CONTINUOUS
 10
13.207106781183629
 20
-25.509716001808329
 30
0.0
  0
SEQEND
  5
474C
  8
241
  6
CONTINUOUS
  0
ARC
  5
4526
  8
241
  6
CONTINUOUS
 10
35.794538141836867
 20
-10.28022393007973
 30
0.0
 40
27.242053597977272
 50
193.38881167725131
 51
213.98967284380089
  0
LINE
  5
4527
  8
241
  6
CONTINUOUS
 10
8.9999999999997211
 20
22.03167543687611
 30
0.0
 11
8.9999999999991882
 21
-13.47367987735344
 31
0.0
  0
LINE
  5
4528
  8
241
  6
CONTINUOUS
 10
22.438784977363941
 20
14.27278931261378
 30
0.0
 11
22.438784977364001
 21
-13.67802683118884
 31
0.0
  0
LINE
  5
4529
  8
241
  6
CONTINUOUS
 10
44.802612885079768
 20
-3.6885281283556308
 30
0.0
 11
25.070671999620728
 21
-9.8233694923312669
 31
0.0
  0
POLYLINE
  5
452A
  8
241
  6
CONTINUOUS
 66
     1
 10
0.0
 20
0.0
 30
0.0
 70
   128
  0
VERTEX
  5
474D
  8
241
  6
CONTINUOUS
 10
24.943543701038418
 20
-12.993750810092759
 30
0.0
  0
VERTEX
  5
474E
  8
241
  6
CONTINUOUS
 10
25.06318167358841
 20
-11.425571855057109
 30
0.0
  0
VERTEX
  5
474F
  8
241
  6
CONTINUOUS
 10
25.070671999620728
 20
-9.8233694923312669
 30
0.0
  0
SEQEND
  5
4750
  8
241
  6
CONTINUOUS
  0
LINE
  5
452B
  8
241
  6
CONTINUOUS
 10
24.943543701038418
 20
-12.993750810092759
 30
0.0
 11
23.408122357070781
 21
-13.46653791239771
 31
0.0
  0
LINE
  5
457B
  8
250
  6
CONTINUOUS
 10
-56.303843654940302
 20
-17.745403317215139
 30
0.0
 11
-54.866970879999712
 21
-16.0
 31
0.0
  0
LINE
  5
457C
  8
250
  6
CONTINUOUS
 10
-55.660098104765609
 20
-18.117069983832891
 30
0.0
 11
-54.866970879999712
 21
-16.0
 31
0.0
  0
LINE
  5
457D
  8
250
  6
CONTINUOUS
 10
-54.866970879999712
 20
-16.0
 30
0.0
 11
-55.981970879853009
 21
-17.931236650524021
 31
0.0
  0
LINE
  5
457E
  8
250
  6
CONTINUOUS
 10
-55.981970879853009
 20
-17.931236650524021
 30
0.0
 11
-61.943933959999683
 21
-28.257659619999998
 31
0.0
1001
ACAD
1000
DSTYLE
1002
{
1070
     6
1000
OPEN
1070
   343
1005
594
1002
}
  0
TEXT
  5
457F
  8
250
  6
CONTINUOUS
 10
-74.477267289999702
 20
-27.257659619999998
 30
0.0
 40
2.799999999999998
  1
ST32
  7
YOKO
1001
ITEMNAME
1000
LNSP3
  0
LINE
  5
4580
  8
250
  6
CONTINUOUS
 10
-61.943933959999683
 20
-28.257659619999998
 30
0.0
 11
-76.877267289999693
 21
-28.257659619999998
 31
0.0
1001
ITEMNAME
1000
LNSP2
  0
LINE
  5
4581
  8
247
  6
CONTINUOUS
 10
-73.250000000069704
 20
-10.0
 30
0.0
 11
-66.557692308029687
 21
-10.0
 31
0.0
  0
ARC
  5
4582
  8
247
  6
CONTINUOUS
 10
-73.250000000069704
 20
-8.2500000000700311
 30
0.0
 40
1.7499999999299991
 50
90.0
 51
270.0
  0
ARC
  5
4583
  8
247
  6
CONTINUOUS
 10
-66.557692308029687
 20
-8.2500000000700311
 30
0.0
 40
1.7499999999299991
 50
270.0
 51
90.0
  0
LINE
  5
4584
  8
247
  6
CONTINUOUS
 10
-72.384615384719694
 20
-6.5000000001400622
 30
0.0
 11
-73.244851541961694
 21
-9.5000000000200089
 31
0.0
  0
LINE
  5
4585
  8
247
  6
CONTINUOUS
 10
-71.484983818335493
 20
-7.9230769231598961
 30
0.0
 11
-72.792676125975504
 21
-7.9230769231598961
 31
0.0
  0
ARC
  5
4586
  8
247
  6
CONTINUOUS
 10
-71.145143816089501
 20
-7.049598667702865
 30
0.0
 40
0.5538165441895349
 50
342.9978896752952
 51
82.924166218512752
  0
ARC
  5
4587
  8
247
  6
CONTINUOUS
 10
-71.56687832302849
 20
-6.9360330444658302
 30
0.0
 40
0.9904354236226808
 50
274.74293685220141
 51
343.84922627326648
1001
GENIUS_GENOBJ-N-FIL_13
1002
{
1000
OWNER
1000
GEN
1002
}
1001
GENIUS_GENODEF_13
1002
{
1000
HIER
1070
     0
1002
}
1002
{
1000
MANEDIT
1070
     0
1002
}
1002
{
1000
NOSEL
1070
     0
1002
}
1002
{
1000
BEHIND
1070
     0
1002
}
1002
{
1000
OTHER
1070
     0
1002
}
1002
{
1000
REACTOR
1002
}
  0
LINE
  5
4588
  8
247
  6
CONTINUOUS
 10
-71.937159234321683
 20
-9.5000000000200089
 30
0.0
 11
-73.244851541961694
 21
-9.5000000000200089
 31
0.0
  0
LINE
  5
4589
  8
247
  6
CONTINUOUS
 10
-72.384615384719694
 20
-6.5000000001400622
 30
0.0
 11
-71.076923077079684
 21
-6.5000000001400622
 31
0.0
  0
ARC
  5
458A
  8
247
  6
CONTINUOUS
 10
-71.560919636546714
 20
-8.4820242326654807
 30
0.0
 40
0.5640818586791229
 50
335.9909416525216
 51
82.263443459069066
  0
ARC
  5
458B
  8
247
  6
CONTINUOUS
 10
-72.038262685346822
 20
-8.4874290391865088
 30
0.0
 40
1.0176059446230981
 50
275.70198516425808
 51
347.27733843682228
1001
GENIUS_GENOBJ-N-FIL_13
1002
{
1000
OWNER
1000
GEN
1002
}
1001
GENIUS_GENODEF_13
1002
{
1000
HIER
1070
     0
1002
}
1002
{
1000
MANEDIT
1070
     0
1002
}
1002
{
1000
NOSEL
1070
     0
1002
}
1002
{
1000
BEHIND
1070
     0
1002
}
1002
{
1000
OTHER
1070
     0
1002
}
1002
{
1000
REACTOR
1002
}
  0
LINE
  5
458C
  8
247
  6
CONTINUOUS
 10
-70.283313080541703
 20
-9.5000000000200089
 30
0.0
 11
-69.423076923299703
 21
-6.5000000001400622
 31
0.0
  0
LINE
  5
458D
  8
247
  6
CONTINUOUS
 10
-67.000000000319687
 20
-6.5000000001400622
 30
0.0
 11
-67.565736619456317
 21
-6.5000000001400622
 31
0.0
  0
LINE
  5
458E
  8
247
  6
CONTINUOUS
 10
-68.461538461799705
 20
-9.5000000000200089
 30
0.0
 11
-67.846153846439705
 21
-9.5000000000200089
 31
0.0
  0
ARC
  5
458F
  8
247
  6
CONTINUOUS
 10
-66.708791209122595
 20
-8.5832851359733695
 30
0.0
 40
2.2526500823422122
 50
112.35948814153021
 51
164.993248542846
  0
ARC
  5
4590
  8
247
  6
CONTINUOUS
 10
-67.374069479212892
 20
-7.3083126551946389
 30
0.0
 40
0.8906723995727782
 50
4.9945893190753878
 51
65.166328957300493
1001
GENIUS_GENOBJ-N-FIL_13
1002
{
1000
OWNER
1000
GEN
1002
}
1001
GENIUS_GENODEF_13
1002
{
1000
HIER
1070
     0
1002
}
1002
{
1000
MANEDIT
1070
     0
1002
}
1002
{
1000
NOSEL
1070
     0
1002
}
1002
{
1000
BEHIND
1070
     0
1002
}
1002
{
1000
OTHER
1070
     0
1002
}
1002
{
1000
REACTOR
1002
}
  0
ARC
  5
4591
  8
247
  6
CONTINUOUS
 10
-68.226458886212313
 20
-8.1601458886677847
 30
0.0
 40
1.392781735586712
 50
285.84609655578072
 51
352.32513700416251
  0
ARC
  5
4592
  8
247
  6
CONTINUOUS
 10
-67.64221272584011
 20
-8.4592434315272822
 30
0.0
 40
1.324563662670287
 50
159.71360167048991
 51
231.78874565641311
1001
GENIUS_GENOBJ-N-FIL_13
1002
{
1000
OWNER
1000
GEN
1002
}
1001
GENIUS_GENODEF_13
1002
{
1000
HIER
1070
     0
1002
}
1002
{
1000
MANEDIT
1070
     0
1002
}
1002
{
1000
NOSEL
1070
     0
1002
}
1002
{
1000
BEHIND
1070
     0
1002
}
1002
{
1000
OTHER
1070
     0
1002
}
1002
{
1000
REACTOR
1002
}
  0
LINE
  5
4593
  8
247
  6
CONTINUOUS
 10
-67.538461538759691
 20
-8.3461538462199751
 30
0.0
 11
-66.846153846479709
 21
-8.3461538462199751
 31
0.0
  0
LINE
  5
4594
  8
247
  6
CONTINUOUS
 10
-73.250000000069704
 20
-6.5000000001400622
 30
0.0
 11
-72.576923077019813
 21
-6.5000000001400622
 31
0.0
  0
VIEWPORT
  5
22
 67
     1
  8
0
 10
261.51769911504419
 20
148.5
 30
0.0
 40
523.0353982300885
 41
297.0
 68
     1
 69
     1
1001
ACAD
1000
MVIEW
1002
{
1070
    16
1010
0.0
1020
0.0
1030
0.0
1010
0.0
1020
0.0
1030
1.0
1040
0.0
1040
297.0
1040
261.51769911504419
1040
148.5
1040
50.0
1040
0.0
1040
0.0
1070
     0
1070
   100
1070
     1
1070
     1
1070
     0
1070
     0
1070
     0
1070
     0
1040
0.0
1040
0.0
1040
0.0
1040
1.0
1040
1.0
1040
10.0
1040
10.0
1070
     0
1002
{
1002
}
1002
}
1001
GENIUS_GENODEF_13
1002
{
1000
HIER
1070
     0
1002
}
1002
{
1000
MANEDIT
1070
     0
1002
}
1002
{
1000
NOSEL
1070
     0
1002
}
1002
{
1000
BEHIND
1070
     0
1002
}
1002
{
1000
OTHER
1070
     0
1002
}
1002
{
1000
REACTOR
1002
}
1001
GENIUS_GENOBJ-N-SDF_13
1002
{
1000
OWNER
1000
GEN
1002
}
1001
GENIUS_GENSCREG_15
1000
PF
1040
1.0
1000
DF
1040
1.0
1000
MIN
1011
0.0
1021
0.0
1031
0.0
1021
0.0
1031
0.0
1000
MAX
1011
523.0353982300885
1021
0.0
1031
0.0
1021
297.0
1031
0.0
1000
FLAGS
1070
     4
  0
ENDSEC
  0
EOF
