  0
SECTION
  2
HEADER
  9
$ACADVER
  1
AC1009
  9
$INSBASE
 10
0.0
 20
0.0
 30
0.0
  9
$EXTMIN
 10
-102.14280291130279
 20
-34.007445720965279
 30
-0.0015258207003583
  9
$EXTMAX
 10
78.008056389143803
 20
68.006714269991789
 30
0.0000000349246037
  9
$LIMMIN
 10
0.0
 20
0.0
  9
$LIMMAX
 10
297.0
 20
210.0
  9
$ORTHOMODE
 70
     0
  9
$REGENMODE
 70
     1
  9
$FILLMODE
 70
     1
  9
$QTEXTMODE
 70
     0
  9
$MIRRTEXT
 70
     1
  9
$DRAGMODE
 70
     2
  9
$LTSCALE
 40
10.0
  9
$OSMODE
 70
    37
  9
$ATTMODE
 70
     1
  9
$TEXTSIZE
 40
3.0
  9
$TRACEWID
 40
1.0
  9
$TEXTSTYLE
  7
YOKO
  9
$CLAYER
  8
240
  9
$CELTYPE
  6
BYLAYER
  9
$CECOLOR
 62
   256
  9
$DIMSCALE
 40
1.0
  9
$DIMASZ
 40
2.2299999999999991
  9
$DIMEXO
 40
0.5
  9
$DIMDLI
 40
7.0
  9
$DIMRND
 40
0.0
  9
$DIMDLE
 40
0.0
  9
$DIMEXE
 40
1.0
  9
$DIMTP
 40
0.0
  9
$DIMTM
 40
0.01
  9
$DIMTXT
 40
2.799999999999998
  9
$DIMCEN
 40
0.0
  9
$DIMTSZ
 40
0.0
  9
$DIMTOL
 70
     0
  9
$DIMLIM
 70
     0
  9
$DIMTIH
 70
     0
  9
$DIMTOH
 70
     0
  9
$DIMSE1
 70
     0
  9
$DIMSE2
 70
     0
  9
$DIMTAD
 70
     3
  9
$DIMZIN
 70
     9
  9
$DIMBLK
  1
OPEN
  9
$DIMASO
 70
     1
  9
$DIMSHO
 70
     1
  9
$DIMPOST
  1

  9
$DIMAPOST
  1

  9
$DIMALT
 70
     0
  9
$DIMALTD
 70
     2
  9
$DIMALTF
 40
25.399999999999999
  9
$DIMLFAC
 40
1.0
  9
$DIMTOFL
 70
     1
  9
$DIMTVP
 40
0.0
  9
$DIMTIX
 70
     1
  9
$DIMSOXD
 70
     0
  9
$DIMSAH
 70
     0
  9
$DIMBLK1
  1

  9
$DIMBLK2
  1

  9
$DIMSTYLE
  2
BIGT
  9
$DIMCLRD
 70
   256
  9
$DIMCLRE
 70
   256
  9
$DIMCLRT
 70
    40
  9
$DIMTFAC
 40
1.0
  9
$DIMGAP
 40
1.0
  9
$LUNITS
 70
     2
  9
$LUPREC
 70
     6
  9
$SKETCHINC
 40
1.0
  9
$FILLETRAD
 40
0.0
  9
$AUNITS
 70
     0
  9
$AUPREC
 70
     6
  9
$MENU
  1
.
  9
$ELEVATION
 40
0.0
  9
$PELEVATION
 40
0.0
  9
$THICKNESS
 40
0.0
  9
$LIMCHECK
 70
     0
  9
$BLIPMODE
 70
     0
  9
$CHAMFERA
 40
0.2
  9
$CHAMFERB
 40
0.2
  9
$SKPOLY
 70
     0
  9
$TDCREATE
 40
2457654.5995074189
  9
$TDUPDATE
 40
2457654.7497129859
  9
$TDINDWG
 40
0.0274039699
  9
$TDUSRTIMER
 40
0.027403912
  9
$USRTIMER
 70
     1
  9
$ANGBASE
 50
0.0
  9
$ANGDIR
 70
     0
  9
$PDMODE
 70
     1
  9
$PDSIZE
 40
0.0
  9
$PLINEWID
 40
0.0
  9
$COORDS
 70
     1
  9
$SPLFRAME
 70
     0
  9
$SPLINETYPE
 70
     6
  9
$SPLINESEGS
 70
     4
  9
$ATTDIA
 70
     1
  9
$ATTREQ
 70
     1
  9
$HANDLING
 70
     1
  9
$HANDSEED
  5
4A4A
  9
$SURFTAB1
 70
     6
  9
$SURFTAB2
 70
     6
  9
$SURFTYPE
 70
     6
  9
$SURFU
 70
     6
  9
$SURFV
 70
     6
  9
$UCSNAME
  2

  9
$UCSORG
 10
0.0
 20
0.0
 30
0.0
  9
$UCSXDIR
 10
1.0
 20
0.0
 30
0.0
  9
$UCSYDIR
 10
0.0
 20
1.0
 30
0.0
  9
$PUCSNAME
  2

  9
$PUCSORG
 10
0.0
 20
0.0
 30
0.0
  9
$PUCSXDIR
 10
1.0
 20
0.0
 30
0.0
  9
$PUCSYDIR
 10
0.0
 20
1.0
 30
0.0
  9
$USERI1
 70
     1
  9
$USERI2
 70
     0
  9
$USERI3
 70
     0
  9
$USERI4
 70
     0
  9
$USERI5
 70
     0
  9
$USERR1
 40
0.0
  9
$USERR2
 40
0.0
  9
$USERR3
 40
0.0
  9
$USERR4
 40
0.0
  9
$USERR5
 40
0.0
  9
$WORLDVIEW
 70
     1
  9
$SHADEDGE
 70
     3
  9
$SHADEDIF
 70
    70
  9
$TILEMODE
 70
     1
  9
$MAXACTVP
 70
    16
  9
$PLIMCHECK
 70
     0
  9
$PEXTMIN
 10
1.0000000000000000E+020
 20
1.0000000000000000E+020
 30
1.0000000000000000E+020
  9
$PEXTMAX
 10
-1.0000000000000000E+020
 20
-1.0000000000000000E+020
 30
-1.0000000000000000E+020
  9
$PLIMMIN
 10
0.0
 20
0.0
  9
$PLIMMAX
 10
420.0
 20
297.0
  9
$UNITMODE
 70
     0
  9
$VISRETAIN
 70
     1
  9
$PLINEGEN
 70
     0
  9
$PSLTSCALE
 70
     1
  0
ENDSEC
  0
SECTION
  2
TABLES
  0
TABLE
  2
VPORT
 70
     1
  0
VPORT
  2
*ACTIVE
 70
     0
 10
0.0
 20
0.0
 11
1.0
 21
1.0
 12
-12.067373261079521
 22
16.999634274513259
 13
0.0
 23
0.0
 14
7.0
 24
7.0
 15
7.0
 25
7.0
 16
0.0
 26
0.0
 36
1.0
 17
0.0
 27
0.0
 37
0.0
 40
123.1157800185217
 41
1.469813391877058
 42
50.0
 43
0.0
 44
0.0
 50
0.0
 51
0.0
 71
     0
 72
  2000
 73
     1
 74
     0
 75
     0
 76
     1
 77
     0
 78
     0
  0
ENDTAB
  0
TABLE
  2
LTYPE
 70
    21
  0
LTYPE
  2
CONTINUOUS
 70
     0
  3
Solid line
 72
    65
 73
     0
 40
0.0
  0
LTYPE
  2
CENTER2
 70
     0
  3
___ _ ___ _ ___ _ ___ _ ___ _ ___ _ ___ _ ___ _
 72
    65
 73
     4
 40
1.125
 49
0.75
 49
-0.125
 49
0.125
 49
-0.125
  0
LTYPE
  2
HIDDEN2
 70
     0
  3
_ _ _ _ _ _ _ _ _ _ _ _ _ _ _ _ _ _ _ _ _ _ _ _
 72
    65
 73
     2
 40
0.1875
 49
0.125
 49
-0.0625
  0
LTYPE
  2
PHANTOM2
 70
     0
  3
___ _ _ ___ _ _ ___ _ _ ___ _ _ ___ _ _ ___ _ _
 72
    65
 73
     6
 40
1.25
 49
0.625
 49
-0.125
 49
0.125
 49
-0.125
 49
0.125
 49
-0.125
  0
LTYPE
  2
AMCONSTR
 70
     0
  3
_______________________
 72
    65
 73
     2
 40
9999.0
 49
9999.0
 49
0.0
  0
LTYPE
  2
HIDDEN
 70
     0
  3
Hidden __ __ __ __ __ __ __ __ __ __ __ __ __ _
 72
    65
 73
     2
 40
0.375
 49
0.25
 49
-0.125
  0
LTYPE
  2
CENTER
 70
     0
  3
Center ____ _ ____ _ ____ _ ____ _ ____ _ ____
 72
    65
 73
     4
 40
2.0
 49
1.25
 49
-0.25
 49
0.25
 49
-0.25
  0
LTYPE
  2
AMZIGZAG2
 70
     0
  3
/\/-/\/-/\/-/\/-/\/-/\/
 72
    65
 73
     2
 40
0.4401
 49
0.0001
 49
-0.4400000000000001
  0
LTYPE
  2
ACANSTGB
 70
     0
  3
__ . . __ . .
 72
    65
 73
     6
 40
0.35433070866
 49
0.15748031496
 49
-0.03937007874
 49
0.03937007874
 49
-0.03937007874
 49
0.03937007874
 49
-0.03937007874
  0
LTYPE
  2
ACANSTGL
 70
     0
  3
_ _ _ _ _
 72
    65
 73
     2
 40
0.11811023622
 49
0.07874015748
 49
-0.03937007874
  0
ENDTAB
  0
TABLE
  2
LAYER
 70
     8
  0
LAYER
  2
0
 70
     0
 62
     7
  6
CONTINUOUS
  0
LAYER
  2
240
 70
     0
 62
     4
  6
CONTINUOUS
  0
LAYER
  2
DEFPOINTS
 70
     0
 62
     7
  6
CONTINUOUS
  0
LAYER
  2
245
 70
     0
 62
     2
  6
CENTER2
  0
LAYER
  2
241
 70
     0
 62
   211
  6
CONTINUOUS
  0
LAYER
  2
247
 70
     0
 62
    60
  6
CONTINUOUS
  0
LAYER
  2
250
 70
     0
 62
     3
  6
CONTINUOUS
  0
ENDTAB
  0
TABLE
  2
STYLE
 70
    10
  0
STYLE
  2
STANDARD
 70
     0
 40
0.0
 41
1.0
 50
0.0
 71
     0
 42
3.0
  3
romans.shx
  4
extfont.shx
  0
STYLE
  2
YOKO
 70
     0
 40
0.0
 41
1.0
 50
0.0
 71
     0
 42
3.0
  3
romans.shx
  4
extfont.shx
  0
STYLE
  2

 70
     1
 40
0.0
 41
1.0
 50
0.0
 71
     0
 42
3.0
  3
genltshp.shx
  4

  0
STYLE
  2
ACANSGDT
 70
     0
 40
0.0
 41
1.0
 50
0.0
 71
     0
 42
3.0
  3
amgdt.shx
  4

  0
ENDTAB
  0
TABLE
  2
VIEW
 70
     0
  0
ENDTAB
  0
TABLE
  2
UCS
 70
     0
  0
ENDTAB
  0
TABLE
  2
APPID
 70
    42
  0
APPID
  2
ACAD
 70
     0
  0
APPID
  2
ACADANNOTATIVE
 70
     0
  0
APPID
  2
GLOBAL
 70
     0
  0
APPID
  2
DETAIL
 70
     0
  0
APPID
  2
GRPNAME
 70
     0
  0
APPID
  2
GPARA
 70
     0
  0
APPID
  2
MCAD_NO_VIS
 70
     0
  0
APPID
  2
ACAD_TEMP_GRAPHIC
 70
     0
  0
APPID
  2
ACATTRIBSERVICES
 70
     0
  0
APPID
  2
GENIUS_GENSCREG_15
 70
     0
  0
APPID
  2
GENIUS_GENODEF_13
 70
     0
  0
APPID
  2
GENIUS_GENOBJ-N-SDF_13
 70
     0
  0
APPID
  2
GENIUS_GENREC_14
 70
     0
  0
APPID
  2
GENIUS_GENOBJ-N-REC_13
 70
     0
  0
APPID
  2
GENIUS_GENDIMSH_14
 70
     0
  0
APPID
  2
GENIUS_GENOBJ-N-DIM_13
 70
     0
  0
APPID
  2
GENIUS_GENDIM_13
 70
     0
  0
APPID
  2
GENIUS_GENDTOL_13
 70
     0
  0
APPID
  2
GENIUS_GENOLIS_13
 70
     0
  0
APPID
  2
GENIUS_GENOENT_13
 70
     0
  0
APPID
  2
GENIUS_GENOBJ-F-FEM_13
 70
     0
  0
APPID
  2
GENIUS_GENOREF_13
 70
     0
  0
APPID
  2
GENIUS_GEFFEM_13
 70
     0
  0
APPID
  2
GENIUS_GEFFEMP_13
 70
     0
  0
APPID
  2
AD_DRAW
 70
     0
  0
APPID
  2
DESIGNERASSEMBLIES
 70
     0
  0
APPID
  2
ACADM_DIM_EDIT
 70
     0
  0
APPID
  2
AMDT_DM_ADJ
 70
     0
  0
APPID
  2
ITEMNAME
 70
     0
  0
APPID
  2
GENIUS_GENOBJ-N-FIL_13
 70
     0
  0
APPID
  2
GENIUS_GENFIL_13
 70
     0
  0
APPID
  2
GENIUS_GENOBJ-N-CHA_13
 70
     0
  0
APPID
  2
ACAD_NAV_VCDISPLAY
 70
     0
  0
APPID
  2
ACAD_DSTYLE_DIMJAG
 70
     0
  0
APPID
  2
ACAD_DSTYLE_DIMBREAK
 70
     0
  0
APPID
  2
ACAECLAYERSTANDARD
 70
     0
  0
APPID
  2
ACAD_PSEXT
 70
     0
  0
APPID
  2
ACAD_MLEADERVER
 70
     0
  0
APPID
  2
ACAD_DSTYLE_DIMARC_LENGTH_
 70
     0
  0
APPID
  2
ACAD_DSTYLE_DIM_LINETYPE
 70
     0
  0
APPID
  2
ACAD_DSTYLE_DIM_EXT1_LINETYPE
 70
     0
  0
APPID
  2
ACAD_DSTYLE_DIM_EXT2_LINETYPE
 70
     0
  0
ENDTAB
  0
TABLE
  2
DIMSTYLE
 70
    31
  0
DIMSTYLE
  2
STANDARD
 70
     0
  3

  4

  5

  6

  7

 40
1.0
 41
0.18
 42
0.0625
 43
0.38
 44
0.18
 45
0.0
 46
0.0
 47
0.0
 48
0.0
140
0.18
141
0.09
142
0.0
143
25.399999999999999
144
1.0
145
0.0
146
1.0
147
0.09
 71
     0
 72
     0
 73
     1
 74
     1
 75
     0
 76
     0
 77
     0
 78
     0
170
     0
171
     2
172
     0
173
     0
174
     0
175
     0
176
     0
177
     0
178
     0
  0
DIMSTYLE
  2
BIGT
 70
     0
  3

  4

  5

  6

  7

 40
1.0
 41
2.2299999999999991
 42
0.5
 43
7.0
 44
1.0
 45
0.0
 46
0.0
 47
0.0
 48
0.01
140
2.799999999999998
141
0.0
142
0.0
143
25.399999999999999
144
1.0
145
0.0
146
1.0
147
1.0
 71
     0
 72
     0
 73
     0
 74
     0
 75
     0
 76
     0
 77
     3
 78
     9
170
     0
171
     2
172
     1
173
     0
174
     1
175
     0
176
   256
177
   256
178
    40
  0
DIMSTYLE
  2
AM_ANSI
 70
     0
  3

  4
mm
  5

  6

  7

 40
1.0
 41
0.12
 42
0.05
 43
0.5
 44
0.1
 45
0.0
 46
0.0
 47
0.1
 48
0.1
140
0.12
141
0.0
142
0.0
143
25.399999999999999
144
1.0
145
0.0
146
0.71
147
0.06
 71
     0
 72
     0
 73
     1
 74
     1
 75
     0
 76
     0
 77
     0
 78
     7
170
     0
171
     2
172
     0
173
     0
174
     0
175
     0
176
   256
177
   256
178
     2
  0
DIMSTYLE
  2
AM_ANSI$3
 70
     0
  3

  4
mm
  5

  6

  7

 40
1.0
 41
0.12
 42
0.05
 43
0.5
 44
0.1
 45
0.0
 46
0.0
 47
0.1
 48
0.1
140
0.12
141
0.0
142
0.0
143
25.399999999999999
144
1.0
145
0.0
146
0.71
147
0.06
 71
     0
 72
     0
 73
     1
 74
     1
 75
     0
 76
     0
 77
     0
 78
     7
170
     0
171
     2
172
     0
173
     0
174
     0
175
     0
176
   256
177
   256
178
     2
  0
DIMSTYLE
  2
AM_ANSI$4
 70
     0
  3

  4
mm
  5

  6

  7

 40
1.0
 41
0.12
 42
0.05
 43
0.5
 44
0.1
 45
0.0
 46
0.0
 47
0.1
 48
0.1
140
0.12
141
0.0
142
0.0
143
25.399999999999999
144
1.0
145
0.0
146
0.71
147
0.06
 71
     0
 72
     0
 73
     1
 74
     1
 75
     0
 76
     0
 77
     0
 78
     7
170
     0
171
     2
172
     0
173
     0
174
     0
175
     0
176
   256
177
   256
178
     2
  0
DIMSTYLE
  2
AM_ANSI$7
 70
     0
  3

  4
mm
  5

  6

  7

 40
1.0
 41
0.12
 42
0.05
 43
0.5
 44
0.1
 45
0.0
 46
0.0
 47
0.1
 48
0.1
140
0.12
141
0.0
142
0.0
143
25.399999999999999
144
1.0
145
0.0
146
0.71
147
0.06
 71
     0
 72
     0
 73
     1
 74
     1
 75
     0
 76
     0
 77
     0
 78
     7
170
     0
171
     2
172
     0
173
     0
174
     0
175
     0
176
   256
177
   256
178
     2
  0
DIMSTYLE
  2
AM_ANSI$SF
 70
     0
  3

  4
mm
  5

  6

  7

 40
1.0
 41
0.12
 42
0.05
 43
0.5
 44
0.1
 45
0.0
 46
0.0
 47
0.1
 48
0.1
140
0.12
141
0.0
142
0.0
143
25.399999999999999
144
1.0
145
0.0
146
0.71
147
0.06
 71
     0
 72
     0
 73
     1
 74
     1
 75
     1
 76
     1
 77
     0
 78
     7
170
     0
171
     2
172
     0
173
     0
174
     0
175
     0
176
   256
177
   256
178
     2
  0
DIMSTYLE
  2
AM_ANSI$SH
 70
     0
  3

  4
mm
  5

  6
GENAXEH
  7

 40
1.0
 41
0.12
 42
0.05
 43
0.5
 44
0.1
 45
0.0
 46
0.0
 47
0.1
 48
0.1
140
0.12
141
0.0
142
0.0
143
25.399999999999999
144
1.0
145
0.0
146
0.71
147
0.06
 71
     0
 72
     0
 73
     1
 74
     1
 75
     1
 76
     1
 77
     0
 78
     7
170
     0
171
     2
172
     0
173
     1
174
     0
175
     0
176
   256
177
   256
178
     2
  0
ENDTAB
  0
ENDSEC
  0
SECTION
  2
BLOCKS
  0
BLOCK
  8
0
  2
$MODEL_SPACE
 70
     0
 10
0.0
 20
0.0
 30
0.0
  3
$MODEL_SPACE
  1

  0
ENDBLK
  5
4905
  8
0
  0
BLOCK
 67
     1
  8
0
  2
$PAPER_SPACE
 70
     0
 10
0.0
 20
0.0
 30
0.0
  3
$PAPER_SPACE
  1

  0
ENDBLK
  5
4901
 67
     1
  8
0
  0
BLOCK
  8
0
  2
_OPEN
 70
     0
 10
0.0
 20
0.0
 30
0.0
  3
_OPEN
  1

  0
LINE
  5
479C
  8
0
  6
BYBLOCK
 62
     0
 10
-1.0
 20
0.1666666666666666
 30
0.0
 11
0.0
 21
0.0
 31
0.0
  0
LINE
  5
479D
  8
0
  6
BYBLOCK
 62
     0
 10
-1.0
 20
-0.1666666666666666
 30
0.0
 11
0.0
 21
0.0
 31
0.0
  0
LINE
  5
479E
  8
0
  6
BYBLOCK
 62
     0
 10
0.0
 20
0.0
 30
0.0
 11
-1.0
 21
0.0
 31
0.0
  0
ENDBLK
  5
479F
  8
0
  0
BLOCK
  8
0
  2
GENAXEH
 70
     0
 10
0.0
 20
0.0
 30
0.0
  3
GENAXEH
  1

  0
LINE
  5
47D7
  8
0
 10
-1.0
 20
0.0
 30
0.0
 11
1.0
 21
0.0
 31
0.0
  0
ENDBLK
  5
47D8
  8
0
  0
BLOCK
  8
0
  2
*U5
 70
     1
 10
0.0
 20
0.0
 30
0.0
  3
*U5
  1

  0
TEXT
  5
41AD
  8
250
 10
21.333333333333321
 20
50.0
 30
0.0
 40
2.799999999999998
  1
48
  0
ENDBLK
  5
41AE
  8
0
  0
BLOCK
  8
0
  2
*U6
 70
     1
 10
0.0
 20
0.0
 30
0.0
  3
*U6
  1

  0
TEXT
  5
41B1
  8
250
 10
-42.666666666666643
 20
50.0
 30
0.0
 40
2.799999999999998
  1
80
  0
ENDBLK
  5
41B2
  8
0
  0
BLOCK
  8
0
  2
_ACMFILLEDHALF
 70
     0
 10
0.0
 20
0.0
 30
0.0
  3
_ACMFILLEDHALF
  1

  0
TRACE
  5
49CC
  8
240
 62
     0
 10
-0.8
 20
0.0
 30
0.0
 11
-1.0
 21
0.166666666
 31
0.0
 12
0.0
 22
0.0
 32
0.0
 13
0.0
 23
0.0
 33
0.0
  0
LINE
  5
49CD
  8
240
 62
     0
 10
-1.0
 20
0.0
 30
0.0
 11
-0.8
 21
0.0
 31
0.0
  0
ENDBLK
  5
49CB
  8
0
  0
ENDSEC
  0
SECTION
  2
ENTITIES
  0
LINE
  5
426D
  8
240
  6
CONTINUOUS
 10
13.00000000000011
 20
33.999999999999432
 30
0.0
 11
30.161303514762182
 21
34.000000000000909
 31
0.0
  0
LINE
  5
4272
  8
240
  6
CONTINUOUS
 10
-80.000000000000028
 20
-16.0
 30
0.0
 11
0.0
 21
-16.0
 31
0.0
  0
LINE
  5
4273
  8
240
  6
CONTINUOUS
 10
0.0000000000007248
 20
15.99999999999998
 30
0.0
 11
-80.000000000000028
 21
15.99999999999998
 31
0.0
  0
LINE
  5
4274
  8
241
  6
CONTINUOUS
 10
30.163472729575521
 20
-33.996323330619262
 30
0.0
 11
30.163472729575581
 21
10.07251619103565
 31
0.0
  0
ARC
  5
4275
  8
241
  6
CONTINUOUS
 10
38.274423897210177
 20
12.023936671001239
 30
0.0
 40
8.0000000000098357
 50
210.00000000001509
 51
234.79111384715361
  0
LINE
  5
4276
  8
241
  6
CONTINUOUS
 10
33.661951558133133
 20
5.4874927661393338
 30
0.0
 11
33.66195155813314
 21
-31.935324559885998
 31
0.0
  0
LINE
  5
4277
  8
240
  6
CONTINUOUS
 10
10.0
 20
-30.999999991620719
 30
0.0
 11
10.0
 21
-23.0
 31
0.0
  0
LINE
  5
4278
  8
241
  6
CONTINUOUS
 10
19.834948479932841
 20
27.96204495862424
 30
0.0
 11
31.346220666926509
 21
8.0239366709965694
 31
0.0
  0
LINE
  5
4279
  8
240
  6
CONTINUOUS
 10
33.659902030517031
 20
-31.939022543851411
 30
0.0
 11
47.387100597024762
 21
-7.1708955911436929
 31
0.0
  0
LINE
  5
427A
  8
241
  6
CONTINUOUS
 10
37.577177955221998
 20
4.0543790862601519
 30
0.0
 11
47.763151710208533
 21
3.1632218742449791
 31
0.0
  0
ARC
  5
427B
  8
241
  6
CONTINUOUS
 10
38.274423897202553
 20
12.02393667099169
 30
0.0
 40
7.9999999999975762
 50
234.79111384715361
 51
265.00000000000023
  0
LINE
  5
427C
  8
240
  6
CONTINUOUS
 10
47.763151710208653
 20
5.7359042036911276
 30
0.0
 11
47.763151710208653
 21
-5.7166286832556921
 31
0.0
  0
ARC
  5
427D
  8
240
  6
CONTINUOUS
 10
44.812180631019771
 20
5.7157692201232031
 30
0.0
 40
2.9510397706185669
 50
0.0755065891976021
 51
21.921808773517309
  0
LINE
  5
427E
  8
240
  6
CONTINUOUS
 10
33.659902030517273
 20
31.93902254385096
 30
0.0
 11
36.446169053273081
 21
26.911732014801949
 31
0.0
  0
LINE
  5
427F
  8
241
  6
CONTINUOUS
 10
13.00000000000011
 20
34.000000000000007
 30
0.0
 11
13.0
 21
-34.000000000000107
 31
0.0
  0
LINE
  5
4286
  8
240
  6
CONTINUOUS
 10
-80.000000000000028
 20
-16.0
 30
0.0
 11
-80.000000000000028
 21
15.99999999999998
 31
0.0
1001
GRPNAME
1000
PASTMD0D
  0
LINE
  5
4287
  8
241
  6
CONTINUOUS
 10
0.0
 20
-16.0
 30
0.0
 11
0.0
 21
16.0
 31
0.0
1001
GRPNAME
1000
PASTMD0D
  0
LINE
  5
428B
  8
241
  6
CONTINUOUS
 10
36.642852405385149
 20
7.9429797939466731
 30
0.0
 11
25.503290144772802
 21
27.237267702773408
 31
0.0
1001
GRPNAME
1000
PASTMD01
  0
LINE
  5
428C
  8
241
  6
CONTINUOUS
 10
25.884562331756559
 20
27.835745605040959
 30
0.0
 11
36.495290608651104
 21
26.90743446936807
 31
0.0
1001
GRPNAME
1000
PASTMD01
  0
ARC
  5
428D
  8
241
  6
CONTINUOUS
 10
36.399844532831992
 20
26.413871243480632
 30
0.0
 40
0.4999999999999892
 50
30.000033524987138
 51
84.999999841884019
1001
GRPNAME
1000
00000003
  0
ARC
  5
428E
  8
241
  6
CONTINUOUS
 10
36.46042858362712
 20
26.508956566328042
 30
0.0
 40
0.4000000000000043
 50
29.99999994729416
 51
85.000039068044742
1001
GRPNAME
1000
PASTMD02
  0
LINE
  5
428F
  8
241
  6
CONTINUOUS
 10
47.946410161513711
 20
7.414652898629237
 30
0.0
 11
36.806838745140851
 21
26.708956566327981
 31
0.0
1001
GRPNAME
1000
PASTMD02
  0
ARC
  5
4290
  8
241
  6
CONTINUOUS
 10
47.599999999999973
 20
7.214652898629196
 30
0.0
 40
0.4000000000000021
 50
264.99995897869599
 51
30.00000001371593
1001
GRPNAME
1000
PASTMD02
  0
LINE
  5
4291
  8
241
  6
CONTINUOUS
 10
36.954399984857567
 20
7.7445019389057892
 30
0.0
 11
47.565137417512631
 21
6.8161750443608717
 31
0.0
1001
GRPNAME
1000
PASTMD01
  0
LINE
  5
4292
  8
241
  6
CONTINUOUS
 10
18.76315171020866
 20
31.962044958623451
 30
0.0
 11
18.763151710210799
 21
33.999999999999929
 31
0.0
  0
ARC
  5
4293
  8
241
  6
CONTINUOUS
 10
26.763151710215819
 20
31.962044958624581
 30
0.0
 40
8.0000000000071623
 50
180.00000000000651
 51
209.99999999998161
  0
ARC
  5
4294
  8
240
  6
CONTINUOUS
 10
44.763151710208653
 20
-5.7166286832556921
 30
0.0
 40
3.0
 50
331.00353641552192
 51
0.0
1001
GENIUS_GENODEF_13
1002
{
1000
HIER
1070
     0
1002
}
1002
{
1000
MANEDIT
1070
     0
1002
}
1002
{
1000
NOSEL
1070
     0
1002
}
1002
{
1000
BEHIND
1070
     0
1002
}
1002
{
1000
OTHER
1070
     0
1002
}
1002
{
1000
REACTOR
1002
}
1001
GENIUS_GENOBJ-N-FIL_13
1002
{
1000
OWNER
1000
GEN
1002
}
  0
LINE
  5
4295
  8
245
  6
CENTER2
 10
-86.326177204229325
 20
-0.0000000000000018
 30
0.0
 11
54.026839363816983
 21
-0.0000000000000018
 31
0.0
  0
LINE
  5
4296
  8
241
  6
CONTINUOUS
 10
10.000000000000121
 20
-23.0
 30
0.0
 11
10.000000000000121
 21
23.0
 31
0.0
  0
LINE
  5
4297
  8
240
  6
CONTINUOUS
 10
10.000000000000099
 20
23.0
 30
0.0
 11
10.000000000000121
 21
31.0
 31
0.0
  0
ARC
  5
4298
  8
241
  6
CONTINUOUS
 10
25.849700306732579
 20
27.437267702000881
 30
0.0
 40
0.4
 50
85.000039120750813
 51
209.99999987222461
1001
GRPNAME
1000
PASTMD01
1001
GENIUS_GENODEF_13
1002
{
1000
HIER
1070
     0
1002
}
1002
{
1000
MANEDIT
1070
     0
1002
}
1002
{
1000
NOSEL
1070
     0
1002
}
1002
{
1000
BEHIND
1070
     0
1002
}
1002
{
1000
OTHER
1070
     0
1002
}
1002
{
1000
REACTOR
1002
}
1001
GENIUS_GENOBJ-N-FIL_13
1002
{
1000
OWNER
1000
GEN
1002
}
  0
ARC
  5
4299
  8
241
  6
CONTINUOUS
 10
36.989262567344952
 20
8.1429797931741437
 30
0.0
 40
0.4
 50
209.99999987222461
 51
264.99995896498331
1001
GRPNAME
1000
PASTMD01
1001
GENIUS_GENODEF_13
1002
{
1000
HIER
1070
     0
1002
}
1002
{
1000
MANEDIT
1070
     0
1002
}
1002
{
1000
NOSEL
1070
     0
1002
}
1002
{
1000
BEHIND
1070
     0
1002
}
1002
{
1000
OTHER
1070
     0
1002
}
1002
{
1000
REACTOR
1002
}
1001
GENIUS_GENOBJ-N-FIL_13
1002
{
1000
OWNER
1000
GEN
1002
}
  0
ARC
  5
429A
  8
240
  6
CONTINUOUS
 10
30.161303514762519
 20
30.000000000000909
 30
0.0
 40
4.0
 50
28.996463584471119
 51
90.000000000004874
1001
GENIUS_GENODEF_13
1002
{
1000
HIER
1070
     0
1002
}
1002
{
1000
MANEDIT
1070
     0
1002
}
1002
{
1000
NOSEL
1070
     0
1002
}
1002
{
1000
BEHIND
1070
     0
1002
}
1002
{
1000
OTHER
1070
     0
1002
}
1002
{
1000
REACTOR
1002
}
1001
GENIUS_GENOBJ-N-FIL_13
1002
{
1000
OWNER
1000
GEN
1002
}
  0
LINE
  5
429B
  8
240
  6
CONTINUOUS
 10
13.00000000000011
 20
-33.999999999999432
 30
0.0
 11
30.161303514762182
 21
-34.000000000000909
 31
0.0
  0
ARC
  5
429C
  8
240
  6
CONTINUOUS
 10
30.161303514762519
 20
-30.000000000000899
 30
0.0
 40
4.0
 50
269.99999999999511
 51
331.00353641552192
1001
GENIUS_GENODEF_13
1002
{
1000
HIER
1070
     0
1002
}
1002
{
1000
MANEDIT
1070
     0
1002
}
1002
{
1000
NOSEL
1070
     0
1002
}
1002
{
1000
BEHIND
1070
     0
1002
}
1002
{
1000
OTHER
1070
     0
1002
}
1002
{
1000
REACTOR
1002
}
1001
GENIUS_GENOBJ-N-FIL_13
1002
{
1000
OWNER
1000
GEN
1002
}
  0
TEXT
  5
429D
  8
241
  6
CONTINUOUS
 10
-78.000000000000028
 20
63.0
 30
0.0
 40
5.0
  1
ST32-C1652C-30
  7
YOKO
  0
LINE
  5
42A1
  8
250
  6
CONTINUOUS
 10
37.716155009554093
 20
26.0
 30
0.0
 11
78.0
 21
25.999999999999989
 31
0.0
  0
LINE
  5
42A2
  8
250
  6
CONTINUOUS
 10
77.0
 20
23.769999999999989
 30
0.0
 11
77.0
 21
-4.5333333333333448
 31
0.0
  0
LINE
  5
42AA
  8
250
  6
CONTINUOUS
 10
48.108459854967919
 20
7.9999999999999947
 30
0.0
 11
71.0
 21
7.9999999999999911
 31
0.0
  0
LINE
  5
42AB
  8
250
  6
CONTINUOUS
 10
70.0
 20
5.7699999999999898
 30
0.0
 11
70.0
 21
-4.5333333333333421
 31
0.0
  0
LINE
  5
42AC
  8
250
  6
CONTINUOUS
 10
69.62833333333333
 20
5.7699999999999898
 30
0.0
 11
70.0
 21
7.9999999999999911
 31
0.0
  0
LINE
  5
42AD
  8
250
  6
CONTINUOUS
 10
70.37166666666667
 20
5.7699999999999898
 30
0.0
 11
70.0
 21
7.9999999999999911
 31
0.0
  0
LINE
  5
42AE
  8
250
  6
CONTINUOUS
 10
70.0
 20
7.9999999999999911
 30
0.0
 11
70.0
 21
5.7699999999999898
 31
0.0
  0
TEXT
  5
42AF
  8
250
  6
CONTINUOUS
 10
68.999999999999972
 20
-3.9333333333333278
 30
0.0
 40
2.799999999999998
  1
\U+220516
 50
90.0
  0
LINE
  5
42B0
  8
250
  6
CONTINUOUS
 10
76.62833333333333
 20
23.769999999999989
 30
0.0
 11
77.0
 21
25.999999999999989
 31
0.0
  0
LINE
  5
42B1
  8
250
  6
CONTINUOUS
 10
77.371666666666655
 20
23.769999999999989
 30
0.0
 11
77.0
 21
25.999999999999989
 31
0.0
  0
LINE
  5
42B2
  8
250
  6
CONTINUOUS
 10
77.0
 20
25.999999999999989
 30
0.0
 11
77.0
 21
23.769999999999989
 31
0.0
  0
TEXT
  5
42B3
  8
250
  6
CONTINUOUS
 10
75.999999999999986
 20
-3.9333333333333331
 30
0.0
 40
2.799999999999998
  1
\U+220552
 50
90.0
  0
LINE
  5
42B4
  8
250
  6
CONTINUOUS
 10
0.0
 20
24.5
 30
0.0
 11
0.0
 21
49.999999515670183
 31
0.0
  0
LINE
  5
42B5
  8
250
  6
CONTINUOUS
 10
47.999999999999957
 20
7.714652898629196
 30
0.0
 11
47.999999999999957
 21
49.999999515670183
 31
0.0
  0
LINE
  5
42B6
  8
250
  6
CONTINUOUS
 10
2.229999999999996
 20
48.999999515670197
 30
0.0
 11
45.769999999999968
 21
48.999999515670197
 31
0.0
  0
INSERT
  5
42B7
  8
250
  6
CONTINUOUS
  2
*U5
 10
0.0
 20
-0.0000004843298047
 30
0.0
  0
LINE
  5
42B8
  8
250
  6
CONTINUOUS
 10
-79.999999999999915
 20
16.499999999999989
 30
0.0
 11
-80.000000000000028
 21
49.999999515670183
 31
0.0
  0
LINE
  5
42B9
  8
250
  6
CONTINUOUS
 10
-0.0000000000000071
 20
23.0
 30
0.0
 11
0.0
 21
49.999999515670183
 31
0.0
  0
LINE
  5
42BA
  8
250
  6
CONTINUOUS
 10
-77.769999999999925
 20
48.999999515670197
 30
0.0
 11
-2.229999999999996
 21
48.999999515670197
 31
0.0
  0
INSERT
  5
42BB
  8
250
  6
CONTINUOUS
  2
*U6
 10
0.0
 20
-0.0000004843298047
 30
0.0
  0
LINE
  5
42BC
  8
250
  6
CONTINUOUS
 10
-80.499999999999886
 20
15.99999999999998
 30
0.0
 11
-99.326178204229336
 21
16.0
 31
0.0
  0
LINE
  5
42BD
  8
250
  6
CONTINUOUS
 10
-80.499999999999886
 20
-16.0
 30
0.0
 11
-99.326178204229336
 21
-15.999999999999989
 31
0.0
  0
LINE
  5
42BE
  8
250
  6
CONTINUOUS
 10
-98.326178204229336
 20
13.77
 30
0.0
 11
-98.326178204229336
 21
-13.769999999999991
 31
0.0
  0
LINE
  5
42BF
  8
250
  6
CONTINUOUS
 10
-98.697844870895921
 20
13.77
 30
0.0
 11
-98.326178204229336
 21
16.0
 31
0.0
  0
LINE
  5
42C0
  8
250
  6
CONTINUOUS
 10
-97.954511537562638
 20
13.77
 30
0.0
 11
-98.326178204229336
 21
16.0
 31
0.0
  0
LINE
  5
42C1
  8
250
  6
CONTINUOUS
 10
-98.326178204229336
 20
16.0
 30
0.0
 11
-98.326178204229336
 21
13.77
 31
0.0
  0
LINE
  5
42C2
  8
250
  6
CONTINUOUS
 10
-97.954511537562638
 20
-13.769999999999991
 30
0.0
 11
-98.326178204229336
 21
-15.999999999999989
 31
0.0
  0
LINE
  5
42C3
  8
250
  6
CONTINUOUS
 10
-98.697844870895921
 20
-13.769999999999991
 30
0.0
 11
-98.326178204229336
 21
-15.999999999999989
 31
0.0
  0
LINE
  5
42C4
  8
250
  6
CONTINUOUS
 10
-98.326178204229336
 20
-15.999999999999989
 30
0.0
 11
-98.326178204229336
 21
-13.769999999999991
 31
0.0
  0
TEXT
  5
42C5
  8
250
  6
CONTINUOUS
 10
-99.326178204229336
 20
-3.933333333333342
 30
0.0
 40
2.799999999999998
  1
\U+220532
 50
90.0
  0
LINE
  5
42C6
  8
250
  6
CONTINUOUS
 10
-77.769999999999925
 20
48.628332849003542
 30
0.0
 11
-80.000000000000028
 21
48.999999515670197
 31
0.0
  0
LINE
  5
42C7
  8
250
  6
CONTINUOUS
 10
-77.769999999999925
 20
49.371666182336853
 30
0.0
 11
-80.000000000000028
 21
48.999999515670197
 31
0.0
  0
LINE
  5
42C8
  8
250
  6
CONTINUOUS
 10
-80.000000000000028
 20
48.999999515670197
 30
0.0
 11
-77.769999999999925
 21
48.999999515670197
 31
0.0
  0
LINE
  5
42C9
  8
250
  6
CONTINUOUS
 10
-2.229999999999996
 20
49.371666182336853
 30
0.0
 11
0.0
 21
48.999999515670197
 31
0.0
  0
LINE
  5
42CA
  8
250
  6
CONTINUOUS
 10
-2.229999999999996
 20
48.628332849003542
 30
0.0
 11
0.0
 21
48.999999515670197
 31
0.0
  0
LINE
  5
42CB
  8
250
  6
CONTINUOUS
 10
0.0
 20
48.999999515670197
 30
0.0
 11
-2.229999999999996
 21
48.999999515670197
 31
0.0
  0
LINE
  5
42CC
  8
250
  6
CONTINUOUS
 10
2.229999999999996
 20
48.628332849003542
 30
0.0
 11
0.0
 21
48.999999515670197
 31
0.0
  0
LINE
  5
42CD
  8
250
  6
CONTINUOUS
 10
2.229999999999996
 20
49.371666182336853
 30
0.0
 11
0.0
 21
48.999999515670197
 31
0.0
  0
LINE
  5
42CE
  8
250
  6
CONTINUOUS
 10
0.0
 20
48.999999515670197
 30
0.0
 11
2.229999999999996
 21
48.999999515670197
 31
0.0
  0
LINE
  5
42CF
  8
250
  6
CONTINUOUS
 10
45.769999999999968
 20
49.371666182336853
 30
0.0
 11
47.999999999999957
 21
48.999999515670197
 31
0.0
  0
LINE
  5
42D0
  8
250
  6
CONTINUOUS
 10
45.769999999999968
 20
48.628332849003542
 30
0.0
 11
47.999999999999957
 21
48.999999515670197
 31
0.0
  0
LINE
  5
42D1
  8
250
  6
CONTINUOUS
 10
47.999999999999957
 20
48.999999515670197
 30
0.0
 11
45.769999999999968
 21
48.999999515670197
 31
0.0
  0
ARC
  5
4629
  8
240
  6
CONTINUOUS
 10
9.5000000000001208
 20
23.0
 30
0.0
 40
0.5
 50
270.0
 51
0.0
  0
LINE
  5
462A
  8
240
  6
CONTINUOUS
 10
0.0000000000007248
 20
15.99999999999998
 30
0.0
 11
0.0000000000001208
 21
22.5
 31
0.0
  0
LINE
  5
462B
  8
240
  6
CONTINUOUS
 10
0.0
 20
-15.985857157147731
 30
0.0
 11
0.0
 21
-22.5
 31
0.0
  0
LINE
  5
462C
  8
240
  6
CONTINUOUS
 10
0.0000000000001208
 20
22.5
 30
0.0
 11
9.5000000000001208
 21
22.5
 31
0.0
  0
ARC
  5
462D
  8
240
  6
CONTINUOUS
 10
9.5000000000001208
 20
-23.0
 30
0.0
 40
0.5
 50
0.0
 51
90.0
  0
LINE
  5
462E
  8
240
  6
CONTINUOUS
 10
0.0
 20
-22.5
 30
0.0
 11
9.5000000000001208
 21
-22.5
 31
0.0
  0
ARC
  5
463E
  8
240
  6
CONTINUOUS
 10
13.000000000000171
 20
31.0
 30
0.0
 40
3.0
 50
90.0
 51
180.0
  0
ARC
  5
463F
  8
240
  6
CONTINUOUS
 10
13.00000000000005
 20
-31.000000000000121
 30
0.0
 40
3.0
 50
180.0
 51
270.0
  0
LINE
  5
46DA
  8
250
  6
CONTINUOUS
 10
-56.303843654940522
 20
-17.745403317215139
 30
0.0
 11
-54.86697087999994
 21
-16.0
 31
0.0
  0
LINE
  5
46DB
  8
250
  6
CONTINUOUS
 10
-55.6600981047659
 20
-18.117069983832891
 30
0.0
 11
-54.86697087999994
 21
-16.0
 31
0.0
  0
LINE
  5
46DC
  8
250
  6
CONTINUOUS
 10
-54.86697087999994
 20
-16.0
 30
0.0
 11
-55.981970879853229
 21
-17.931236650524021
 31
0.0
  0
LINE
  5
46DD
  8
250
  6
CONTINUOUS
 10
-55.981970879853229
 20
-17.931236650524021
 30
0.0
 11
-61.943933959999939
 21
-28.257659619999998
 31
0.0
1001
ACAD
1000
DSTYLE
1002
{
1070
     6
1000
OPEN
1070
   343
1005
594
1002
}
  0
TEXT
  5
46DE
  8
250
  6
CONTINUOUS
 10
-74.477267289999929
 20
-27.257659619999998
 30
0.0
 40
2.799999999999998
  1
ST32
  7
YOKO
1001
ITEMNAME
1000
LNSP3
  0
LINE
  5
46DF
  8
250
  6
CONTINUOUS
 10
-61.943933959999939
 20
-28.257659619999998
 30
0.0
 11
-76.877267289999949
 21
-28.257659619999998
 31
0.0
1001
ITEMNAME
1000
LNSP2
  0
LINE
  5
46E0
  8
247
  6
CONTINUOUS
 10
-73.250000000070031
 20
-10.0
 30
0.0
 11
-66.557692308029914
 21
-10.0
 31
0.0
  0
ARC
  5
46E1
  8
247
  6
CONTINUOUS
 10
-73.250000000070031
 20
-8.2500000000700346
 30
0.0
 40
1.7499999999299991
 50
90.0
 51
270.0
  0
ARC
  5
46E2
  8
247
  6
CONTINUOUS
 10
-66.557692308029914
 20
-8.2500000000700346
 30
0.0
 40
1.7499999999299991
 50
270.0
 51
90.0
  0
LINE
  5
46E3
  8
247
  6
CONTINUOUS
 10
-72.384615384720036
 20
-6.5000000001400631
 30
0.0
 11
-73.244851541962021
 21
-9.5000000000200107
 31
0.0
  0
LINE
  5
46E4
  8
247
  6
CONTINUOUS
 10
-71.484983818335834
 20
-7.923076923159897
 30
0.0
 11
-72.792676125975831
 21
-7.923076923159897
 31
0.0
  0
ARC
  5
46E5
  8
247
  6
CONTINUOUS
 10
-71.145143816089728
 20
-7.0495986677028668
 30
0.0
 40
0.5538165441895349
 50
342.9978896752952
 51
82.924166218512752
  0
ARC
  5
46E6
  8
247
  6
CONTINUOUS
 10
-71.566878323028732
 20
-6.936033044465832
 30
0.0
 40
0.9904354236226808
 50
274.74293685220141
 51
343.84922627326648
1001
GENIUS_GENOBJ-N-FIL_13
1002
{
1000
OWNER
1000
GEN
1002
}
1001
GENIUS_GENODEF_13
1002
{
1000
HIER
1070
     0
1002
}
1002
{
1000
MANEDIT
1070
     0
1002
}
1002
{
1000
NOSEL
1070
     0
1002
}
1002
{
1000
BEHIND
1070
     0
1002
}
1002
{
1000
OTHER
1070
     0
1002
}
1002
{
1000
REACTOR
1002
}
  0
LINE
  5
46E7
  8
247
  6
CONTINUOUS
 10
-71.937159234321925
 20
-9.5000000000200107
 30
0.0
 11
-73.244851541962021
 21
-9.5000000000200107
 31
0.0
  0
LINE
  5
46E8
  8
247
  6
CONTINUOUS
 10
-72.384615384720036
 20
-6.5000000001400631
 30
0.0
 11
-71.076923077080025
 21
-6.5000000001400631
 31
0.0
  0
ARC
  5
46E9
  8
247
  6
CONTINUOUS
 10
-71.560919636546913
 20
-8.4820242326654842
 30
0.0
 40
0.5640818586791229
 50
335.9909416525216
 51
82.263443459069066
  0
ARC
  5
46EA
  8
247
  6
CONTINUOUS
 10
-72.038262685347036
 20
-8.4874290391865124
 30
0.0
 40
1.0176059446230981
 50
275.70198516425808
 51
347.27733843682228
1001
GENIUS_GENOBJ-N-FIL_13
1002
{
1000
OWNER
1000
GEN
1002
}
1001
GENIUS_GENODEF_13
1002
{
1000
HIER
1070
     0
1002
}
1002
{
1000
MANEDIT
1070
     0
1002
}
1002
{
1000
NOSEL
1070
     0
1002
}
1002
{
1000
BEHIND
1070
     0
1002
}
1002
{
1000
OTHER
1070
     0
1002
}
1002
{
1000
REACTOR
1002
}
  0
LINE
  5
46EB
  8
247
  6
CONTINUOUS
 10
-70.283313080542015
 20
-9.5000000000200107
 30
0.0
 11
-69.42307692330003
 21
-6.5000000001400631
 31
0.0
  0
LINE
  5
46EC
  8
247
  6
CONTINUOUS
 10
-67.000000000320028
 20
-6.5000000001400631
 30
0.0
 11
-67.56573661945653
 21
-6.5000000001400631
 31
0.0
  0
LINE
  5
46ED
  8
247
  6
CONTINUOUS
 10
-68.461538461799933
 20
-9.5000000000200107
 30
0.0
 11
-67.846153846439947
 21
-9.5000000000200107
 31
0.0
  0
ARC
  5
46EE
  8
247
  6
CONTINUOUS
 10
-66.708791209122822
 20
-8.5832851359733731
 30
0.0
 40
2.2526500823422122
 50
112.359488141531
 51
164.993248542846
  0
ARC
  5
46EF
  8
247
  6
CONTINUOUS
 10
-67.374069479213233
 20
-7.3083126551946398
 30
0.0
 40
0.8906723995727782
 50
4.9945893190753878
 51
65.166328957300493
1001
GENIUS_GENOBJ-N-FIL_13
1002
{
1000
OWNER
1000
GEN
1002
}
1001
GENIUS_GENODEF_13
1002
{
1000
HIER
1070
     0
1002
}
1002
{
1000
MANEDIT
1070
     0
1002
}
1002
{
1000
NOSEL
1070
     0
1002
}
1002
{
1000
BEHIND
1070
     0
1002
}
1002
{
1000
OTHER
1070
     0
1002
}
1002
{
1000
REACTOR
1002
}
  0
ARC
  5
46F0
  8
247
  6
CONTINUOUS
 10
-68.226458886212527
 20
-8.1601458886677882
 30
0.0
 40
1.392781735586712
 50
285.84609655578072
 51
352.32513700416251
  0
ARC
  5
46F1
  8
247
  6
CONTINUOUS
 10
-67.642212725840324
 20
-8.4592434315272875
 30
0.0
 40
1.324563662670287
 50
159.71360167049031
 51
231.78874565641311
1001
GENIUS_GENOBJ-N-FIL_13
1002
{
1000
OWNER
1000
GEN
1002
}
1001
GENIUS_GENODEF_13
1002
{
1000
HIER
1070
     0
1002
}
1002
{
1000
MANEDIT
1070
     0
1002
}
1002
{
1000
NOSEL
1070
     0
1002
}
1002
{
1000
BEHIND
1070
     0
1002
}
1002
{
1000
OTHER
1070
     0
1002
}
1002
{
1000
REACTOR
1002
}
  0
LINE
  5
46F2
  8
247
  6
CONTINUOUS
 10
-67.538461538759933
 20
-8.3461538462199787
 30
0.0
 11
-66.846153846480036
 21
-8.3461538462199787
 31
0.0
  0
LINE
  5
46F3
  8
247
  6
CONTINUOUS
 10
-73.250000000070031
 20
-6.5000000001400631
 30
0.0
 11
-72.576923077020027
 21
-6.5000000001400631
 31
0.0
  0
VIEWPORT
  5
22
 67
     1
  8
0
 10
261.51769911504419
 20
148.5
 30
0.0
 40
523.0353982300885
 41
297.0
 68
     1
 69
     1
1001
ACAD
1000
MVIEW
1002
{
1070
    16
1010
0.0
1020
0.0
1030
0.0
1010
0.0
1020
0.0
1030
1.0
1040
0.0
1040
297.0
1040
261.51769911504419
1040
148.5
1040
50.0
1040
0.0
1040
0.0
1070
     0
1070
   100
1070
     1
1070
     1
1070
     0
1070
     0
1070
     0
1070
     0
1040
0.0
1040
0.0
1040
0.0
1040
1.0
1040
1.0
1040
10.0
1040
10.0
1070
     0
1002
{
1002
}
1002
}
1001
GENIUS_GENODEF_13
1002
{
1000
HIER
1070
     0
1002
}
1002
{
1000
MANEDIT
1070
     0
1002
}
1002
{
1000
NOSEL
1070
     0
1002
}
1002
{
1000
BEHIND
1070
     0
1002
}
1002
{
1000
OTHER
1070
     0
1002
}
1002
{
1000
REACTOR
1002
}
1001
GENIUS_GENOBJ-N-SDF_13
1002
{
1000
OWNER
1000
GEN
1002
}
1001
GENIUS_GENSCREG_15
1000
PF
1040
1.0
1000
DF
1040
1.0
1000
MIN
1011
0.0
1021
0.0
1031
0.0
1021
0.0
1031
0.0
1000
MAX
1011
523.0353982300885
1021
0.0
1031
0.0
1021
297.0
1031
0.0
1000
FLAGS
1070
     4
  0
ENDSEC
  0
EOF
