  0
SECTION
  2
HEADER
  9
$ACADVER
  1
AC1009
  9
$INSBASE
 10
0.0
 20
0.0
 30
0.0
  9
$EXTMIN
 10
-227.80000000000001
 20
-16.414213562372719
 30
0.0
  9
$EXTMAX
 10
36.0
 20
60.761904761905171
 30
0.0
  9
$LIMMIN
 10
0.0
 20
0.0
  9
$LIMMAX
 10
297.0
 20
210.0
  9
$ORTHOMODE
 70
     1
  9
$REGENMODE
 70
     1
  9
$FILLMODE
 70
     1
  9
$QTEXTMODE
 70
     0
  9
$MIRRTEXT
 70
     1
  9
$DRAGMODE
 70
     2
  9
$LTSCALE
 40
10.0
  9
$OSMODE
 70
    39
  9
$ATTMODE
 70
     1
  9
$TEXTSIZE
 40
3.0
  9
$TRACEWID
 40
1.0
  9
$TEXTSTYLE
  7
YOKO
  9
$CLAYER
  8
240
  9
$CELTYPE
  6
BYLAYER
  9
$CECOLOR
 62
   256
  9
$DIMSCALE
 40
1.0
  9
$DIMASZ
 40
2.2299999999999991
  9
$DIMEXO
 40
0.5
  9
$DIMDLI
 40
7.0
  9
$DIMRND
 40
0.0
  9
$DIMDLE
 40
0.0
  9
$DIMEXE
 40
1.0
  9
$DIMTP
 40
0.0
  9
$DIMTM
 40
0.01
  9
$DIMTXT
 40
2.799999999999998
  9
$DIMCEN
 40
0.0
  9
$DIMTSZ
 40
0.0
  9
$DIMTOL
 70
     0
  9
$DIMLIM
 70
     0
  9
$DIMTIH
 70
     0
  9
$DIMTOH
 70
     0
  9
$DIMSE1
 70
     0
  9
$DIMSE2
 70
     0
  9
$DIMTAD
 70
     3
  9
$DIMZIN
 70
     9
  9
$DIMBLK
  1
OPEN
  9
$DIMASO
 70
     1
  9
$DIMSHO
 70
     1
  9
$DIMPOST
  1

  9
$DIMAPOST
  1

  9
$DIMALT
 70
     0
  9
$DIMALTD
 70
     2
  9
$DIMALTF
 40
25.399999999999999
  9
$DIMLFAC
 40
1.0
  9
$DIMTOFL
 70
     1
  9
$DIMTVP
 40
0.0
  9
$DIMTIX
 70
     1
  9
$DIMSOXD
 70
     0
  9
$DIMSAH
 70
     0
  9
$DIMBLK1
  1

  9
$DIMBLK2
  1

  9
$DIMSTYLE
  2
BIGT
  9
$DIMCLRD
 70
   256
  9
$DIMCLRE
 70
   256
  9
$DIMCLRT
 70
    40
  9
$DIMTFAC
 40
1.0
  9
$DIMGAP
 40
1.0
  9
$LUNITS
 70
     2
  9
$LUPREC
 70
     3
  9
$SKETCHINC
 40
1.0
  9
$FILLETRAD
 40
0.0
  9
$AUNITS
 70
     0
  9
$AUPREC
 70
     3
  9
$MENU
  1
.
  9
$ELEVATION
 40
0.0
  9
$PELEVATION
 40
0.0
  9
$THICKNESS
 40
0.0
  9
$LIMCHECK
 70
     0
  9
$BLIPMODE
 70
     0
  9
$CHAMFERA
 40
0.25
  9
$CHAMFERB
 40
0.25
  9
$SKPOLY
 70
     0
  9
$TDCREATE
 40
2456598.6876651971
  9
$TDUPDATE
 40
2456598.7140175342
  9
$TDINDWG
 40
0.0219723611
  9
$TDUSRTIMER
 40
0.0219723611
  9
$USRTIMER
 70
     1
  9
$ANGBASE
 50
0.0
  9
$ANGDIR
 70
     0
  9
$PDMODE
 70
     1
  9
$PDSIZE
 40
0.0
  9
$PLINEWID
 40
0.0
  9
$COORDS
 70
     2
  9
$SPLFRAME
 70
     0
  9
$SPLINETYPE
 70
     6
  9
$SPLINESEGS
 70
     4
  9
$ATTDIA
 70
     1
  9
$ATTREQ
 70
     1
  9
$HANDLING
 70
     1
  9
$HANDSEED
  5
1A9D
  9
$SURFTAB1
 70
     6
  9
$SURFTAB2
 70
     6
  9
$SURFTYPE
 70
     6
  9
$SURFU
 70
     6
  9
$SURFV
 70
     6
  9
$UCSNAME
  2

  9
$UCSORG
 10
0.0
 20
0.0
 30
0.0
  9
$UCSXDIR
 10
1.0
 20
0.0
 30
0.0
  9
$UCSYDIR
 10
0.0
 20
1.0
 30
0.0
  9
$PUCSNAME
  2

  9
$PUCSORG
 10
0.0
 20
0.0
 30
0.0
  9
$PUCSXDIR
 10
1.0
 20
0.0
 30
0.0
  9
$PUCSYDIR
 10
0.0
 20
1.0
 30
0.0
  9
$USERI1
 70
     1
  9
$USERI2
 70
     0
  9
$USERI3
 70
     0
  9
$USERI4
 70
     0
  9
$USERI5
 70
     0
  9
$USERR1
 40
0.0
  9
$USERR2
 40
0.0
  9
$USERR3
 40
0.0
  9
$USERR4
 40
0.0
  9
$USERR5
 40
0.0
  9
$WORLDVIEW
 70
     1
  9
$SHADEDGE
 70
     3
  9
$SHADEDIF
 70
    70
  9
$TILEMODE
 70
     1
  9
$MAXACTVP
 70
    16
  9
$PLIMCHECK
 70
     0
  9
$PEXTMIN
 10
1.0000000000000000E+020
 20
1.0000000000000000E+020
 30
1.0000000000000000E+020
  9
$PEXTMAX
 10
-1.0000000000000000E+020
 20
-1.0000000000000000E+020
 30
-1.0000000000000000E+020
  9
$PLIMMIN
 10
0.0
 20
0.0
  9
$PLIMMAX
 10
420.0
 20
297.0
  9
$UNITMODE
 70
     0
  9
$VISRETAIN
 70
     1
  9
$PLINEGEN
 70
     0
  9
$PSLTSCALE
 70
     1
  0
ENDSEC
  0
SECTION
  2
TABLES
  0
TABLE
  2
VPORT
 70
     3
  0
VPORT
  2
*ACTIVE
 70
     0
 10
0.0
 20
0.0
 11
1.0
 21
1.0
 12
-95.891898701889204
 22
22.167663966733571
 13
0.0
 23
0.0
 14
7.0
 24
7.0
 15
7.0
 25
7.0
 16
0.0
 26
0.0
 36
1.0
 17
0.0
 27
0.0
 37
0.0
 40
193.6251198101597
 41
1.369318181818181
 42
50.0
 43
0.0
 44
0.0
 50
0.0
 51
0.0
 71
     0
 72
  2000
 73
     1
 74
     0
 75
     0
 76
     0
 77
     0
 78
     0
  0
ENDTAB
  0
TABLE
  2
LTYPE
 70
    21
  0
LTYPE
  2
CONTINUOUS
 70
     0
  3
Solid line
 72
    65
 73
     0
 40
0.0
  0
LTYPE
  2
CENTER2
 70
     0
  3
___ _ ___ _ ___ _ ___ _ ___ _ ___ _ ___ _ ___ _
 72
    65
 73
     4
 40
1.125
 49
0.75
 49
-0.125
 49
0.125
 49
-0.125
  0
LTYPE
  2
HIDDEN2
 70
     0
  3
_ _ _ _ _ _ _ _ _ _ _ _ _ _ _ _ _ _ _ _ _ _ _ _
 72
    65
 73
     2
 40
0.1875
 49
0.125
 49
-0.0625
  0
LTYPE
  2
PHANTOM2
 70
     0
  3
___ _ _ ___ _ _ ___ _ _ ___ _ _ ___ _ _ ___ _ _
 72
    65
 73
     6
 40
1.25
 49
0.625
 49
-0.125
 49
0.125
 49
-0.125
 49
0.125
 49
-0.125
  0
LTYPE
  2
CENTER
 70
     0
  3
____ _ ____ _ ____ _ ____ _ ____ _ ____ _ ____ 
 72
    65
 73
     4
 40
2.0
 49
1.25
 49
-0.25
 49
0.25
 49
-0.25
  0
LTYPE
  2
AMCONSTR
 70
     0
  3
_______________________
 72
    65
 73
     2
 40
9999.0
 49
9999.0
 49
0.0
  0
LTYPE
  2
HIDDEN
 70
     0
  3
Hidden __ __ __ __ __ __ __ __ __ __ __ __ __ _
 72
    65
 73
     2
 40
9.5249999999999986
 49
6.3499999999999979
 49
-3.174999999999998
  0
LTYPE
  2
AMZIGZAG2
 70
     0
  3
/\/-/\/-/\/-/\/-/\/-/\/
 72
    65
 73
     2
 40
0.4401
 49
0.0001
 49
-0.4400000000000001
  0
LTYPE
  2
ACANSTGB
 70
     0
  3
__ . . __ . .
 72
    65
 73
     6
 40
0.35433070866
 49
0.15748031496
 49
-0.03937007874
 49
0.03937007874
 49
-0.03937007874
 49
0.03937007874
 49
-0.03937007874
  0
LTYPE
  2
ACANSTGL
 70
     0
  3
_ _ _ _ _
 72
    65
 73
     2
 40
0.11811023622
 49
0.07874015748
 49
-0.03937007874
  0
ENDTAB
  0
TABLE
  2
LAYER
 70
    11
  0
LAYER
  2
0
 70
     0
 62
     7
  6
CONTINUOUS
  0
LAYER
  2
240
 70
     0
 62
     4
  6
CONTINUOUS
  0
LAYER
  2
DEFPOINTS
 70
     0
 62
     7
  6
CONTINUOUS
  0
LAYER
  2
245
 70
     0
 62
     2
  6
CENTER2
  0
LAYER
  2
241
 70
     0
 62
   211
  6
CONTINUOUS
  0
LAYER
  2
242
 70
     0
 62
     3
  6
CONTINUOUS
  0
LAYER
  2
243
 70
     0
 62
   211
  6
HIDDEN2
  0
LAYER
  2
246
 70
     0
 62
     3
  6
PHANTOM2
  0
LAYER
  2
247
 70
     0
 62
    60
  6
CONTINUOUS
  0
LAYER
  2
250
 70
     0
 62
     3
  6
CONTINUOUS
  0
LAYER
  2
AM_7
 70
     0
 62
     2
  6
CENTER2
  0
ENDTAB
  0
TABLE
  2
STYLE
 70
     9
  0
STYLE
  2
STANDARD
 70
     0
 40
0.0
 41
1.0
 50
0.0
 71
     0
 42
3.0
  3
romans.shx
  4
extfont.shx
  0
STYLE
  2
YOKO
 70
     0
 40
0.0
 41
1.0
 50
0.0
 71
     0
 42
3.0
  3
romans.shx
  4
extfont.shx
  0
STYLE
  2

 70
     1
 40
0.0
 41
1.0
 50
0.0
 71
     0
 42
3.0
  3
ltypeshp.shx
  4

  0
STYLE
  2
ACANSTS
 70
     0
 40
1.0
 41
1.0
 50
0.0
 71
     0
 42
3.0
  3
romans.shx
  4
extfont.shx
  0
STYLE
  2
ACANSGDT
 70
     0
 40
0.0
 41
1.0
 50
0.0
 71
     0
 42
3.0
  3
amgdtans.shx
  4

  0
ENDTAB
  0
TABLE
  2
VIEW
 70
     0
  0
ENDTAB
  0
TABLE
  2
UCS
 70
     0
  0
ENDTAB
  0
TABLE
  2
APPID
 70
    38
  0
APPID
  2
ACAD
 70
     0
  0
APPID
  2
GLOBAL
 70
     0
  0
APPID
  2
DETAIL
 70
     0
  0
APPID
  2
GRPNAME
 70
     0
  0
APPID
  2
GPARA
 70
     0
  0
APPID
  2
MCAD_NO_VIS
 70
     0
  0
APPID
  2
ACAD_TEMP_GRAPHIC
 70
     0
  0
APPID
  2
ACATTRIBSERVICES
 70
     0
  0
APPID
  2
GENIUS_GENSCREG_15
 70
     0
  0
APPID
  2
GENIUS_GENODEF_13
 70
     0
  0
APPID
  2
GENIUS_GENOBJ-N-SDF_13
 70
     0
  0
APPID
  2
GENIUS_GENREC_14
 70
     0
  0
APPID
  2
GENIUS_GENOBJ-N-REC_13
 70
     0
  0
APPID
  2
GENIUS_GENDIMSH_14
 70
     0
  0
APPID
  2
GENIUS_GENOBJ-N-DIM_13
 70
     0
  0
APPID
  2
GENIUS_GENDIM_13
 70
     0
  0
APPID
  2
GENIUS_GENDTOL_13
 70
     0
  0
APPID
  2
GENIUS_GENOLIS_13
 70
     0
  0
APPID
  2
GENIUS_GENOENT_13
 70
     0
  0
APPID
  2
GENIUS_GENOBJ-F-FEM_13
 70
     0
  0
APPID
  2
GENIUS_GENOREF_13
 70
     0
  0
APPID
  2
GENIUS_GEFFEM_13
 70
     0
  0
APPID
  2
GENIUS_GEFFEMP_13
 70
     0
  0
APPID
  2
AD_DRAW
 70
     0
  0
APPID
  2
DESIGNERASSEMBLIES
 70
     0
  0
APPID
  2
ACADM_DIM_EDIT
 70
     0
  0
APPID
  2
AMDT_DM_ADJ
 70
     0
  0
APPID
  2
GENIUS_GENOBJ-N-FIL_13
 70
     0
  0
APPID
  2
GENIUS_GENFIL_13
 70
     0
  0
APPID
  2
GENIUS_GENOBJ-N-CHA_13
 70
     0
  0
APPID
  2
ACAECLAYERSTANDARD
 70
     0
  0
APPID
  2
ACAD_PSEXT
 70
     0
  0
APPID
  2
GENIUS_GENOBJ-N-CEN_13
 70
     0
  0
APPID
  2
ACAD_DSTYLE_DIMINSPECT
 70
     0
  0
APPID
  2
GENIUS_GENCEN_19
 70
     0
  0
APPID
  2
HATCH_TYPE
 70
     0
  0
APPID
  2
HATCH_DISPLAY
 70
     0
  0
APPID
  2
HATCH_DISTANCE
 70
     0
  0
ENDTAB
  0
TABLE
  2
DIMSTYLE
 70
    29
  0
DIMSTYLE
  2
BIGT
 70
     0
  3

  4

  5

  6

  7

 40
1.0
 41
2.2299999999999991
 42
0.5
 43
7.0
 44
1.0
 45
0.0
 46
0.0
 47
0.0
 48
0.01
140
2.799999999999998
141
0.0
142
0.0
143
25.399999999999999
144
1.0
145
0.0
146
1.0
147
1.0
 71
     0
 72
     0
 73
     0
 74
     0
 75
     0
 76
     0
 77
     3
 78
     9
170
     0
171
     2
172
     1
173
     0
174
     1
175
     0
176
   256
177
   256
178
    40
  0
DIMSTYLE
  2
AM_ANSI
 70
     0
  3

  4
mm
  5

  6

  7

 40
1.0
 41
0.1
 42
0.05
 43
0.5
 44
0.1
 45
0.0
 46
0.0
 47
0.1
 48
0.1
140
0.12
141
0.0
142
0.0
143
25.399999999999999
144
1.0
145
0.0
146
0.71
147
0.06
 71
     0
 72
     0
 73
     1
 74
     1
 75
     0
 76
     0
 77
     0
 78
     7
170
     0
171
     2
172
     0
173
     0
174
     0
175
     0
176
   256
177
   256
178
     2
  0
DIMSTYLE
  2
AM_ANSI$3
 70
     0
  3

  4
mm
  5

  6

  7

 40
1.0
 41
0.1
 42
0.05
 43
0.5
 44
0.1
 45
0.0
 46
0.0
 47
0.1
 48
0.1
140
0.12
141
0.0
142
0.0
143
25.399999999999999
144
1.0
145
0.0
146
0.71
147
0.06
 71
     0
 72
     0
 73
     1
 74
     1
 75
     0
 76
     0
 77
     0
 78
     7
170
     0
171
     2
172
     0
173
     0
174
     0
175
     0
176
   256
177
   256
178
     2
  0
DIMSTYLE
  2
AM_ANSI$4
 70
     0
  3

  4
mm
  5

  6

  7

 40
1.0
 41
0.1
 42
0.05
 43
0.5
 44
0.1
 45
0.0
 46
0.0
 47
0.1
 48
0.1
140
0.12
141
0.0
142
0.0
143
25.399999999999999
144
1.0
145
0.0
146
0.71
147
0.06
 71
     0
 72
     0
 73
     1
 74
     1
 75
     0
 76
     0
 77
     0
 78
     7
170
     0
171
     2
172
     0
173
     0
174
     0
175
     0
176
   256
177
   256
178
     2
  0
DIMSTYLE
  2
AM_ANSI$7
 70
     0
  3

  4
mm
  5

  6

  7

 40
1.0
 41
0.1
 42
0.05
 43
0.5
 44
0.1
 45
0.0
 46
0.0
 47
0.1
 48
0.1
140
0.24
141
0.0
142
0.0
143
25.399999999999999
144
1.0
145
0.0
146
0.71
147
0.06
 71
     0
 72
     0
 73
     1
 74
     1
 75
     0
 76
     0
 77
     0
 78
     7
170
     0
171
     2
172
     0
173
     0
174
     0
175
     0
176
   256
177
   256
178
     2
  0
DIMSTYLE
  2
AM_ANSI$SF
 70
     0
  3

  4
mm
  5

  6

  7

 40
1.0
 41
0.1
 42
0.05
 43
0.5
 44
0.1
 45
0.0
 46
0.0
 47
0.1
 48
0.1
140
0.12
141
0.0
142
0.0
143
25.399999999999999
144
1.0
145
0.0
146
0.71
147
0.06
 71
     0
 72
     0
 73
     1
 74
     1
 75
     1
 76
     1
 77
     0
 78
     7
170
     0
171
     2
172
     0
173
     0
174
     0
175
     0
176
   256
177
   256
178
     2
  0
DIMSTYLE
  2
AM_ANSI$SH
 70
     0
  3

  4
mm
  5

  6
GENAXEH
  7

 40
1.0
 41
0.1
 42
0.05
 43
0.5
 44
0.1
 45
0.0
 46
0.0
 47
0.1
 48
0.1
140
0.12
141
0.0
142
0.0
143
25.399999999999999
144
1.0
145
0.0
146
0.71
147
0.06
 71
     0
 72
     0
 73
     1
 74
     1
 75
     1
 76
     1
 77
     0
 78
     7
170
     0
171
     2
172
     0
173
     1
174
     0
175
     0
176
   256
177
   256
178
     2
  0
ENDTAB
  0
ENDSEC
  0
SECTION
  2
BLOCKS
  0
BLOCK
  8
0
  2
$MODEL_SPACE
 70
     0
 10
0.0
 20
0.0
 30
0.0
  3
$MODEL_SPACE
  1

  0
ENDBLK
  5
1997
  8
0
  0
BLOCK
 67
     1
  8
0
  2
$PAPER_SPACE
 70
     0
 10
0.0
 20
0.0
 30
0.0
  3
$PAPER_SPACE
  1

  0
ENDBLK
  5
1993
 67
     1
  8
0
  0
BLOCK
  8
0
  2
_OPEN
 70
     0
 10
0.0
 20
0.0
 30
0.0
  3
_OPEN
  1

  0
LINE
  5
190A
  8
0
  6
BYBLOCK
 62
     0
 10
-1.0
 20
0.1666666666666666
 30
0.0
 11
0.0
 21
0.0
 31
0.0
  0
LINE
  5
190B
  8
0
  6
BYBLOCK
 62
     0
 10
-1.0
 20
-0.1666666666666666
 30
0.0
 11
0.0
 21
0.0
 31
0.0
  0
LINE
  5
190C
  8
0
  6
BYBLOCK
 62
     0
 10
0.0
 20
0.0
 30
0.0
 11
-1.0
 21
0.0
 31
0.0
  0
ENDBLK
  5
190D
  8
0
  0
BLOCK
  8
0
  2
GENAXEH
 70
     0
 10
0.0
 20
0.0
 30
0.0
  3
GENAXEH
  1

  0
LINE
  5
1935
  8
0
 10
-1.0
 20
0.0
 30
0.0
 11
1.0
 21
0.0
 31
0.0
  0
ENDBLK
  5
1936
  8
0
  0
ENDSEC
  0
SECTION
  2
ENTITIES
  0
LINE
  5
142D
  8
AM_7
 10
-219.33900688195499
 20
0.0000000000005116
 30
0.0
 11
25.70961048632455
 21
-0.0000000000000568
 31
0.0
1001
GENIUS_GENOBJ-N-CEN_13
1002
{
1000
OWNER
1000
GEN
1002
}
1001
GENIUS_GENODEF_13
1002
{
1000
HIER
1070
     0
1002
}
1002
{
1000
MANEDIT
1070
     0
1002
}
1002
{
1000
NOSEL
1070
     0
1002
}
1002
{
1000
BEHIND
1070
     0
1002
}
1002
{
1000
OTHER
1070
     0
1002
}
1002
{
1000
REACTOR
1002
}
1001
GENIUS_GENCEN_19
1002
{
1040
3.5
1002
}
  0
LINE
  5
142E
  8
243
 10
-113.26794919243029
 20
3.000000000000254
 30
0.0
 11
-1.25
 21
3.000000000000004
 31
0.0
1001
GENIUS_GENOBJ-N-CEN_13
1002
{
1000
OWNER
1000
GEN
1002
}
1001
GENIUS_GENODEF_13
1002
{
1000
HIER
1070
     0
1002
}
1002
{
1000
MANEDIT
1070
     0
1002
}
1002
{
1000
NOSEL
1070
     0
1002
}
1002
{
1000
BEHIND
1070
     0
1002
}
1002
{
1000
OTHER
1070
     0
1002
}
1002
{
1000
REACTOR
1002
}
1001
GENIUS_GENCEN_19
1002
{
1040
3.5
1002
}
  0
LINE
  5
142F
  8
243
 10
-113.26794919243029
 20
-2.9999999999997442
 30
0.0
 11
1.250000000000411
 21
-2.9999999999997442
 31
0.0
1001
GENIUS_GENOBJ-N-CEN_13
1002
{
1000
OWNER
1000
GEN
1002
}
1001
GENIUS_GENODEF_13
1002
{
1000
HIER
1070
     0
1002
}
1002
{
1000
MANEDIT
1070
     0
1002
}
1002
{
1000
NOSEL
1070
     0
1002
}
1002
{
1000
BEHIND
1070
     0
1002
}
1002
{
1000
OTHER
1070
     0
1002
}
1002
{
1000
REACTOR
1002
}
1001
GENIUS_GENCEN_19
1002
{
1040
3.5
1002
}
  0
LINE
  5
1430
  8
240
 10
-212.99999999999929
 20
16.000000000000359
 30
0.0
 11
-127.9999999999993
 21
16.000000000000171
 31
0.0
  0
LINE
  5
1431
  8
240
 10
-212.99999999999929
 20
-15.999999999999631
 30
0.0
 11
-127.9999999999993
 21
-15.99999999999973
 31
0.0
  0
ARC
  5
1432
  8
240
 10
-212.99999999999929
 20
-13.999999999999631
 30
0.0
 40
2.0
 50
180.0
 51
270.0
1001
GENIUS_GENOBJ-N-FIL_13
1002
{
1000
OWNER
1000
GEN
1002
}
1001
GENIUS_GENODEF_13
1002
{
1000
HIER
1070
     0
1002
}
1002
{
1000
MANEDIT
1070
     0
1002
}
1002
{
1000
NOSEL
1070
     0
1002
}
1002
{
1000
BEHIND
1070
     0
1002
}
1002
{
1000
OTHER
1070
     0
1002
}
1002
{
1000
REACTOR
1002
}
  0
LINE
  5
1433
  8
240
 10
-214.99999999999929
 20
14.000000000000361
 30
0.0
 11
-214.9999999999992
 21
-13.999999999999631
 31
0.0
  0
LINE
  5
1434
  8
241
 10
-209.9999999999992
 20
16.000000000000359
 30
0.0
 11
-209.9999999999992
 21
-15.999999999999661
 31
0.0
  0
ARC
  5
1435
  8
240
 10
-212.99999999999929
 20
14.000000000000361
 30
0.0
 40
2.0
 50
90.0
 51
180.0
1001
GENIUS_GENODEF_13
1002
{
1000
HIER
1070
     0
1002
}
1002
{
1000
MANEDIT
1070
     0
1002
}
1002
{
1000
NOSEL
1070
     0
1002
}
1002
{
1000
BEHIND
1070
     0
1002
}
1002
{
1000
OTHER
1070
     0
1002
}
1002
{
1000
REACTOR
1002
}
1001
GENIUS_GENOBJ-N-FIL_13
1002
{
1000
OWNER
1000
GEN
1002
}
  0
LINE
  5
1436
  8
240
 10
-124.9999999999993
 20
16.250000000000409
 30
0.0
 11
-124.9999999999993
 21
15.700000000000159
 31
0.0
  0
LINE
  5
1437
  8
241
 10
-124.9999999999993
 20
15.700000000000159
 30
0.0
 11
-124.9999999999993
 21
5.5677643628299904
 31
0.0
  0
LINE
  5
1438
  8
241
 10
-124.9999999999993
 20
-5.5677643628295073
 30
0.0
 11
-124.9999999999992
 21
-15.699999999999591
 31
0.0
  0
LINE
  5
143C
  8
243
 10
-213.99999999999929
 20
-5.9999999999995151
 30
0.0
 11
-114.9999999999993
 21
-5.9999999999997442
 31
0.0
  0
ARC
  5
143D
  8
243
 10
-213.99999999999929
 20
-6.9999999999995151
 30
0.0
 40
1.0
 50
90.0
 51
180.0
1001
GENIUS_GENODEF_13
1002
{
1000
HIER
1070
     0
1002
}
1002
{
1000
MANEDIT
1070
     0
1002
}
1002
{
1000
NOSEL
1070
     0
1002
}
1002
{
1000
BEHIND
1070
     0
1002
}
1002
{
1000
OTHER
1070
     0
1002
}
1002
{
1000
REACTOR
1002
}
1001
GENIUS_GENOBJ-N-FIL_13
1002
{
1000
OWNER
1000
GEN
1002
}
  0
LINE
  5
143E
  8
243
 10
-213.99999999999929
 20
6.0000000000004832
 30
0.0
 11
-114.9999999999993
 21
6.0000000000003677
 31
0.0
  0
ARC
  5
143F
  8
243
 10
-213.99999999999929
 20
7.0000000000007088
 30
0.0
 40
1.0
 50
180.0
 51
270.0
1001
GENIUS_GENODEF_13
1002
{
1000
HIER
1070
     0
1002
}
1002
{
1000
MANEDIT
1070
     0
1002
}
1002
{
1000
NOSEL
1070
     0
1002
}
1002
{
1000
BEHIND
1070
     0
1002
}
1002
{
1000
OTHER
1070
     0
1002
}
1002
{
1000
REACTOR
1002
}
1001
GENIUS_GENOBJ-N-FIL_13
1002
{
1000
OWNER
1000
GEN
1002
}
  0
LINE
  5
1440
  8
243
 10
-114.9999999999993
 20
-5.9999999999997442
 30
0.0
 11
-114.9999999999993
 21
6.000000000000254
 31
0.0
  0
LINE
  5
1441
  8
243
 10
-113.26794919243029
 20
-2.9999999999997442
 30
0.0
 11
-113.26794919243029
 21
3.000000000000254
 31
0.0
  0
LINE
  5
1442
  8
243
 10
-114.9999999999993
 20
-5.9999999999997442
 30
0.0
 11
-113.26794919243029
 21
-2.9999999999997442
 31
0.0
  0
LINE
  5
1443
  8
243
 10
-114.9999999999993
 20
6.0000000000003677
 30
0.0
 11
-113.26794919243051
 21
3.0000000000002842
 31
0.0
  0
LINE
  5
144C
  8
240
 10
-127.9999999999993
 20
16.000000000000171
 30
0.0
 11
-127.9999999999993
 21
15.700000000000159
 31
0.0
  0
LINE
  5
144D
  8
241
 10
-127.9999999999993
 20
15.700000000000159
 30
0.0
 11
-127.9999999999993
 21
5.5677643628299904
 31
0.0
  0
LINE
  5
144E
  8
240
 10
-127.9999999999993
 20
15.700000000000159
 30
0.0
 11
-124.9999999999992
 21
15.700000000000159
 31
0.0
  0
LINE
  5
144F
  8
240
 10
-124.9999999999994
 20
-16.249999999999702
 30
0.0
 11
-124.9999999999992
 21
-15.699999999999591
 31
0.0
  0
LINE
  5
1452
  8
240
 10
-127.9999999999993
 20
-15.9999999999996
 30
0.0
 11
-127.9999999999993
 21
-15.699999999999591
 31
0.0
  0
LINE
  5
1453
  8
241
 10
-127.9999999999993
 20
-15.699999999999591
 30
0.0
 11
-127.9999999999993
 21
-5.567764362829478
 31
0.0
  0
LINE
  5
1454
  8
240
 10
-127.9999999999993
 20
-15.699999999999591
 30
0.0
 11
-124.9999999999992
 21
-15.699999999999591
 31
0.0
  0
LINE
  5
1455
  8
241
 10
-129.9999999999992
 20
5.5677643628299904
 30
0.0
 11
-124.9999999999992
 21
5.5677643628299904
 31
0.0
  0
LINE
  5
1456
  8
241
 10
-124.9999999999992
 20
-5.567764362829478
 30
0.0
 11
-129.9999999999992
 21
-5.567764362829478
 31
0.0
  0
LINE
  5
1457
  8
241
 10
-129.9999999999992
 20
5.5677643628299904
 30
0.0
 11
-129.9999999999992
 21
-5.567764362829478
 31
0.0
  0
LINE
  5
1458
  8
241
 10
-124.9999999999993
 20
5.5677643628299904
 30
0.0
 11
-124.9999999999991
 21
-5.5677643628291076
 31
0.0
  0
LINE
  5
145B
  8
241
 10
0.1000000000001364
 20
4.2249999999999499
 30
0.0
 11
-104.9999999999993
 21
4.225000000000291
 31
0.0
  0
LINE
  5
145C
  8
240
 10
19.500000000000679
 20
-8.4500000000001148
 30
0.0
 11
-104.99999999999839
 21
-8.4499999999997737
 31
0.0
  0
LINE
  5
145D
  8
241
 10
0.5000000000002274
 20
11.03137303340314
 30
0.0
 11
0.5000000000002274
 21
4.6249999999999281
 31
0.0
  0
LINE
  5
145E
  8
240
 10
19.500000000000679
 20
23.649999999999931
 30
0.0
 11
2.8253984357781969
 21
23.64999999999986
 31
0.0
  0
LINE
  5
145F
  8
240
 10
-124.9999999999993
 20
16.250000000000409
 30
0.0
 11
0.0
 21
16.250000000000011
 31
0.0
  0
LINE
  5
1460
  8
240
 10
-124.9999999999994
 20
-16.249999999999702
 30
0.0
 11
-107.29999999999789
 21
-16.249999999999758
 31
0.0
  0
ARC
  5
1461
  8
241
 10
1.3153000059649
 20
15.57992324715967
 30
0.0
 40
2.0
 50
158.8974471304885
 51
308.8791060285231
  0
ARC
  5
1462
  8
241
 10
8.3621106142447843
 20
14.182618609282731
 30
0.0
 40
2.0
 50
205.55221892037
 51
54.447798679718943
  0
LINE
  5
1463
  8
241
 10
-2.9999999999993161
 20
14.999999999993589
 30
0.0
 11
-3.0000000000015912
 21
16.300000000000011
 31
0.0
  0
ARC
  5
1464
  8
241
 10
1.000000000000681
 20
14.999999999999959
 30
0.0
 40
4.0
 50
180.00000000009121
 51
270.0
1001
GENIUS_GENOBJ-N-FIL_13
1002
{
1000
OWNER
1000
GEN
1002
}
1001
GENIUS_GENODEF_13
1002
{
1000
HIER
1070
     0
1002
}
1002
{
1000
MANEDIT
1070
     0
1002
}
1002
{
1000
NOSEL
1070
     0
1002
}
1002
{
1000
BEHIND
1070
     0
1002
}
1002
{
1000
OTHER
1070
     0
1002
}
1002
{
1000
REACTOR
1002
}
  0
LINE
  5
1465
  8
240
 10
20.000000000000679
 20
23.14999999999992
 30
0.0
 11
20.000000000000679
 21
-7.9500000000000304
 31
0.0
  0
LINE
  5
1467
  8
240
 10
19.500000000000679
 20
23.649999999999931
 30
0.0
 11
20.000000000000679
 21
23.14999999999992
 31
0.0
1001
GENIUS_GENFIL_13
1070
     0
1040
0.5
1040
0.5
1040
0.2
1040
45.0
1002
{
1002
}
1001
GENIUS_GENOBJ-N-CHA_13
1002
{
1000
OWNER
1000
GEN
1002
}
1001
GENIUS_GENODEF_13
1002
{
1000
HIER
1070
     0
1002
}
1002
{
1000
MANEDIT
1070
     0
1002
}
1002
{
1000
NOSEL
1070
     0
1002
}
1002
{
1000
BEHIND
1070
     0
1002
}
1002
{
1000
OTHER
1070
     0
1002
}
1002
{
1000
REACTOR
1002
}
  0
LINE
  5
1468
  8
240
 10
19.500000000000679
 20
-8.4500000000001148
 30
0.0
 11
20.000000000000679
 21
-7.9500000000001148
 31
0.0
1001
GENIUS_GENFIL_13
1070
     0
1040
0.5
1040
0.5
1040
0.2
1040
45.0
1002
{
1002
}
1001
GENIUS_GENOBJ-N-CHA_13
1002
{
1000
OWNER
1000
GEN
1002
}
1001
GENIUS_GENODEF_13
1002
{
1000
HIER
1070
     0
1002
}
1002
{
1000
MANEDIT
1070
     0
1002
}
1002
{
1000
NOSEL
1070
     0
1002
}
1002
{
1000
BEHIND
1070
     0
1002
}
1002
{
1000
OTHER
1070
     0
1002
}
1002
{
1000
REACTOR
1002
}
  0
LINE
  5
1469
  8
241
 10
9.5249999999998636
 20
13.750143880094541
 30
0.0
 11
9.5250000000003183
 21
23.64999999999986
 31
0.0
  0
ARC
  5
146A
  8
241
 10
8.7250000000001364
 20
13.750143880094541
 30
0.0
 40
0.8
 50
259.99999999999483
 51
0.0
1001
GENIUS_GENODEF_13
1002
{
1000
HIER
1070
     0
1002
}
1002
{
1000
MANEDIT
1070
     0
1002
}
1002
{
1000
NOSEL
1070
     0
1002
}
1002
{
1000
BEHIND
1070
     0
1002
}
1002
{
1000
OTHER
1070
     0
1002
}
1002
{
1000
REACTOR
1002
}
1001
GENIUS_GENOBJ-N-FIL_13
1002
{
1000
OWNER
1000
GEN
1002
}
  0
CIRCLE
  5
146B
  8
246
 10
4.7625000000000437
 20
18.472467490749079
 30
0.0
 40
4.7625000000000011
  0
LINE
  5
146C
  8
241
 10
0.0
 20
23.194791101403609
 30
0.0
 11
0.0000000000002274
 21
14.811895349737981
 31
0.0
  0
ARC
  5
146D
  8
241
 10
0.7999999999999548
 20
23.194791101403609
 30
0.0
 40
0.8
 50
79.999999999994827
 51
180.0
1001
GENIUS_GENOBJ-N-FIL_13
1002
{
1000
OWNER
1000
GEN
1002
}
1001
GENIUS_GENODEF_13
1002
{
1000
HIER
1070
     0
1002
}
1002
{
1000
MANEDIT
1070
     0
1002
}
1002
{
1000
NOSEL
1070
     0
1002
}
1002
{
1000
BEHIND
1070
     0
1002
}
1002
{
1000
OTHER
1070
     0
1002
}
1002
{
1000
REACTOR
1002
}
  0
LINE
  5
146E
  8
241
 10
9.1944592710667621
 20
22.526962732964989
 30
0.0
 11
0.9389185421334785
 21
23.982637303813359
 31
0.0
  0
LINE
  5
146F
  8
240
 10
-106.9999999999982
 20
-10.45000000000017
 30
0.0
 11
-106.999999999997
 21
-15.949999999998941
 31
0.0
  0
ARC
  5
1470
  8
240
 10
-104.99999999999839
 20
-10.44999999999977
 30
0.0
 40
2.0
 50
90.0
 51
180.00000000000981
1001
GENIUS_GENODEF_13
1002
{
1000
HIER
1070
     0
1002
}
1002
{
1000
MANEDIT
1070
     0
1002
}
1002
{
1000
NOSEL
1070
     0
1002
}
1002
{
1000
BEHIND
1070
     0
1002
}
1002
{
1000
OTHER
1070
     0
1002
}
1002
{
1000
REACTOR
1002
}
1001
GENIUS_GENOBJ-N-FIL_13
1002
{
1000
OWNER
1000
GEN
1002
}
  0
LINE
  5
1471
  8
241
 10
1.000000000000681
 20
10.999999999999959
 30
0.0
 11
20.000000000000679
 21
10.999999999999901
 31
0.0
  0
LINE
  5
1472
  8
241
 10
0.3305407289333289
 20
14.41797224853307
 30
0.0
 11
8.5860814578666105
 21
12.96229767768479
 31
0.0
  0
LINE
  5
1473
  8
241
 10
19.500000000000679
 20
-5.1262120123202646
 30
0.0
 11
19.500000000000679
 21
-8.4500000000001734
 31
0.0
  0
LINE
  5
1474
  8
241
 10
-106.9999999999993
 20
2.225000000000291
 30
0.0
 11
-106.9999999999993
 21
-10.44999999999977
 31
0.0
  0
ARC
  5
1475
  8
241
 10
0.400000000000091
 20
14.811895349737981
 30
0.0
 40
0.4
 50
180.0
 51
259.99999999999483
  0
ARC
  5
1476
  8
241
 10
9.125
 20
22.133039631760081
 30
0.0
 40
0.4
 50
0.0
 51
79.999999999994827
  0
LINE
  5
1477
  8
240
 10
-107.29999999999789
 20
-16.249999999999758
 30
0.0
 11
-106.9999999999979
 21
-15.94999999999969
 31
0.0
1001
GENIUS_GENFIL_13
1070
     0
1040
0.3
1040
0.3
1040
0.2
1040
45.0
1002
{
1002
}
1001
GENIUS_GENOBJ-N-CHA_13
1002
{
1000
OWNER
1000
GEN
1002
}
1001
GENIUS_GENODEF_13
1002
{
1000
HIER
1070
     0
1002
}
1002
{
1000
MANEDIT
1070
     0
1002
}
1002
{
1000
NOSEL
1070
     0
1002
}
1002
{
1000
BEHIND
1070
     0
1002
}
1002
{
1000
OTHER
1070
     0
1002
}
1002
{
1000
REACTOR
1002
}
  0
ARC
  5
1478
  8
241
 10
0.1000000000001364
 20
4.6249999999999281
 30
0.0
 40
0.4
 50
269.99999999998693
 51
0.0
1001
GENIUS_GENOBJ-N-FIL_13
1002
{
1000
OWNER
1000
GEN
1002
}
1001
GENIUS_GENODEF_13
1002
{
1000
HIER
1070
     0
1002
}
1002
{
1000
MANEDIT
1070
     0
1002
}
1002
{
1000
NOSEL
1070
     0
1002
}
1002
{
1000
BEHIND
1070
     0
1002
}
1002
{
1000
OTHER
1070
     0
1002
}
1002
{
1000
REACTOR
1002
}
  0
ARC
  5
1479
  8
241
 10
-104.9999999999993
 20
2.225000000000291
 30
0.0
 40
2.0
 50
90.0
 51
180.0
1001
GENIUS_GENODEF_13
1002
{
1000
HIER
1070
     0
1002
}
1002
{
1000
MANEDIT
1070
     0
1002
}
1002
{
1000
NOSEL
1070
     0
1002
}
1002
{
1000
BEHIND
1070
     0
1002
}
1002
{
1000
OTHER
1070
     0
1002
}
1002
{
1000
REACTOR
1002
}
1001
GENIUS_GENOBJ-N-FIL_13
1002
{
1000
OWNER
1000
GEN
1002
}
  0
LINE
  5
147A
  8
245
 10
0.0
 20
2.3750000000000142
 30
0.0
 11
-0.0000000000002274
 21
12.127016653792721
 31
0.0
  0
LINE
  5
147B
  8
243
 10
-1.25
 20
3.000000000000004
 30
0.0
 11
-1.25
 21
11.69281086116969
 31
0.0
  0
LINE
  5
147C
  8
243
 10
1.250000000000411
 20
-2.9999999999997442
 30
0.0
 11
1.25
 21
10.999999999999959
 31
0.0
  0
LINE
  5
15BC
  8
242
 10
-129.9999999999992
 20
-5.567764362829478
 30
0.0
 11
-124.9999999999993
 21
5.5677643628299904
 31
0.0
  0
LINE
  5
15BD
  8
242
 10
-129.9999999999992
 20
5.5677643628299904
 30
0.0
 11
-124.9999999999991
 21
-5.5677643628291076
 31
0.0
  0
TEXT
  5
168A
  8
241
 10
-215.9999999999994
 20
56.000000000000362
 30
0.0
 40
4.0
  1
ST32-BFM30/48-105
  7
YOKO
  0
LINE
  5
168B
  8
247
 10
-201.1663334451888
 20
11.90111729402296
 30
0.0
 11
-201.1663334451888
 21
11.90111729402296
 31
0.0
1001
HATCH_DISTANCE
1040
1.0
1001
HATCH_DISPLAY
1070
     0
1001
HATCH_TYPE
1070
     7
  0
LINE
  5
168C
  8
247
 10
-201.25762296545241
 20
12.1906184842085
 30
0.0
 11
-201.1663334451888
 21
11.90111729402296
 31
0.0
1001
HATCH_DISTANCE
1040
1.0
1001
HATCH_DISPLAY
1070
     0
1001
HATCH_TYPE
1070
     7
  0
LINE
  5
168D
  8
247
 10
-201.25762296545241
 20
12.1906184842085
 30
0.0
 11
-201.25762296545241
 21
12.1906184842085
 31
0.0
1001
HATCH_DISTANCE
1040
1.0
1001
HATCH_DISPLAY
1070
     0
1001
HATCH_TYPE
1070
     7
  0
LINE
  5
168E
  8
247
 10
-201.1663334451888
 20
11.90111729402296
 30
0.0
 11
-201.25762296545241
 21
12.1906184842085
 31
0.0
1001
HATCH_DISTANCE
1040
1.0
1001
HATCH_DISPLAY
1070
     0
1001
HATCH_TYPE
1070
     7
  0
LINE
  5
168F
  8
247
 10
-201.1663334451888
 20
11.90111729402296
 30
0.0
 11
-201.1663334451888
 21
11.90111729402296
 31
0.0
  0
LINE
  5
1690
  8
247
 10
-201.25762296545241
 20
12.1906184842085
 30
0.0
 11
-201.1663334451888
 21
11.90111729402296
 31
0.0
  0
LINE
  5
1691
  8
247
 10
-201.25762296545241
 20
12.1906184842085
 30
0.0
 11
-201.25762296545241
 21
12.1906184842085
 31
0.0
  0
LINE
  5
1692
  8
247
 10
-201.1663334451888
 20
11.90111729402296
 30
0.0
 11
-201.25762296545241
 21
12.1906184842085
 31
0.0
  0
LINE
  5
1693
  8
247
 10
-201.1663334451888
 20
11.90111729402296
 30
0.0
 11
-201.1663334451888
 21
11.90111729402296
 31
0.0
1001
HATCH_DISTANCE
1040
1.0
1001
HATCH_DISPLAY
1070
     0
1001
HATCH_TYPE
1070
     7
  0
LINE
  5
1694
  8
247
 10
-201.25762296545241
 20
12.1906184842085
 30
0.0
 11
-201.1663334451888
 21
11.90111729402296
 31
0.0
1001
HATCH_DISTANCE
1040
1.0
1001
HATCH_DISPLAY
1070
     0
1001
HATCH_TYPE
1070
     7
  0
LINE
  5
1695
  8
247
 10
-201.25762296545241
 20
12.1906184842085
 30
0.0
 11
-201.25762296545241
 21
12.1906184842085
 31
0.0
1001
HATCH_DISTANCE
1040
1.0
1001
HATCH_DISPLAY
1070
     0
1001
HATCH_TYPE
1070
     7
  0
LINE
  5
1696
  8
247
 10
-201.1663334451888
 20
11.90111729402296
 30
0.0
 11
-201.25762296545241
 21
12.1906184842085
 31
0.0
1001
HATCH_DISTANCE
1040
1.0
1001
HATCH_DISPLAY
1070
     0
1001
HATCH_TYPE
1070
     7
  0
LINE
  5
1697
  8
247
 10
-201.1663334451888
 20
11.90111729402296
 30
0.0
 11
-201.1663334451888
 21
11.90111729402296
 31
0.0
  0
LINE
  5
1698
  8
247
 10
-201.25762296545241
 20
12.1906184842085
 30
0.0
 11
-201.1663334451888
 21
11.90111729402296
 31
0.0
  0
LINE
  5
1699
  8
247
 10
-201.25762296545241
 20
12.1906184842085
 30
0.0
 11
-201.25762296545241
 21
12.1906184842085
 31
0.0
  0
LINE
  5
169A
  8
247
 10
-201.1663334451888
 20
11.90111729402296
 30
0.0
 11
-201.25762296545241
 21
12.1906184842085
 31
0.0
  0
LINE
  5
169B
  8
247
 10
-203.21019101965169
 20
12.24320408601514
 30
0.0
 11
-203.99855161535481
 21
12.24320408601514
 31
0.0
1001
HATCH_DISTANCE
1040
1.0
1001
HATCH_DISPLAY
1070
     0
1001
HATCH_TYPE
1070
     7
  0
LINE
  5
169C
  8
247
 10
-203.9924748026107
 20
9.5150466849302422
 30
0.0
 11
-203.21019101965169
 21
12.24320408601514
 31
0.0
1001
HATCH_DISTANCE
1040
1.0
1001
HATCH_DISPLAY
1070
     0
1001
HATCH_TYPE
1070
     7
  0
LINE
  5
169D
  8
247
 10
-204.67046857702471
 20
9.5150466849302422
 30
0.0
 11
-203.9924748026107
 21
9.5150466849302422
 31
0.0
1001
HATCH_DISTANCE
1040
1.0
1001
HATCH_DISPLAY
1070
     0
1001
HATCH_TYPE
1070
     7
  0
LINE
  5
169E
  8
247
 10
-203.98378873693679
 20
11.90976902742139
 30
0.0
 11
-204.67046857702471
 21
9.5150466849302422
 31
0.0
1001
HATCH_DISTANCE
1040
1.0
1001
HATCH_DISPLAY
1070
     0
1001
HATCH_TYPE
1070
     7
  0
LINE
  5
169F
  8
247
 10
-204.0941670023177
 20
11.90976902742139
 30
0.0
 11
-203.98378873693679
 21
11.90976902742139
 31
0.0
1001
HATCH_DISTANCE
1040
1.0
1001
HATCH_DISPLAY
1070
     0
1001
HATCH_TYPE
1070
     7
  0
LINE
  5
16A0
  8
247
 10
-203.99855161535481
 20
12.24320408601514
 30
0.0
 11
-204.0941670023177
 21
11.90976902742139
 31
0.0
1001
HATCH_DISTANCE
1040
1.0
1001
HATCH_DISPLAY
1070
     0
1001
HATCH_TYPE
1070
     7
  0
LINE
  5
16A1
  8
247
 10
-203.21019101965169
 20
12.24320408601514
 30
0.0
 11
-203.99855161535481
 21
12.24320408601514
 31
0.0
  0
LINE
  5
16A2
  8
247
 10
-203.9924748026107
 20
9.5150466849302422
 30
0.0
 11
-203.21019101965169
 21
12.24320408601514
 31
0.0
  0
LINE
  5
16A3
  8
247
 10
-204.67046857702471
 20
9.5150466849302422
 30
0.0
 11
-203.9924748026107
 21
9.5150466849302422
 31
0.0
  0
LINE
  5
16A4
  8
247
 10
-203.98378873693679
 20
11.90976902742139
 30
0.0
 11
-204.67046857702471
 21
9.5150466849302422
 31
0.0
  0
LINE
  5
16A5
  8
247
 10
-204.0941670023177
 20
11.90976902742139
 30
0.0
 11
-203.98378873693679
 21
11.90976902742139
 31
0.0
  0
LINE
  5
16A6
  8
247
 10
-203.99855161535481
 20
12.24320408601514
 30
0.0
 11
-204.0941670023177
 21
11.90976902742139
 31
0.0
  0
TEXT
  5
16ED
  8
247
 10
-198.25315800997831
 20
9.4925455810367261
 30
0.0
 40
2.5
  1
ST32-BFM30/48-105
  7
YOKO
 11
-198.25315800997831
 21
9.4925455810367261
 31
0.0
 73
     1
  0
LINE
  5
16EE
  8
247
 10
-201.31088376867501
 20
11.855535476395991
 30
0.0
 11
-201.4021732889388
 21
12.145036666581539
 31
0.0
  0
ARC
  5
16EF
  8
247
 10
-200.85188413488589
 20
10.651777236649909
 30
0.0
 40
1.288299322128293
 50
110.8721834020771
 51
132.54194893738571
  0
ARC
  5
16F0
  8
247
 10
-202.0410854898665
 20
11.591474502274909
 30
0.0
 40
0.3182875066995621
 50
1.7101213820643351
 51
163.99839835444811
  0
LINE
  5
16F1
  8
247
 10
-202.7555744730208
 20
10.2545070340132
 30
0.0
 11
-202.3470432840559
 21
11.679216354081561
 31
0.0
  0
ARC
  5
16F2
  8
247
 10
-202.4496166788314
 20
10.166776626298351
 30
0.0
 40
0.3182872831821442
 50
164.00027305718319
 51
344.00027305718322
  0
LINE
  5
16F3
  8
247
 10
-202.14365888464189
 20
10.07904621858351
 30
0.0
 11
-201.9490063272689
 21
10.757875411698739
 31
0.0
  0
LINE
  5
16F4
  8
247
 10
-202.20127988683919
 20
10.757875411698739
 30
0.0
 11
-201.9490063272689
 21
10.757875411698739
 31
0.0
  0
LINE
  5
16F5
  8
247
 10
-202.20127988683919
 20
10.757875411698739
 30
0.0
 11
-202.11436200964189
 21
11.06100651521437
 31
0.0
  0
LINE
  5
16F6
  8
247
 10
-202.11436200964189
 20
11.06100651521437
 30
0.0
 11
-201.231393107054
 21
11.061006515214361
 31
0.0
  0
LINE
  5
16F7
  8
247
 10
-201.6746914468977
 20
9.5150466849302546
 30
0.0
 11
-201.231393107054
 21
11.061006515214361
 31
0.0
  0
LINE
  5
16F8
  8
247
 10
-201.8525097452376
 20
9.6928535391783015
 30
0.0
 11
-201.6746914468977
 21
9.5150466849302546
 31
0.0
  0
ARC
  5
16F9
  8
247
 10
-202.41706968176101
 20
10.500211684892101
 30
0.0
 40
0.9851760864257813
 50
163.99975070172741
 51
304.96387329163082
  0
ARC
  5
16FA
  8
247
 10
-200.80635953771809
 20
10.448415725419441
 30
0.0
 40
2.5780792236328121
 50
155.20517736984181
 51
172.7948259620504
  0
ARC
  5
16FB
  8
247
 10
-202.199769266722
 20
11.258039443681159
 30
0.0
 40
0.9851660728454588
 50
53.444012197055507
 51
164.0001843876849
  0
ARC
  5
16FC
  8
247
 10
-200.85188413488589
 20
10.651777236649909
 30
0.0
 40
1.591427564620969
 50
110.22964506332001
 51
118.57168892371681
  0
LINE
  5
16FD
  8
247
 10
-206.3794033609602
 20
12.243204086015149
 30
0.0
 11
-206.46632123815741
 21
11.94007298249953
 31
0.0
  0
LINE
  5
16FE
  8
247
 10
-207.00540662634111
 20
12.243204086015149
 30
0.0
 11
-206.3794033609602
 21
12.243204086015149
 31
0.0
  0
LINE
  5
16FF
  8
247
 10
-207.00540662634111
 20
11.94007298249953
 30
0.0
 11
-206.46632123815741
 21
11.94007298249953
 31
0.0
  0
ARC
  5
1700
  8
247
 10
-207.00540662634111
 20
10.651777236649909
 30
0.0
 40
1.288295745849606
 50
90.0
 51
270.0
  0
ARC
  5
1701
  8
247
 10
-207.00540662634111
 20
10.651777236649909
 30
0.0
 40
1.591426849365233
 50
90.0
 51
270.0
  0
LINE
  5
1702
  8
247
 10
-207.00540662634111
 20
9.0603500374582371
 30
0.0
 11
-200.85188413488589
 21
9.0603500374582211
 31
0.0
  0
LINE
  5
1703
  8
247
 10
-207.00540662634111
 20
9.3634811331724421
 30
0.0
 11
-200.85188413488589
 21
9.3634811331724244
 31
0.0
  0
ARC
  5
1704
  8
247
 10
-200.85188413488589
 20
10.651777236649909
 30
0.0
 40
1.591426849365233
 50
270.0
 51
104.7707939660941
  0
ARC
  5
1705
  8
247
 10
-200.85188413488589
 20
10.651777236649909
 30
0.0
 40
1.288295745849606
 50
270.0
 51
104.1274364964119
  0
LINE
  5
1706
  8
247
 10
-201.1663334451888
 20
11.90111729402294
 30
0.0
 11
-201.25762296545241
 21
12.190618484208491
 31
0.0
  0
LINE
  5
1707
  8
247
 10
-203.9924748026107
 20
9.5150466849302546
 30
0.0
 11
-203.21019101965169
 21
12.243204086015149
 31
0.0
  0
LINE
  5
1708
  8
247
 10
-206.8463451944564
 20
9.5150466849302546
 30
0.0
 11
-206.150979288695
 21
11.94007298249864
 31
0.0
  0
ARC
  5
170B
  8
247
 10
-205.57891202795241
 20
11.515691726396
 30
0.0
 40
0.4546839594841006
 50
261.6626016879294
 51
66.338155095189762
  0
ARC
  5
170D
  8
247
 10
-205.24072767126299
 20
11.48538777131788
 30
0.0
 40
0.7578227519989014
 50
287.66957754739798
 51
90.236159842671626
  0
LINE
  5
170F
  8
247
 10
-205.3964289023844
 20
11.93214990184107
 30
0.0
 11
-205.64484143389939
 21
11.065813057815671
 31
0.0
  0
LINE
  5
1710
  8
247
 10
-204.67046857702471
 20
9.5150466849302546
 30
0.0
 11
-203.98378873693679
 21
11.909769027421399
 31
0.0
  0
LINE
  5
1711
  8
247
 10
-203.99855161535481
 20
12.243204086015149
 30
0.0
 11
-203.21019101965169
 21
12.243204086015149
 31
0.0
  0
LINE
  5
1714
  8
247
 10
-206.22173810827439
 20
12.243204086015149
 30
0.0
 11
-205.24385123108999
 21
12.243204086015041
 31
0.0
  0
LINE
  5
1716
  8
247
 10
-206.30865598547231
 20
11.94007298249953
 30
0.0
 11
-206.150979288695
 21
11.94007298249864
 31
0.0
  0
LINE
  5
1717
  8
247
 10
-206.22173810827439
 20
12.243204086015149
 30
0.0
 11
-206.30865598547231
 21
11.94007298249953
 31
0.0
  0
LINE
  5
171B
  8
247
 10
-204.0941670023177
 20
11.909769027421399
 30
0.0
 11
-203.98378873693679
 21
11.909769027421399
 31
0.0
  0
LINE
  5
171C
  8
247
 10
-204.0941670023177
 20
11.909769027421399
 30
0.0
 11
-203.99855161535481
 21
12.243204086015149
 31
0.0
  0
ARC
  5
171E
  8
247
 10
-205.5884106241439
 20
10.27286335725538
 30
0.0
 40
0.7578163146972659
 50
270.0
 51
40.329840654169217
  0
ARC
  5
1721
  8
247
 10
-205.9265949808333
 20
10.3031787564253
 30
0.0
 40
0.4546969681978227
 50
261.6628542111489
 51
66.338192159110051
  0
LINE
  5
1722
  8
247
 10
-205.7441082373401
 20
10.71964954932378
 30
0.0
 11
-205.9925248555551
 21
9.8532870088821305
 31
0.0
  0
LINE
  5
1725
  8
247
 10
-206.8463451944564
 20
9.5150466849302546
 30
0.0
 11
-205.5884106241439
 21
9.5150466849302546
 31
0.0
  0
LINE
  5
1727
  8
247
 10
-204.67046857702471
 20
9.5150466849302546
 30
0.0
 11
-203.9924748026107
 21
9.5150466849302546
 31
0.0
  0
LINE
  5
1756
  8
250
 10
0.0000000000001137
 20
23.694791101403581
 30
0.0
 11
0.0000000000001145
 21
36.0
 31
0.0
  0
LINE
  5
1757
  8
250
 10
-104.9999999999993
 20
16.729981634498699
 30
0.0
 11
-104.9999999999993
 21
36.0
 31
0.0
  0
LINE
  5
1758
  8
250
 10
-2.2299999999998841
 20
35.0
 30
0.0
 11
-102.7699999999993
 21
35.0
 31
0.0
  0
LINE
  5
175D
  8
250
 10
20.000000000000789
 20
23.699999999999928
 30
0.0
 11
20.000000000000789
 21
36.0
 31
0.0
  0
LINE
  5
175E
  8
250
 10
0.0000000000001137
 20
23.694791101403581
 30
0.0
 11
0.0000000000001145
 21
36.0
 31
0.0
  0
LINE
  5
175F
  8
250
 10
17.770000000000788
 20
35.0
 30
0.0
 11
2.2300000000001141
 21
35.0
 31
0.0
  0
LINE
  5
1763
  8
250
 10
-214.99999999999929
 20
14.500000000000369
 30
0.0
 11
-214.99999999999929
 21
43.0
 31
0.0
  0
LINE
  5
1764
  8
250
 10
20.000000000000789
 20
23.699999999999928
 30
0.0
 11
20.000000000000789
 21
43.0
 31
0.0
  0
LINE
  5
1765
  8
250
 10
-212.7699999999993
 20
42.0
 30
0.0
 11
17.770000000000788
 21
42.0
 31
0.0
  0
LINE
  5
1769
  8
250
 10
-213.49999999999929
 20
-15.999999999999631
 30
0.0
 11
-225.0
 21
-15.999999999999631
 31
0.0
  0
LINE
  5
176A
  8
250
 10
-213.49999999999929
 20
16.000000000000359
 30
0.0
 11
-225.0
 21
16.000000000000359
 31
0.0
  0
LINE
  5
176B
  8
250
 10
-224.0
 20
-13.76999999999963
 30
0.0
 11
-224.0
 21
13.770000000000371
 31
0.0
  0
LINE
  5
176F
  8
250
 10
1.2999999999999541
 20
23.994791101403621
 30
0.0
 11
36.0
 21
23.99479110140361
 31
0.0
  0
LINE
  5
1770
  8
250
 10
35.0
 20
21.76479110140361
 30
0.0
 11
35.0
 21
-7.528124434737089
 31
0.0
  0
TEXT
  5
1773
  8
250
 10
-56.699999999999591
 20
36.0
 30
0.0
 40
2.799999999999998
  1
105
  0
LINE
  5
1774
  8
250
 10
-102.7699999999993
 20
34.62833333333333
 30
0.0
 11
-104.9999999999993
 21
35.0
 31
0.0
  0
LINE
  5
1775
  8
250
 10
-102.7699999999993
 20
35.37166666666667
 30
0.0
 11
-104.9999999999993
 21
35.0
 31
0.0
  0
LINE
  5
1776
  8
250
 10
-104.9999999999993
 20
35.0
 30
0.0
 11
-102.7699999999993
 21
35.0
 31
0.0
  0
LINE
  5
1777
  8
250
 10
-2.2299999999998841
 20
35.37166666666667
 30
0.0
 11
0.0000000000001144
 21
35.0
 31
0.0
  0
LINE
  5
1778
  8
250
 10
-2.2299999999998841
 20
34.62833333333333
 30
0.0
 11
0.0000000000001144
 21
35.0
 31
0.0
  0
LINE
  5
1779
  8
250
 10
0.0000000000001144
 20
35.0
 30
0.0
 11
-2.2299999999998841
 21
35.0
 31
0.0
  0
TEXT
  5
177A
  8
250
 10
7.3333333333337878
 20
36.0
 30
0.0
 40
2.799999999999998
  1
20
  0
LINE
  5
177B
  8
250
 10
2.2300000000001141
 20
34.62833333333333
 30
0.0
 11
0.0000000000001144
 21
35.0
 31
0.0
  0
LINE
  5
177C
  8
250
 10
2.2300000000001141
 20
35.37166666666667
 30
0.0
 11
0.0000000000001144
 21
35.0
 31
0.0
  0
LINE
  5
177D
  8
250
 10
0.0000000000001144
 20
35.0
 30
0.0
 11
2.2300000000001141
 21
35.0
 31
0.0
  0
LINE
  5
177E
  8
250
 10
17.770000000000788
 20
35.37166666666667
 30
0.0
 11
20.000000000000789
 21
35.0
 31
0.0
  0
LINE
  5
177F
  8
250
 10
17.770000000000788
 20
34.62833333333333
 30
0.0
 11
20.000000000000789
 21
35.0
 31
0.0
  0
LINE
  5
1780
  8
250
 10
20.000000000000789
 20
35.0
 30
0.0
 11
17.770000000000788
 21
35.0
 31
0.0
  0
TEXT
  5
1781
  8
250
 10
-101.4999999999992
 20
43.0
 30
0.0
 40
2.799999999999998
  1
235
  0
LINE
  5
1782
  8
250
 10
17.770000000000788
 20
42.371666666666663
 30
0.0
 11
20.000000000000789
 21
42.0
 31
0.0
  0
LINE
  5
1783
  8
250
 10
17.770000000000788
 20
41.62833333333333
 30
0.0
 11
20.000000000000789
 21
42.0
 31
0.0
  0
LINE
  5
1784
  8
250
 10
20.000000000000789
 20
42.0
 30
0.0
 11
17.770000000000788
 21
42.0
 31
0.0
  0
LINE
  5
1785
  8
250
 10
-212.7699999999993
 20
41.62833333333333
 30
0.0
 11
-214.99999999999929
 21
42.0
 31
0.0
  0
LINE
  5
1786
  8
250
 10
-212.7699999999993
 20
42.371666666666663
 30
0.0
 11
-214.99999999999929
 21
42.0
 31
0.0
  0
LINE
  5
1787
  8
250
 10
-214.99999999999929
 20
42.0
 30
0.0
 11
-212.7699999999993
 21
42.0
 31
0.0
  0
TEXT
  5
1788
  8
250
 10
-225.0
 20
-3.799999999999661
 30
0.0
 40
2.799999999999998
  1
\U+220532
 50
90.0
  0
LINE
  5
1789
  8
250
 10
-224.3716666666667
 20
13.770000000000371
 30
0.0
 11
-224.0
 21
16.000000000000359
 31
0.0
  0
LINE
  5
178A
  8
250
 10
-223.6283333333333
 20
13.770000000000371
 30
0.0
 11
-224.0
 21
16.000000000000359
 31
0.0
  0
LINE
  5
178B
  8
250
 10
-224.0
 20
16.000000000000359
 30
0.0
 11
-224.0
 21
13.770000000000371
 31
0.0
  0
LINE
  5
178C
  8
250
 10
-223.6283333333333
 20
-13.76999999999963
 30
0.0
 11
-224.0
 21
-15.999999999999631
 31
0.0
  0
LINE
  5
178D
  8
250
 10
-224.3716666666667
 20
-13.76999999999963
 30
0.0
 11
-224.0
 21
-15.999999999999631
 31
0.0
  0
LINE
  5
178E
  8
250
 10
-224.0
 20
-15.999999999999631
 30
0.0
 11
-224.0
 21
-13.76999999999963
 31
0.0
  0
TEXT
  5
178F
  8
250
 10
33.999999999999993
 20
-6.7947911014037503
 30
0.0
 40
2.799999999999998
  1
\U+220548
 50
90.0
  0
LINE
  5
1790
  8
250
 10
34.62833333333333
 20
21.76479110140361
 30
0.0
 11
35.0
 21
23.99479110140361
 31
0.0
  0
LINE
  5
1791
  8
250
 10
35.37166666666667
 20
21.76479110140361
 30
0.0
 11
35.0
 21
23.99479110140361
 31
0.0
  0
LINE
  5
1792
  8
250
 10
35.0
 20
23.99479110140361
 30
0.0
 11
35.0
 21
21.76479110140361
 31
0.0
  0
VIEWPORT
  5
22
 67
     1
  8
0
 10
261.51769911504419
 20
148.5
 30
0.0
 40
523.0353982300885
 41
297.0
 68
     1
 69
     1
1001
ACAD
1000
MVIEW
1002
{
1070
    16
1010
0.0
1020
0.0
1030
0.0
1010
0.0
1020
0.0
1030
1.0
1040
0.0
1040
297.0
1040
261.51769911504419
1040
148.5
1040
50.0
1040
0.0
1040
0.0
1070
     0
1070
   100
1070
     1
1070
     1
1070
     0
1070
     0
1070
     0
1070
     0
1040
0.0
1040
0.0
1040
0.0
1040
1.0
1040
1.0
1040
10.0
1040
10.0
1070
     0
1002
{
1002
}
1002
}
1001
GENIUS_GENODEF_13
1002
{
1000
HIER
1070
     0
1002
}
1002
{
1000
MANEDIT
1070
     0
1002
}
1002
{
1000
NOSEL
1070
     0
1002
}
1002
{
1000
BEHIND
1070
     0
1002
}
1002
{
1000
OTHER
1070
     0
1002
}
1002
{
1000
REACTOR
1002
}
1001
GENIUS_GENOBJ-N-SDF_13
1002
{
1000
OWNER
1000
GEN
1002
}
1001
GENIUS_GENSCREG_15
1000
PF
1040
1.0
1000
DF
1040
1.0
1000
MIN
1011
0.0
1021
5.4918381741365432E+157
1031
0.0
1021
0.0
1031
0.0
1000
MAX
1011
523.0353982300885
1021
5.4918381741365432E+157
1031
0.0
1021
297.0
1031
0.0
1000
FLAGS
1070
     2
  0
ENDSEC
  0
EOF
