  0
SECTION
  2
HEADER
  9
$ACADVER
  1
AC1009
  9
$INSBASE
 10
0.0
 20
0.0
 30
0.0
  9
$EXTMIN
 10
-220.80000000000001
 20
-16.414213562375132
 30
0.0
  9
$EXTMAX
 10
36.0
 20
60.761904761902699
 30
0.0
  9
$LIMMIN
 10
0.0
 20
0.0
  9
$LIMMAX
 10
297.0
 20
210.0
  9
$ORTHOMODE
 70
     1
  9
$REGENMODE
 70
     1
  9
$FILLMODE
 70
     1
  9
$QTEXTMODE
 70
     0
  9
$MIRRTEXT
 70
     1
  9
$DRAGMODE
 70
     2
  9
$LTSCALE
 40
10.0
  9
$OSMODE
 70
    39
  9
$ATTMODE
 70
     1
  9
$TEXTSIZE
 40
3.0
  9
$TRACEWID
 40
1.0
  9
$TEXTSTYLE
  7
YOKO
  9
$CLAYER
  8
240
  9
$CELTYPE
  6
BYLAYER
  9
$CECOLOR
 62
   256
  9
$DIMSCALE
 40
1.0
  9
$DIMASZ
 40
2.2299999999999991
  9
$DIMEXO
 40
0.5
  9
$DIMDLI
 40
7.0
  9
$DIMRND
 40
0.0
  9
$DIMDLE
 40
0.0
  9
$DIMEXE
 40
1.0
  9
$DIMTP
 40
0.0
  9
$DIMTM
 40
0.01
  9
$DIMTXT
 40
2.799999999999998
  9
$DIMCEN
 40
0.0
  9
$DIMTSZ
 40
0.0
  9
$DIMTOL
 70
     0
  9
$DIMLIM
 70
     0
  9
$DIMTIH
 70
     0
  9
$DIMTOH
 70
     0
  9
$DIMSE1
 70
     0
  9
$DIMSE2
 70
     0
  9
$DIMTAD
 70
     3
  9
$DIMZIN
 70
     9
  9
$DIMBLK
  1
OPEN
  9
$DIMASO
 70
     1
  9
$DIMSHO
 70
     1
  9
$DIMPOST
  1

  9
$DIMAPOST
  1

  9
$DIMALT
 70
     0
  9
$DIMALTD
 70
     2
  9
$DIMALTF
 40
25.399999999999999
  9
$DIMLFAC
 40
1.0
  9
$DIMTOFL
 70
     1
  9
$DIMTVP
 40
0.0
  9
$DIMTIX
 70
     1
  9
$DIMSOXD
 70
     0
  9
$DIMSAH
 70
     0
  9
$DIMBLK1
  1

  9
$DIMBLK2
  1

  9
$DIMSTYLE
  2
BIGT
  9
$DIMCLRD
 70
   256
  9
$DIMCLRE
 70
   256
  9
$DIMCLRT
 70
    40
  9
$DIMTFAC
 40
1.0
  9
$DIMGAP
 40
1.0
  9
$LUNITS
 70
     2
  9
$LUPREC
 70
     3
  9
$SKETCHINC
 40
1.0
  9
$FILLETRAD
 40
0.0
  9
$AUNITS
 70
     0
  9
$AUPREC
 70
     3
  9
$MENU
  1
.
  9
$ELEVATION
 40
0.0
  9
$PELEVATION
 40
0.0
  9
$THICKNESS
 40
0.0
  9
$LIMCHECK
 70
     0
  9
$BLIPMODE
 70
     0
  9
$CHAMFERA
 40
0.25
  9
$CHAMFERB
 40
0.25
  9
$SKPOLY
 70
     0
  9
$TDCREATE
 40
2456598.6800271408
  9
$TDUPDATE
 40
2456598.7137686461
  9
$TDINDWG
 40
0.0079334144
  9
$TDUSRTIMER
 40
0.0079332407
  9
$USRTIMER
 70
     1
  9
$ANGBASE
 50
0.0
  9
$ANGDIR
 70
     0
  9
$PDMODE
 70
     1
  9
$PDSIZE
 40
0.0
  9
$PLINEWID
 40
0.0
  9
$COORDS
 70
     2
  9
$SPLFRAME
 70
     0
  9
$SPLINETYPE
 70
     6
  9
$SPLINESEGS
 70
     4
  9
$ATTDIA
 70
     1
  9
$ATTREQ
 70
     1
  9
$HANDLING
 70
     1
  9
$HANDSEED
  5
1A45
  9
$SURFTAB1
 70
     6
  9
$SURFTAB2
 70
     6
  9
$SURFTYPE
 70
     6
  9
$SURFU
 70
     6
  9
$SURFV
 70
     6
  9
$UCSNAME
  2

  9
$UCSORG
 10
0.0
 20
0.0
 30
0.0
  9
$UCSXDIR
 10
1.0
 20
0.0
 30
0.0
  9
$UCSYDIR
 10
0.0
 20
1.0
 30
0.0
  9
$PUCSNAME
  2

  9
$PUCSORG
 10
0.0
 20
0.0
 30
0.0
  9
$PUCSXDIR
 10
1.0
 20
0.0
 30
0.0
  9
$PUCSYDIR
 10
0.0
 20
1.0
 30
0.0
  9
$USERI1
 70
     1
  9
$USERI2
 70
     0
  9
$USERI3
 70
     0
  9
$USERI4
 70
     0
  9
$USERI5
 70
     0
  9
$USERR1
 40
0.0
  9
$USERR2
 40
0.0
  9
$USERR3
 40
0.0
  9
$USERR4
 40
0.0
  9
$USERR5
 40
0.0
  9
$WORLDVIEW
 70
     1
  9
$SHADEDGE
 70
     3
  9
$SHADEDIF
 70
    70
  9
$TILEMODE
 70
     1
  9
$MAXACTVP
 70
    16
  9
$PLIMCHECK
 70
     0
  9
$PEXTMIN
 10
1.0000000000000000E+020
 20
1.0000000000000000E+020
 30
1.0000000000000000E+020
  9
$PEXTMAX
 10
-1.0000000000000000E+020
 20
-1.0000000000000000E+020
 30
-1.0000000000000000E+020
  9
$PLIMMIN
 10
0.0
 20
0.0
  9
$PLIMMAX
 10
420.0
 20
297.0
  9
$UNITMODE
 70
     0
  9
$VISRETAIN
 70
     1
  9
$PLINEGEN
 70
     0
  9
$PSLTSCALE
 70
     1
  0
ENDSEC
  0
SECTION
  2
TABLES
  0
TABLE
  2
VPORT
 70
     3
  0
VPORT
  2
*ACTIVE
 70
     0
 10
0.0
 20
0.0
 11
1.0
 21
1.0
 12
-92.391036576231699
 22
22.167663966733581
 13
0.0
 23
0.0
 14
7.0
 24
7.0
 15
7.0
 25
7.0
 16
0.0
 26
0.0
 36
1.0
 17
0.0
 27
0.0
 37
0.0
 40
188.48639593317361
 41
1.3693181818181821
 42
50.0
 43
0.0
 44
0.0
 50
0.0
 51
0.0
 71
     0
 72
  2000
 73
     1
 74
     0
 75
     0
 76
     0
 77
     0
 78
     0
  0
ENDTAB
  0
TABLE
  2
LTYPE
 70
    21
  0
LTYPE
  2
CONTINUOUS
 70
     0
  3
Solid line
 72
    65
 73
     0
 40
0.0
  0
LTYPE
  2
CENTER2
 70
     0
  3
___ _ ___ _ ___ _ ___ _ ___ _ ___ _ ___ _ ___ _
 72
    65
 73
     4
 40
1.125
 49
0.75
 49
-0.125
 49
0.125
 49
-0.125
  0
LTYPE
  2
HIDDEN2
 70
     0
  3
_ _ _ _ _ _ _ _ _ _ _ _ _ _ _ _ _ _ _ _ _ _ _ _
 72
    65
 73
     2
 40
0.1875
 49
0.125
 49
-0.0625
  0
LTYPE
  2
PHANTOM2
 70
     0
  3
___ _ _ ___ _ _ ___ _ _ ___ _ _ ___ _ _ ___ _ _
 72
    65
 73
     6
 40
1.25
 49
0.625
 49
-0.125
 49
0.125
 49
-0.125
 49
0.125
 49
-0.125
  0
LTYPE
  2
CENTER
 70
     0
  3
____ _ ____ _ ____ _ ____ _ ____ _ ____ _ ____ 
 72
    65
 73
     4
 40
2.0
 49
1.25
 49
-0.25
 49
0.25
 49
-0.25
  0
LTYPE
  2
AMCONSTR
 70
     0
  3
_______________________
 72
    65
 73
     2
 40
9999.0
 49
9999.0
 49
0.0
  0
LTYPE
  2
HIDDEN
 70
     0
  3
Hidden __ __ __ __ __ __ __ __ __ __ __ __ __ _
 72
    65
 73
     2
 40
9.5249999999999986
 49
6.3499999999999979
 49
-3.174999999999998
  0
LTYPE
  2
AMZIGZAG2
 70
     0
  3
/\/-/\/-/\/-/\/-/\/-/\/
 72
    65
 73
     2
 40
0.4401
 49
0.0001
 49
-0.4400000000000001
  0
LTYPE
  2
ACANSTGB
 70
     0
  3
__ . . __ . .
 72
    65
 73
     6
 40
0.35433070866
 49
0.15748031496
 49
-0.03937007874
 49
0.03937007874
 49
-0.03937007874
 49
0.03937007874
 49
-0.03937007874
  0
LTYPE
  2
ACANSTGL
 70
     0
  3
_ _ _ _ _
 72
    65
 73
     2
 40
0.11811023622
 49
0.07874015748
 49
-0.03937007874
  0
ENDTAB
  0
TABLE
  2
LAYER
 70
    11
  0
LAYER
  2
0
 70
     0
 62
     7
  6
CONTINUOUS
  0
LAYER
  2
240
 70
     0
 62
     4
  6
CONTINUOUS
  0
LAYER
  2
DEFPOINTS
 70
     0
 62
     7
  6
CONTINUOUS
  0
LAYER
  2
245
 70
     0
 62
     2
  6
CENTER2
  0
LAYER
  2
241
 70
     0
 62
   211
  6
CONTINUOUS
  0
LAYER
  2
242
 70
     0
 62
     3
  6
CONTINUOUS
  0
LAYER
  2
243
 70
     0
 62
   211
  6
HIDDEN2
  0
LAYER
  2
246
 70
     0
 62
     3
  6
PHANTOM2
  0
LAYER
  2
247
 70
     0
 62
    60
  6
CONTINUOUS
  0
LAYER
  2
250
 70
     0
 62
     3
  6
CONTINUOUS
  0
LAYER
  2
AM_7
 70
     0
 62
     2
  6
CENTER2
  0
ENDTAB
  0
TABLE
  2
STYLE
 70
     9
  0
STYLE
  2
STANDARD
 70
     0
 40
0.0
 41
1.0
 50
0.0
 71
     0
 42
3.0
  3
romans.shx
  4
extfont.shx
  0
STYLE
  2
YOKO
 70
     0
 40
0.0
 41
1.0
 50
0.0
 71
     0
 42
3.0
  3
romans.shx
  4
extfont.shx
  0
STYLE
  2

 70
     1
 40
0.0
 41
1.0
 50
0.0
 71
     0
 42
3.0
  3
ltypeshp.shx
  4

  0
STYLE
  2
ACANSTS
 70
     0
 40
1.0
 41
1.0
 50
0.0
 71
     0
 42
3.0
  3
romans.shx
  4
extfont.shx
  0
STYLE
  2
ACANSGDT
 70
     0
 40
0.0
 41
1.0
 50
0.0
 71
     0
 42
3.0
  3
amgdtans.shx
  4

  0
ENDTAB
  0
TABLE
  2
VIEW
 70
     0
  0
ENDTAB
  0
TABLE
  2
UCS
 70
     0
  0
ENDTAB
  0
TABLE
  2
APPID
 70
    38
  0
APPID
  2
ACAD
 70
     0
  0
APPID
  2
GLOBAL
 70
     0
  0
APPID
  2
DETAIL
 70
     0
  0
APPID
  2
GRPNAME
 70
     0
  0
APPID
  2
GPARA
 70
     0
  0
APPID
  2
MCAD_NO_VIS
 70
     0
  0
APPID
  2
ACAD_TEMP_GRAPHIC
 70
     0
  0
APPID
  2
ACATTRIBSERVICES
 70
     0
  0
APPID
  2
GENIUS_GENSCREG_15
 70
     0
  0
APPID
  2
GENIUS_GENODEF_13
 70
     0
  0
APPID
  2
GENIUS_GENOBJ-N-SDF_13
 70
     0
  0
APPID
  2
GENIUS_GENREC_14
 70
     0
  0
APPID
  2
GENIUS_GENOBJ-N-REC_13
 70
     0
  0
APPID
  2
GENIUS_GENDIMSH_14
 70
     0
  0
APPID
  2
GENIUS_GENOBJ-N-DIM_13
 70
     0
  0
APPID
  2
GENIUS_GENDIM_13
 70
     0
  0
APPID
  2
GENIUS_GENDTOL_13
 70
     0
  0
APPID
  2
GENIUS_GENOLIS_13
 70
     0
  0
APPID
  2
GENIUS_GENOENT_13
 70
     0
  0
APPID
  2
GENIUS_GENOBJ-F-FEM_13
 70
     0
  0
APPID
  2
GENIUS_GENOREF_13
 70
     0
  0
APPID
  2
GENIUS_GEFFEM_13
 70
     0
  0
APPID
  2
GENIUS_GEFFEMP_13
 70
     0
  0
APPID
  2
AD_DRAW
 70
     0
  0
APPID
  2
DESIGNERASSEMBLIES
 70
     0
  0
APPID
  2
ACADM_DIM_EDIT
 70
     0
  0
APPID
  2
AMDT_DM_ADJ
 70
     0
  0
APPID
  2
GENIUS_GENOBJ-N-FIL_13
 70
     0
  0
APPID
  2
GENIUS_GENFIL_13
 70
     0
  0
APPID
  2
GENIUS_GENOBJ-N-CHA_13
 70
     0
  0
APPID
  2
ACAECLAYERSTANDARD
 70
     0
  0
APPID
  2
ACAD_PSEXT
 70
     0
  0
APPID
  2
GENIUS_GENOBJ-N-CEN_13
 70
     0
  0
APPID
  2
ACAD_DSTYLE_DIMINSPECT
 70
     0
  0
APPID
  2
GENIUS_GENCEN_19
 70
     0
  0
APPID
  2
HATCH_TYPE
 70
     0
  0
APPID
  2
HATCH_DISPLAY
 70
     0
  0
APPID
  2
HATCH_DISTANCE
 70
     0
  0
ENDTAB
  0
TABLE
  2
DIMSTYLE
 70
    29
  0
DIMSTYLE
  2
BIGT
 70
     0
  3

  4

  5

  6

  7

 40
1.0
 41
2.2299999999999991
 42
0.5
 43
7.0
 44
1.0
 45
0.0
 46
0.0
 47
0.0
 48
0.01
140
2.799999999999998
141
0.0
142
0.0
143
25.399999999999999
144
1.0
145
0.0
146
1.0
147
1.0
 71
     0
 72
     0
 73
     0
 74
     0
 75
     0
 76
     0
 77
     3
 78
     9
170
     0
171
     2
172
     1
173
     0
174
     1
175
     0
176
   256
177
   256
178
    40
  0
DIMSTYLE
  2
AM_ANSI
 70
     0
  3

  4
mm
  5

  6

  7

 40
1.0
 41
0.1
 42
0.05
 43
0.5
 44
0.1
 45
0.0
 46
0.0
 47
0.1
 48
0.1
140
0.12
141
0.0
142
0.0
143
25.399999999999999
144
1.0
145
0.0
146
0.71
147
0.06
 71
     0
 72
     0
 73
     1
 74
     1
 75
     0
 76
     0
 77
     0
 78
     7
170
     0
171
     2
172
     0
173
     0
174
     0
175
     0
176
   256
177
   256
178
     2
  0
DIMSTYLE
  2
AM_ANSI$3
 70
     0
  3

  4
mm
  5

  6

  7

 40
1.0
 41
0.1
 42
0.05
 43
0.5
 44
0.1
 45
0.0
 46
0.0
 47
0.1
 48
0.1
140
0.12
141
0.0
142
0.0
143
25.399999999999999
144
1.0
145
0.0
146
0.71
147
0.06
 71
     0
 72
     0
 73
     1
 74
     1
 75
     0
 76
     0
 77
     0
 78
     7
170
     0
171
     2
172
     0
173
     0
174
     0
175
     0
176
   256
177
   256
178
     2
  0
DIMSTYLE
  2
AM_ANSI$4
 70
     0
  3

  4
mm
  5

  6

  7

 40
1.0
 41
0.1
 42
0.05
 43
0.5
 44
0.1
 45
0.0
 46
0.0
 47
0.1
 48
0.1
140
0.12
141
0.0
142
0.0
143
25.399999999999999
144
1.0
145
0.0
146
0.71
147
0.06
 71
     0
 72
     0
 73
     1
 74
     1
 75
     0
 76
     0
 77
     0
 78
     7
170
     0
171
     2
172
     0
173
     0
174
     0
175
     0
176
   256
177
   256
178
     2
  0
DIMSTYLE
  2
AM_ANSI$7
 70
     0
  3

  4
mm
  5

  6

  7

 40
1.0
 41
0.1
 42
0.05
 43
0.5
 44
0.1
 45
0.0
 46
0.0
 47
0.1
 48
0.1
140
0.24
141
0.0
142
0.0
143
25.399999999999999
144
1.0
145
0.0
146
0.71
147
0.06
 71
     0
 72
     0
 73
     1
 74
     1
 75
     0
 76
     0
 77
     0
 78
     7
170
     0
171
     2
172
     0
173
     0
174
     0
175
     0
176
   256
177
   256
178
     2
  0
DIMSTYLE
  2
AM_ANSI$SF
 70
     0
  3

  4
mm
  5

  6

  7

 40
1.0
 41
0.1
 42
0.05
 43
0.5
 44
0.1
 45
0.0
 46
0.0
 47
0.1
 48
0.1
140
0.12
141
0.0
142
0.0
143
25.399999999999999
144
1.0
145
0.0
146
0.71
147
0.06
 71
     0
 72
     0
 73
     1
 74
     1
 75
     1
 76
     1
 77
     0
 78
     7
170
     0
171
     2
172
     0
173
     0
174
     0
175
     0
176
   256
177
   256
178
     2
  0
DIMSTYLE
  2
AM_ANSI$SH
 70
     0
  3

  4
mm
  5

  6
GENAXEH
  7

 40
1.0
 41
0.1
 42
0.05
 43
0.5
 44
0.1
 45
0.0
 46
0.0
 47
0.1
 48
0.1
140
0.12
141
0.0
142
0.0
143
25.399999999999999
144
1.0
145
0.0
146
0.71
147
0.06
 71
     0
 72
     0
 73
     1
 74
     1
 75
     1
 76
     1
 77
     0
 78
     7
170
     0
171
     2
172
     0
173
     1
174
     0
175
     0
176
   256
177
   256
178
     2
  0
ENDTAB
  0
ENDSEC
  0
SECTION
  2
BLOCKS
  0
BLOCK
  8
0
  2
$MODEL_SPACE
 70
     0
 10
0.0
 20
0.0
 30
0.0
  3
$MODEL_SPACE
  1

  0
ENDBLK
  5
193F
  8
0
  0
BLOCK
 67
     1
  8
0
  2
$PAPER_SPACE
 70
     0
 10
0.0
 20
0.0
 30
0.0
  3
$PAPER_SPACE
  1

  0
ENDBLK
  5
193B
 67
     1
  8
0
  0
BLOCK
  8
0
  2
_OPEN
 70
     0
 10
0.0
 20
0.0
 30
0.0
  3
_OPEN
  1

  0
LINE
  5
18B2
  8
0
  6
BYBLOCK
 62
     0
 10
-1.0
 20
0.1666666666666666
 30
0.0
 11
0.0
 21
0.0
 31
0.0
  0
LINE
  5
18B3
  8
0
  6
BYBLOCK
 62
     0
 10
-1.0
 20
-0.1666666666666666
 30
0.0
 11
0.0
 21
0.0
 31
0.0
  0
LINE
  5
18B4
  8
0
  6
BYBLOCK
 62
     0
 10
0.0
 20
0.0
 30
0.0
 11
-1.0
 21
0.0
 31
0.0
  0
ENDBLK
  5
18B5
  8
0
  0
BLOCK
  8
0
  2
GENAXEH
 70
     0
 10
0.0
 20
0.0
 30
0.0
  3
GENAXEH
  1

  0
LINE
  5
18DD
  8
0
 10
-1.0
 20
0.0
 30
0.0
 11
1.0
 21
0.0
 31
0.0
  0
ENDBLK
  5
18DE
  8
0
  0
ENDSEC
  0
SECTION
  2
ENTITIES
  0
LINE
  5
1424
  8
AM_7
 10
-214.10239037994029
 20
-0.0000000000020464
 30
0.0
 11
28.000000000000799
 21
0.0000000000002842
 31
0.0
1001
GENIUS_GENOBJ-N-CEN_13
1002
{
1000
OWNER
1000
GEN
1002
}
1001
GENIUS_GENODEF_13
1002
{
1000
HIER
1070
     0
1002
}
1002
{
1000
MANEDIT
1070
     0
1002
}
1002
{
1000
NOSEL
1070
     0
1002
}
1002
{
1000
BEHIND
1070
     0
1002
}
1002
{
1000
OTHER
1070
     0
1002
}
1002
{
1000
REACTOR
1002
}
1001
GENIUS_GENCEN_19
1002
{
1040
3.5
1002
}
  0
LINE
  5
1425
  8
240
 10
-114.99999999999891
 20
-16.00000000000108
 30
0.0
 11
-113.7499999999977
 21
-14.74999999999986
 31
0.0
  0
LINE
  5
1426
  8
240
 10
-202.9999999999994
 20
15.99999999999795
 30
0.0
 11
-114.9999999999993
 21
15.999999999998799
 31
0.0
  0
LINE
  5
1427
  8
240
 10
-202.99999999999901
 20
-16.000000000002039
 30
0.0
 11
-114.99999999999891
 21
-16.00000000000108
 31
0.0
  0
ARC
  5
1428
  8
240
 10
-202.99999999999901
 20
-14.000000000002039
 30
0.0
 40
2.0
 50
180.0
 51
270.0
1001
GENIUS_GENOBJ-N-FIL_13
1002
{
1000
OWNER
1000
GEN
1002
}
1001
GENIUS_GENODEF_13
1002
{
1000
HIER
1070
     0
1002
}
1002
{
1000
MANEDIT
1070
     0
1002
}
1002
{
1000
NOSEL
1070
     0
1002
}
1002
{
1000
BEHIND
1070
     0
1002
}
1002
{
1000
OTHER
1070
     0
1002
}
1002
{
1000
REACTOR
1002
}
  0
LINE
  5
1429
  8
240
 10
-204.99999999999929
 20
13.9999999999979
 30
0.0
 11
-204.99999999999901
 21
-14.0000000000021
 31
0.0
  0
LINE
  5
142A
  8
241
 10
-199.9999999999992
 20
15.99999999999801
 30
0.0
 11
-199.99999999999901
 21
-16.00000000000199
 31
0.0
  0
ARC
  5
142B
  8
240
 10
-202.99999999999929
 20
13.99999999999795
 30
0.0
 40
2.0
 50
90.0
 51
180.0
1001
GENIUS_GENODEF_13
1002
{
1000
HIER
1070
     0
1002
}
1002
{
1000
MANEDIT
1070
     0
1002
}
1002
{
1000
NOSEL
1070
     0
1002
}
1002
{
1000
BEHIND
1070
     0
1002
}
1002
{
1000
OTHER
1070
     0
1002
}
1002
{
1000
REACTOR
1002
}
1001
GENIUS_GENOBJ-N-FIL_13
1002
{
1000
OWNER
1000
GEN
1002
}
  0
LINE
  5
142C
  8
241
 10
-114.9999999999994
 20
15.999999999998799
 30
0.0
 11
-114.9999999999992
 21
5.56776436282854
 31
0.0
  0
LINE
  5
142D
  8
241
 10
-114.9999999999991
 20
-5.5677643628309852
 30
0.0
 11
-114.9999999999991
 21
-16.00000000000108
 31
0.0
  0
LINE
  5
142E
  8
240
 10
-114.9999999999993
 20
15.999999999998799
 30
0.0
 11
-113.75000000000171
 21
14.75000000000022
 31
0.0
  0
LINE
  5
142F
  8
241
 10
-113.7499999999977
 20
-14.74999999999986
 30
0.0
 11
-113.75000000000161
 21
14.75000000000011
 31
0.0
  0
LINE
  5
1433
  8
243
 10
-203.99999999999909
 20
-6.0000000000019309
 30
0.0
 11
-104.9999999999991
 21
-6.0000000000010232
 31
0.0
  0
ARC
  5
1434
  8
243
 10
-203.99999999999909
 20
-7.0000000000019309
 30
0.0
 40
1.0
 50
90.0
 51
180.0
1001
GENIUS_GENODEF_13
1002
{
1000
HIER
1070
     0
1002
}
1002
{
1000
MANEDIT
1070
     0
1002
}
1002
{
1000
NOSEL
1070
     0
1002
}
1002
{
1000
BEHIND
1070
     0
1002
}
1002
{
1000
OTHER
1070
     0
1002
}
1002
{
1000
REACTOR
1002
}
1001
GENIUS_GENOBJ-N-FIL_13
1002
{
1000
OWNER
1000
GEN
1002
}
  0
LINE
  5
1435
  8
243
 10
-203.9999999999992
 20
5.9999999999980673
 30
0.0
 11
-104.9999999999992
 21
5.9999999999991473
 31
0.0
  0
ARC
  5
1436
  8
243
 10
-203.9999999999992
 20
6.9999999999982929
 30
0.0
 40
1.0
 50
180.0
 51
270.0
1001
GENIUS_GENODEF_13
1002
{
1000
HIER
1070
     0
1002
}
1002
{
1000
MANEDIT
1070
     0
1002
}
1002
{
1000
NOSEL
1070
     0
1002
}
1002
{
1000
BEHIND
1070
     0
1002
}
1002
{
1000
OTHER
1070
     0
1002
}
1002
{
1000
REACTOR
1002
}
1001
GENIUS_GENOBJ-N-FIL_13
1002
{
1000
OWNER
1000
GEN
1002
}
  0
LINE
  5
1437
  8
243
 10
-104.9999999999991
 20
-6.0000000000010232
 30
0.0
 11
-104.9999999999992
 21
5.999999999998975
 31
0.0
  0
LINE
  5
1438
  8
243
 10
-103.26794919243
 20
-3.0000000000010232
 30
0.0
 11
-103.26794919243019
 21
2.999999999998975
 31
0.0
  0
LINE
  5
1439
  8
243
 10
-104.9999999999991
 20
-6.0000000000010232
 30
0.0
 11
-103.26794919243
 21
-3.0000000000010232
 31
0.0
  0
LINE
  5
143A
  8
243
 10
-104.9999999999992
 20
5.9999999999990887
 30
0.0
 11
-103.26794919243019
 21
2.999999999998975
 31
0.0
  0
LINE
  5
1441
  8
241
 10
-119.9999999999993
 20
5.5677643628284841
 30
0.0
 11
-114.9999999999993
 21
5.5677643628284841
 31
0.0
  0
LINE
  5
1442
  8
241
 10
-114.9999999999993
 20
-5.5677643628309852
 30
0.0
 11
-119.9999999999993
 21
-5.5677643628309852
 31
0.0
  0
LINE
  5
1443
  8
241
 10
-119.9999999999993
 20
5.5677643628284841
 30
0.0
 11
-119.9999999999993
 21
-5.5677643628309852
 31
0.0
  0
ARC
  5
1444
  8
241
 10
-129.99999999999861
 20
-0.0000000000012506
 30
0.0
 40
15.99999999999924
 50
339.63586519368351
 51
20.364134806316461
  0
LINE
  5
1445
  8
241
 10
0.1000000000001364
 20
3.7439393939395682
 30
0.0
 11
-94.999999999999318
 21
3.743939393939625
 31
0.0
  0
LINE
  5
1446
  8
240
 10
19.500000000000679
 20
-7.9499999999998172
 30
0.0
 11
-94.999999999998394
 21
-7.9499999999998172
 31
0.0
  0
LINE
  5
1447
  8
241
 10
0.5
 20
8.5313730334033817
 30
0.0
 11
0.5
 21
4.1439393939395472
 31
0.0
  0
LINE
  5
1448
  8
240
 10
19.500000000000679
 20
21.150000000000212
 30
0.0
 11
2.8219625396004631
 21
21.150000000000091
 31
0.0
  0
LINE
  5
1449
  8
240
 10
-113.7500000000027
 20
14.750000000000281
 30
0.0
 11
0.0
 21
14.75000000000022
 31
0.0
  0
LINE
  5
144A
  8
240
 10
-113.7499999999993
 20
-14.749999999999821
 30
0.0
 11
-97.299999999997894
 21
-14.749999999999821
 31
0.0
  0
ARC
  5
144B
  8
241
 10
1.3153000059649
 20
13.07931740596092
 30
0.0
 40
2.0
 50
131.12089397147039
 51
308.8791060285231
  0
ARC
  5
144C
  8
241
 10
8.3621106142447843
 20
11.682012768084
 30
0.0
 40
2.0
 50
205.55221892036701
 51
54.447798679719412
  0
LINE
  5
144D
  8
241
 10
-2.9999999999993161
 20
12.499999999993801
 30
0.0
 11
-3.000000000002955
 21
14.75000000000022
 31
0.0
  0
ARC
  5
144E
  8
241
 10
1.000000000000681
 20
12.500000000000171
 30
0.0
 40
4.0
 50
180.00000000009121
 51
270.0
1001
GENIUS_GENOBJ-N-FIL_13
1002
{
1000
OWNER
1000
GEN
1002
}
1001
GENIUS_GENODEF_13
1002
{
1000
HIER
1070
     0
1002
}
1002
{
1000
MANEDIT
1070
     0
1002
}
1002
{
1000
NOSEL
1070
     0
1002
}
1002
{
1000
BEHIND
1070
     0
1002
}
1002
{
1000
OTHER
1070
     0
1002
}
1002
{
1000
REACTOR
1002
}
  0
LINE
  5
144F
  8
240
 10
20.000000000000679
 20
20.650000000000261
 30
0.0
 11
20.000000000000679
 21
-7.4499999999998732
 31
0.0
  0
LINE
  5
1450
  8
240
 10
19.500000000000679
 20
21.150000000000212
 30
0.0
 11
20.000000000000679
 21
20.650000000000201
 31
0.0
1001
GENIUS_GENFIL_13
1070
     0
1040
0.5
1040
0.5
1040
0.2
1040
45.0
1002
{
1002
}
1001
GENIUS_GENOBJ-N-CHA_13
1002
{
1000
OWNER
1000
GEN
1002
}
1001
GENIUS_GENODEF_13
1002
{
1000
HIER
1070
     0
1002
}
1002
{
1000
MANEDIT
1070
     0
1002
}
1002
{
1000
NOSEL
1070
     0
1002
}
1002
{
1000
BEHIND
1070
     0
1002
}
1002
{
1000
OTHER
1070
     0
1002
}
1002
{
1000
REACTOR
1002
}
  0
LINE
  5
1451
  8
240
 10
19.500000000000679
 20
-7.9499999999998172
 30
0.0
 11
20.000000000000679
 21
-7.4499999999998172
 31
0.0
1001
GENIUS_GENFIL_13
1070
     0
1040
0.5
1040
0.5
1040
0.2
1040
45.0
1002
{
1002
}
1001
GENIUS_GENOBJ-N-CHA_13
1002
{
1000
OWNER
1000
GEN
1002
}
1001
GENIUS_GENODEF_13
1002
{
1000
HIER
1070
     0
1002
}
1002
{
1000
MANEDIT
1070
     0
1002
}
1002
{
1000
NOSEL
1070
     0
1002
}
1002
{
1000
BEHIND
1070
     0
1002
}
1002
{
1000
OTHER
1070
     0
1002
}
1002
{
1000
REACTOR
1002
}
  0
LINE
  5
1452
  8
241
 10
9.5249999999998636
 20
11.249538038895819
 30
0.0
 11
9.5250000000000874
 21
21.150000000000151
 31
0.0
  0
ARC
  5
1453
  8
241
 10
8.7250000000001364
 20
11.249538038895819
 30
0.0
 40
0.8
 50
259.999999999995
 51
0.0
1001
GENIUS_GENODEF_13
1002
{
1000
HIER
1070
     0
1002
}
1002
{
1000
MANEDIT
1070
     0
1002
}
1002
{
1000
NOSEL
1070
     0
1002
}
1002
{
1000
BEHIND
1070
     0
1002
}
1002
{
1000
OTHER
1070
     0
1002
}
1002
{
1000
REACTOR
1002
}
1001
GENIUS_GENOBJ-N-FIL_13
1002
{
1000
OWNER
1000
GEN
1002
}
  0
CIRCLE
  5
1454
  8
246
 10
4.7625000000000437
 20
15.971861649550361
 30
0.0
 40
4.7625000000000011
  0
LINE
  5
1455
  8
241
 10
0.0
 20
20.694185260204851
 30
0.0
 11
0.0000000000002274
 21
12.311289508539231
 31
0.0
  0
ARC
  5
1456
  8
241
 10
0.7999999999999548
 20
20.694185260204851
 30
0.0
 40
0.8
 50
79.999999999994984
 51
180.0
1001
GENIUS_GENOBJ-N-FIL_13
1002
{
1000
OWNER
1000
GEN
1002
}
1001
GENIUS_GENODEF_13
1002
{
1000
HIER
1070
     0
1002
}
1002
{
1000
MANEDIT
1070
     0
1002
}
1002
{
1000
NOSEL
1070
     0
1002
}
1002
{
1000
BEHIND
1070
     0
1002
}
1002
{
1000
OTHER
1070
     0
1002
}
1002
{
1000
REACTOR
1002
}
  0
LINE
  5
1457
  8
241
 10
9.1944592710667621
 20
20.02635689176628
 30
0.0
 11
0.9389185421334785
 21
21.4820314626146
 31
0.0
  0
LINE
  5
1458
  8
240
 10
-96.999999999998394
 20
-9.9500000000001592
 30
0.0
 11
-96.999999999997485
 21
-14.44999999999925
 31
0.0
  0
ARC
  5
1459
  8
240
 10
-94.999999999998394
 20
-9.9499999999998181
 30
0.0
 40
2.0
 50
90.0
 51
180.00000000001299
1001
GENIUS_GENODEF_13
1002
{
1000
HIER
1070
     0
1002
}
1002
{
1000
MANEDIT
1070
     0
1002
}
1002
{
1000
NOSEL
1070
     0
1002
}
1002
{
1000
BEHIND
1070
     0
1002
}
1002
{
1000
OTHER
1070
     0
1002
}
1002
{
1000
REACTOR
1002
}
1001
GENIUS_GENOBJ-N-FIL_13
1002
{
1000
OWNER
1000
GEN
1002
}
  0
LINE
  5
145A
  8
241
 10
1.000000000000681
 20
8.5000000000001688
 30
0.0
 11
20.000000000000679
 21
8.5000000000001688
 31
0.0
  0
LINE
  5
145B
  8
241
 10
0.3305407289333289
 20
11.917366407334329
 30
0.0
 11
8.5860814578666105
 21
10.46169183648607
 31
0.0
  0
LINE
  5
145C
  8
241
 10
19.500000000000679
 20
-4.6262120123199661
 30
0.0
 11
19.500000000000679
 21
-7.9499999999998732
 31
0.0
  0
LINE
  5
145D
  8
241
 10
-96.999999999999304
 20
1.743939393939625
 30
0.0
 11
-96.999999999999304
 21
-9.9499999999998181
 31
0.0
  0
ARC
  5
145E
  8
241
 10
0.400000000000091
 20
12.311289508539231
 30
0.0
 40
0.4
 50
180.0
 51
259.999999999995
  0
ARC
  5
145F
  8
241
 10
9.125
 20
19.632433790561372
 30
0.0
 40
0.4
 50
0.0
 51
79.999999999994984
  0
LINE
  5
1460
  8
240
 10
-97.299999999997894
 20
-14.749999999999821
 30
0.0
 11
-96.999999999997954
 21
-14.449999999999759
 31
0.0
1001
GENIUS_GENFIL_13
1070
     0
1040
0.3
1040
0.3
1040
0.2
1040
45.0
1002
{
1002
}
1001
GENIUS_GENOBJ-N-CHA_13
1002
{
1000
OWNER
1000
GEN
1002
}
1001
GENIUS_GENODEF_13
1002
{
1000
HIER
1070
     0
1002
}
1002
{
1000
MANEDIT
1070
     0
1002
}
1002
{
1000
NOSEL
1070
     0
1002
}
1002
{
1000
BEHIND
1070
     0
1002
}
1002
{
1000
OTHER
1070
     0
1002
}
1002
{
1000
REACTOR
1002
}
  0
ARC
  5
1461
  8
241
 10
0.1000000000001364
 20
4.1439393939395472
 30
0.0
 40
0.4
 50
269.99999999998693
 51
0.0
1001
GENIUS_GENODEF_13
1002
{
1000
HIER
1070
     0
1002
}
1002
{
1000
MANEDIT
1070
     0
1002
}
1002
{
1000
NOSEL
1070
     0
1002
}
1002
{
1000
BEHIND
1070
     0
1002
}
1002
{
1000
OTHER
1070
     0
1002
}
1002
{
1000
REACTOR
1002
}
1001
GENIUS_GENOBJ-N-FIL_13
1002
{
1000
OWNER
1000
GEN
1002
}
  0
ARC
  5
1462
  8
241
 10
-94.999999999999318
 20
1.743939393939625
 30
0.0
 40
2.0
 50
90.0
 51
180.0
1001
GENIUS_GENODEF_13
1002
{
1000
HIER
1070
     0
1002
}
1002
{
1000
MANEDIT
1070
     0
1002
}
1002
{
1000
NOSEL
1070
     0
1002
}
1002
{
1000
BEHIND
1070
     0
1002
}
1002
{
1000
OTHER
1070
     0
1002
}
1002
{
1000
REACTOR
1002
}
1001
GENIUS_GENOBJ-N-FIL_13
1002
{
1000
OWNER
1000
GEN
1002
}
  0
LINE
  5
1463
  8
245
 10
0.0
 20
1.000000000000226
 30
0.0
 11
-0.0000000000002274
 21
9.6270166537929622
 31
0.0
  0
LINE
  5
1464
  8
243
 10
-1.25
 20
3.000000000000302
 30
0.0
 11
-1.25
 21
9.1928108611699049
 31
0.0
  0
LINE
  5
1465
  8
243
 10
1.250000000000397
 20
-2.9999999999997682
 30
0.0
 11
1.25
 21
8.5000000000001137
 31
0.0
  0
LINE
  5
1469
  8
243
 10
-103.26794919243019
 20
2.9999999999983511
 30
0.0
 11
-1.25
 21
3.000000000000302
 31
0.0
1001
GENIUS_GENOBJ-N-CEN_13
1002
{
1000
OWNER
1000
GEN
1002
}
1001
GENIUS_GENODEF_13
1002
{
1000
HIER
1070
     0
1002
}
1002
{
1000
MANEDIT
1070
     0
1002
}
1002
{
1000
NOSEL
1070
     0
1002
}
1002
{
1000
BEHIND
1070
     0
1002
}
1002
{
1000
OTHER
1070
     0
1002
}
1002
{
1000
REACTOR
1002
}
1001
GENIUS_GENCEN_19
1002
{
1040
3.5
1002
}
  0
LINE
  5
146A
  8
243
 10
-103.2679491924294
 20
-2.9999999999998281
 30
0.0
 11
1.250000000000397
 21
-2.9999999999997682
 31
0.0
1001
GENIUS_GENOBJ-N-CEN_13
1002
{
1000
OWNER
1000
GEN
1002
}
1001
GENIUS_GENODEF_13
1002
{
1000
HIER
1070
     0
1002
}
1002
{
1000
MANEDIT
1070
     0
1002
}
1002
{
1000
NOSEL
1070
     0
1002
}
1002
{
1000
BEHIND
1070
     0
1002
}
1002
{
1000
OTHER
1070
     0
1002
}
1002
{
1000
REACTOR
1002
}
1001
GENIUS_GENCEN_19
1002
{
1040
3.5
1002
}
  0
LINE
  5
1579
  8
242
 10
-119.9999999999993
 20
-5.5677643628309852
 30
0.0
 11
-114.9999999999992
 21
5.5677643628281137
 31
0.0
  0
LINE
  5
157A
  8
242
 10
-114.9999999999991
 20
-5.567764362830335
 30
0.0
 11
-119.9999999999993
 21
5.5677643628284841
 31
0.0
  0
LINE
  5
1597
  8
250
 10
0.0
 20
21.19418526020473
 30
0.0
 11
0.0000000000000009
 21
36.0
 31
0.0
  0
LINE
  5
1598
  8
250
 10
-94.999999999999204
 20
15.36352748580191
 30
0.0
 11
-94.999999999999204
 21
36.0
 31
0.0
  0
LINE
  5
1599
  8
250
 10
-2.2299999999999991
 20
35.0
 30
0.0
 11
-92.769999999999214
 21
35.0
 31
0.0
  0
LINE
  5
159E
  8
250
 10
20.000000000000679
 20
21.10000000000019
 30
0.0
 11
20.000000000000679
 21
36.0
 31
0.0
  0
LINE
  5
159F
  8
250
 10
0.0
 20
21.19418526020473
 30
0.0
 11
0.0000000000000009
 21
36.0
 31
0.0
  0
LINE
  5
15A0
  8
250
 10
17.770000000000682
 20
35.0
 30
0.0
 11
2.2299999999999991
 21
35.0
 31
0.0
  0
LINE
  5
15A4
  8
250
 10
-204.99999999999929
 20
14.49999999999789
 30
0.0
 11
-204.99999999999929
 21
43.0
 31
0.0
  0
LINE
  5
15A5
  8
250
 10
20.000000000000568
 20
21.10000000000019
 30
0.0
 11
20.000000000000568
 21
43.0
 31
0.0
  0
LINE
  5
15A6
  8
250
 10
-202.7699999999993
 20
42.0
 30
0.0
 11
17.770000000000572
 21
42.0
 31
0.0
  0
LINE
  5
15AA
  8
250
 10
-203.49999999999901
 20
-16.000000000002039
 30
0.0
 11
-218.0
 21
-16.000000000002039
 31
0.0
  0
LINE
  5
15AB
  8
250
 10
-203.49999999999929
 20
15.99999999999795
 30
0.0
 11
-218.0
 21
15.999999999997961
 31
0.0
  0
LINE
  5
15AC
  8
250
 10
-217.0
 20
-13.770000000002041
 30
0.0
 11
-217.0
 21
13.76999999999795
 31
0.0
  0
LINE
  5
15B0
  8
250
 10
1.2999999999999541
 20
21.494185260204858
 30
0.0
 11
36.0
 21
21.494185260204851
 31
0.0
  0
LINE
  5
15B1
  8
250
 10
35.0
 20
19.264185260204851
 30
0.0
 11
35.0
 21
-5.0275185935377831
 31
0.0
  0
TEXT
  5
15B4
  8
250
 10
-50.166666666666259
 20
36.0
 30
0.0
 40
2.799999999999998
  1
95
  0
LINE
  5
15B5
  8
250
 10
-92.769999999999214
 20
34.62833333333333
 30
0.0
 11
-94.999999999999204
 21
35.0
 31
0.0
  0
LINE
  5
15B6
  8
250
 10
-92.769999999999214
 20
35.37166666666667
 30
0.0
 11
-94.999999999999204
 21
35.0
 31
0.0
  0
LINE
  5
15B7
  8
250
 10
-94.999999999999204
 20
35.0
 30
0.0
 11
-92.769999999999214
 21
35.0
 31
0.0
  0
LINE
  5
15B8
  8
250
 10
-2.2299999999999991
 20
35.37166666666667
 30
0.0
 11
0.0000000000000009
 21
35.0
 31
0.0
  0
LINE
  5
15B9
  8
250
 10
-2.2299999999999991
 20
34.62833333333333
 30
0.0
 11
0.0000000000000009
 21
35.0
 31
0.0
  0
LINE
  5
15BA
  8
250
 10
0.0000000000000009
 20
35.0
 30
0.0
 11
-2.2299999999999991
 21
35.0
 31
0.0
  0
TEXT
  5
15BB
  8
250
 10
7.3333333333336732
 20
36.0
 30
0.0
 40
2.799999999999998
  1
20
  0
LINE
  5
15BC
  8
250
 10
2.2299999999999991
 20
34.62833333333333
 30
0.0
 11
0.0000000000000009
 21
35.0
 31
0.0
  0
LINE
  5
15BD
  8
250
 10
2.2299999999999991
 20
35.37166666666667
 30
0.0
 11
0.0000000000000009
 21
35.0
 31
0.0
  0
LINE
  5
15BE
  8
250
 10
0.0000000000000009
 20
35.0
 30
0.0
 11
2.2299999999999991
 21
35.0
 31
0.0
  0
LINE
  5
15BF
  8
250
 10
17.770000000000682
 20
35.37166666666667
 30
0.0
 11
20.000000000000679
 21
35.0
 31
0.0
  0
LINE
  5
15C0
  8
250
 10
17.770000000000682
 20
34.62833333333333
 30
0.0
 11
20.000000000000679
 21
35.0
 31
0.0
  0
LINE
  5
15C1
  8
250
 10
20.000000000000679
 20
35.0
 30
0.0
 11
17.770000000000682
 21
35.0
 31
0.0
  0
TEXT
  5
15C2
  8
250
 10
-96.499999999999346
 20
43.0
 30
0.0
 40
2.799999999999998
  1
225
  0
LINE
  5
15C3
  8
250
 10
17.770000000000572
 20
42.371666666666663
 30
0.0
 11
20.000000000000568
 21
42.0
 31
0.0
  0
LINE
  5
15C4
  8
250
 10
17.770000000000572
 20
41.62833333333333
 30
0.0
 11
20.000000000000568
 21
42.0
 31
0.0
  0
LINE
  5
15C5
  8
250
 10
20.000000000000568
 20
42.0
 30
0.0
 11
17.770000000000572
 21
42.0
 31
0.0
  0
LINE
  5
15C6
  8
250
 10
-202.7699999999993
 20
41.62833333333333
 30
0.0
 11
-204.99999999999929
 21
42.0
 31
0.0
  0
LINE
  5
15C7
  8
250
 10
-202.7699999999993
 20
42.371666666666663
 30
0.0
 11
-204.99999999999929
 21
42.0
 31
0.0
  0
LINE
  5
15C8
  8
250
 10
-204.99999999999929
 20
42.0
 30
0.0
 11
-202.7699999999993
 21
42.0
 31
0.0
  0
TEXT
  5
15C9
  8
250
 10
-218.0
 20
-3.8000000000020751
 30
0.0
 40
2.799999999999998
  1
\U+220532
 50
90.0
  0
LINE
  5
15CA
  8
250
 10
-217.3716666666667
 20
13.76999999999795
 30
0.0
 11
-217.0
 21
15.999999999997961
 31
0.0
  0
LINE
  5
15CB
  8
250
 10
-216.6283333333333
 20
13.76999999999795
 30
0.0
 11
-217.0
 21
15.999999999997961
 31
0.0
  0
LINE
  5
15CC
  8
250
 10
-217.0
 20
15.999999999997961
 30
0.0
 11
-217.0
 21
13.76999999999795
 31
0.0
  0
LINE
  5
15CD
  8
250
 10
-216.6283333333333
 20
-13.770000000002041
 30
0.0
 11
-217.0
 21
-16.000000000002039
 31
0.0
  0
LINE
  5
15CE
  8
250
 10
-217.3716666666667
 20
-13.770000000002041
 30
0.0
 11
-217.0
 21
-16.000000000002039
 31
0.0
  0
LINE
  5
15CF
  8
250
 10
-217.0
 20
-16.000000000002039
 30
0.0
 11
-217.0
 21
-13.770000000002041
 31
0.0
  0
TEXT
  5
15D0
  8
250
 10
33.999999999999993
 20
-4.2941852602044452
 30
0.0
 40
2.799999999999998
  1
\U+220543
 50
90.0
  0
LINE
  5
15D1
  8
250
 10
34.62833333333333
 20
19.264185260204851
 30
0.0
 11
35.0
 21
21.494185260204851
 31
0.0
  0
LINE
  5
15D2
  8
250
 10
35.37166666666667
 20
19.264185260204851
 30
0.0
 11
35.0
 21
21.494185260204851
 31
0.0
  0
LINE
  5
15D3
  8
250
 10
35.0
 20
21.494185260204851
 30
0.0
 11
35.0
 21
19.264185260204851
 31
0.0
  0
TEXT
  5
16A4
  8
241
 10
-205.9999999999992
 20
55.999999999997897
 30
0.0
 40
4.0
  1
ST32-BFM27/43-95
  7
YOKO
  0
LINE
  5
16A5
  8
247
 10
-191.16633344518871
 20
12.82423332213847
 30
0.0
 11
-191.16633344518871
 21
12.82423332213847
 31
0.0
1001
HATCH_DISTANCE
1040
1.0
1001
HATCH_DISPLAY
1070
     0
1001
HATCH_TYPE
1070
     7
  0
LINE
  5
16A6
  8
247
 10
-191.25762296545241
 20
13.113734512324021
 30
0.0
 11
-191.16633344518871
 21
12.82423332213847
 31
0.0
1001
HATCH_DISTANCE
1040
1.0
1001
HATCH_DISPLAY
1070
     0
1001
HATCH_TYPE
1070
     7
  0
LINE
  5
16A7
  8
247
 10
-191.25762296545241
 20
13.113734512324021
 30
0.0
 11
-191.25762296545241
 21
13.113734512324021
 31
0.0
1001
HATCH_DISTANCE
1040
1.0
1001
HATCH_DISPLAY
1070
     0
1001
HATCH_TYPE
1070
     7
  0
LINE
  5
16A8
  8
247
 10
-191.16633344518871
 20
12.82423332213847
 30
0.0
 11
-191.25762296545241
 21
13.113734512324021
 31
0.0
1001
HATCH_DISTANCE
1040
1.0
1001
HATCH_DISPLAY
1070
     0
1001
HATCH_TYPE
1070
     7
  0
LINE
  5
16A9
  8
247
 10
-191.16633344518871
 20
12.82423332213847
 30
0.0
 11
-191.16633344518871
 21
12.82423332213847
 31
0.0
  0
LINE
  5
16AA
  8
247
 10
-191.25762296545241
 20
13.113734512324021
 30
0.0
 11
-191.16633344518871
 21
12.82423332213847
 31
0.0
  0
LINE
  5
16AB
  8
247
 10
-191.25762296545241
 20
13.113734512324021
 30
0.0
 11
-191.25762296545241
 21
13.113734512324021
 31
0.0
  0
LINE
  5
16AC
  8
247
 10
-191.16633344518871
 20
12.82423332213847
 30
0.0
 11
-191.25762296545241
 21
13.113734512324021
 31
0.0
  0
LINE
  5
16AD
  8
247
 10
-191.16633344518871
 20
12.82423332213847
 30
0.0
 11
-191.16633344518871
 21
12.82423332213847
 31
0.0
1001
HATCH_DISTANCE
1040
1.0
1001
HATCH_DISPLAY
1070
     0
1001
HATCH_TYPE
1070
     7
  0
LINE
  5
16AE
  8
247
 10
-191.25762296545241
 20
13.113734512324021
 30
0.0
 11
-191.16633344518871
 21
12.82423332213847
 31
0.0
1001
HATCH_DISTANCE
1040
1.0
1001
HATCH_DISPLAY
1070
     0
1001
HATCH_TYPE
1070
     7
  0
LINE
  5
16AF
  8
247
 10
-191.25762296545241
 20
13.113734512324021
 30
0.0
 11
-191.25762296545241
 21
13.113734512324021
 31
0.0
1001
HATCH_DISTANCE
1040
1.0
1001
HATCH_DISPLAY
1070
     0
1001
HATCH_TYPE
1070
     7
  0
LINE
  5
16B0
  8
247
 10
-191.16633344518871
 20
12.82423332213847
 30
0.0
 11
-191.25762296545241
 21
13.113734512324021
 31
0.0
1001
HATCH_DISTANCE
1040
1.0
1001
HATCH_DISPLAY
1070
     0
1001
HATCH_TYPE
1070
     7
  0
LINE
  5
16B1
  8
247
 10
-191.16633344518871
 20
12.82423332213847
 30
0.0
 11
-191.16633344518871
 21
12.82423332213847
 31
0.0
  0
LINE
  5
16B2
  8
247
 10
-191.25762296545241
 20
13.113734512324021
 30
0.0
 11
-191.16633344518871
 21
12.82423332213847
 31
0.0
  0
LINE
  5
16B3
  8
247
 10
-191.25762296545241
 20
13.113734512324021
 30
0.0
 11
-191.25762296545241
 21
13.113734512324021
 31
0.0
  0
LINE
  5
16B4
  8
247
 10
-191.16633344518871
 20
12.82423332213847
 30
0.0
 11
-191.25762296545241
 21
13.113734512324021
 31
0.0
  0
LINE
  5
16B5
  8
247
 10
-193.2101910196516
 20
13.166320114130659
 30
0.0
 11
-193.9985516153547
 21
13.166320114130659
 31
0.0
1001
HATCH_DISTANCE
1040
1.0
1001
HATCH_DISPLAY
1070
     0
1001
HATCH_TYPE
1070
     7
  0
LINE
  5
16B6
  8
247
 10
-193.99247480261059
 20
10.438162713045759
 30
0.0
 11
-193.2101910196516
 21
13.166320114130659
 31
0.0
1001
HATCH_DISTANCE
1040
1.0
1001
HATCH_DISPLAY
1070
     0
1001
HATCH_TYPE
1070
     7
  0
LINE
  5
16B7
  8
247
 10
-194.67046857702459
 20
10.438162713045759
 30
0.0
 11
-193.99247480261059
 21
10.438162713045759
 31
0.0
1001
HATCH_DISTANCE
1040
1.0
1001
HATCH_DISPLAY
1070
     0
1001
HATCH_TYPE
1070
     7
  0
LINE
  5
16B8
  8
247
 10
-193.98378873693659
 20
12.832885055536909
 30
0.0
 11
-194.67046857702459
 21
10.438162713045759
 31
0.0
1001
HATCH_DISTANCE
1040
1.0
1001
HATCH_DISPLAY
1070
     0
1001
HATCH_TYPE
1070
     7
  0
LINE
  5
16B9
  8
247
 10
-194.09416700231759
 20
12.832885055536909
 30
0.0
 11
-193.98378873693659
 21
12.832885055536909
 31
0.0
1001
HATCH_DISTANCE
1040
1.0
1001
HATCH_DISPLAY
1070
     0
1001
HATCH_TYPE
1070
     7
  0
LINE
  5
16BA
  8
247
 10
-193.9985516153547
 20
13.166320114130659
 30
0.0
 11
-194.09416700231759
 21
12.832885055536909
 31
0.0
1001
HATCH_DISTANCE
1040
1.0
1001
HATCH_DISPLAY
1070
     0
1001
HATCH_TYPE
1070
     7
  0
LINE
  5
16BB
  8
247
 10
-193.2101910196516
 20
13.166320114130659
 30
0.0
 11
-193.9985516153547
 21
13.166320114130659
 31
0.0
  0
LINE
  5
16BC
  8
247
 10
-193.99247480261059
 20
10.438162713045759
 30
0.0
 11
-193.2101910196516
 21
13.166320114130659
 31
0.0
  0
LINE
  5
16BD
  8
247
 10
-194.67046857702459
 20
10.438162713045759
 30
0.0
 11
-193.99247480261059
 21
10.438162713045759
 31
0.0
  0
LINE
  5
16BE
  8
247
 10
-193.98378873693659
 20
12.832885055536909
 30
0.0
 11
-194.67046857702459
 21
10.438162713045759
 31
0.0
  0
LINE
  5
16BF
  8
247
 10
-194.09416700231759
 20
12.832885055536909
 30
0.0
 11
-193.98378873693659
 21
12.832885055536909
 31
0.0
  0
LINE
  5
16C0
  8
247
 10
-193.9985516153547
 20
13.166320114130659
 30
0.0
 11
-194.09416700231759
 21
12.832885055536909
 31
0.0
  0
TEXT
  5
1707
  8
247
 10
-188.25315800997811
 20
10.41566160915224
 30
0.0
 40
2.5
  1
ST32-BFM27/43-95
  7
YOKO
 11
-188.25315800997811
 21
10.41566160915224
 31
0.0
 73
     1
  0
LINE
  5
1708
  8
247
 10
-191.31088376867501
 20
12.77865150451151
 30
0.0
 11
-191.40217328893871
 21
13.06815269469706
 31
0.0
  0
ARC
  5
1709
  8
247
 10
-190.85188413488581
 20
11.57489326476543
 30
0.0
 40
1.288299322128293
 50
110.8721834020771
 51
132.54194893738571
  0
ARC
  5
170A
  8
247
 10
-192.04108548986639
 20
12.51459053039043
 30
0.0
 40
0.3182875066995621
 50
1.7101213820643351
 51
163.99839835444811
  0
LINE
  5
170B
  8
247
 10
-192.75557447302069
 20
11.17762306212871
 30
0.0
 11
-192.3470432840559
 21
12.60233238219708
 31
0.0
  0
ARC
  5
170C
  8
247
 10
-192.44961667883129
 20
11.089892654413861
 30
0.0
 40
0.3182872831821442
 50
164.00027305718319
 51
344.00027305718322
  0
LINE
  5
170D
  8
247
 10
-192.14365888464181
 20
11.002162246699021
 30
0.0
 11
-191.94900632726879
 21
11.68099143981426
 31
0.0
  0
LINE
  5
170E
  8
247
 10
-192.2012798868391
 20
11.68099143981426
 30
0.0
 11
-191.94900632726879
 21
11.68099143981426
 31
0.0
  0
LINE
  5
170F
  8
247
 10
-192.2012798868391
 20
11.68099143981426
 30
0.0
 11
-192.11436200964181
 21
11.98412254332988
 31
0.0
  0
LINE
  5
1710
  8
247
 10
-192.11436200964181
 20
11.98412254332988
 30
0.0
 11
-191.2313931070538
 21
11.98412254332986
 31
0.0
  0
LINE
  5
1711
  8
247
 10
-191.67469144689761
 20
10.43816271304577
 30
0.0
 11
-191.2313931070538
 21
11.98412254332986
 31
0.0
  0
LINE
  5
1712
  8
247
 10
-191.85250974523751
 20
10.61596956729381
 30
0.0
 11
-191.67469144689761
 21
10.43816271304577
 31
0.0
  0
ARC
  5
1713
  8
247
 10
-192.41706968176081
 20
11.423327713007611
 30
0.0
 40
0.9851760864257813
 50
163.99975070172741
 51
304.96387329163082
  0
ARC
  5
1714
  8
247
 10
-190.80635953771801
 20
11.37153175353496
 30
0.0
 40
2.5780792236328121
 50
155.20517736984181
 51
172.7948259620504
  0
ARC
  5
1715
  8
247
 10
-192.19976926672189
 20
12.18115547179668
 30
0.0
 40
0.9851660728454588
 50
53.444012197055507
 51
164.0001843876849
  0
ARC
  5
1716
  8
247
 10
-190.85188413488581
 20
11.57489326476543
 30
0.0
 40
1.591427564620969
 50
110.22964506332001
 51
118.57168892371681
  0
LINE
  5
1717
  8
247
 10
-196.37940336096011
 20
13.16632011413067
 30
0.0
 11
-196.46632123815741
 21
12.86318901061504
 31
0.0
  0
LINE
  5
1718
  8
247
 10
-197.005406626341
 20
13.16632011413067
 30
0.0
 11
-196.37940336096011
 21
13.16632011413067
 31
0.0
  0
LINE
  5
1719
  8
247
 10
-197.005406626341
 20
12.86318901061504
 30
0.0
 11
-196.46632123815741
 21
12.86318901061504
 31
0.0
  0
ARC
  5
171A
  8
247
 10
-197.005406626341
 20
11.57489326476543
 30
0.0
 40
1.288295745849606
 50
90.0
 51
270.0
  0
ARC
  5
171B
  8
247
 10
-197.005406626341
 20
11.57489326476543
 30
0.0
 40
1.591426849365233
 50
90.0
 51
270.0
  0
LINE
  5
171C
  8
247
 10
-197.005406626341
 20
9.9834660655737508
 30
0.0
 11
-190.85188413488581
 21
9.9834660655737366
 31
0.0
  0
LINE
  5
171D
  8
247
 10
-197.005406626341
 20
10.286597161287959
 30
0.0
 11
-190.85188413488581
 21
10.28659716128794
 31
0.0
  0
ARC
  5
171E
  8
247
 10
-190.85188413488581
 20
11.57489326476543
 30
0.0
 40
1.591426849365233
 50
270.0
 51
104.7707939660941
  0
ARC
  5
171F
  8
247
 10
-190.85188413488581
 20
11.57489326476543
 30
0.0
 40
1.288295745849606
 50
270.0
 51
104.1274364964119
  0
LINE
  5
1720
  8
247
 10
-191.16633344518871
 20
12.824233322138459
 30
0.0
 11
-191.25762296545241
 21
13.11373451232401
 31
0.0
  0
LINE
  5
1721
  8
247
 10
-193.99247480261059
 20
10.43816271304577
 30
0.0
 11
-193.2101910196516
 21
13.16632011413067
 31
0.0
  0
LINE
  5
1722
  8
247
 10
-196.84634519445629
 20
10.43816271304577
 30
0.0
 11
-196.15097928869491
 21
12.86318901061416
 31
0.0
  0
ARC
  5
1725
  8
247
 10
-195.57891202795241
 20
12.438807754511521
 30
0.0
 40
0.4546839594841006
 50
261.6626016879294
 51
66.338155095189762
  0
ARC
  5
1727
  8
247
 10
-195.2407276712629
 20
12.40850379943339
 30
0.0
 40
0.7578227519989014
 50
287.66957754739798
 51
90.236159842671626
  0
LINE
  5
1729
  8
247
 10
-195.39642890238429
 20
12.85526592995658
 30
0.0
 11
-195.6448414338993
 21
11.98892908593119
 31
0.0
  0
LINE
  5
172A
  8
247
 10
-194.67046857702459
 20
10.43816271304577
 30
0.0
 11
-193.98378873693659
 21
12.83288505553692
 31
0.0
  0
LINE
  5
172B
  8
247
 10
-193.9985516153547
 20
13.16632011413067
 30
0.0
 11
-193.2101910196516
 21
13.16632011413067
 31
0.0
  0
LINE
  5
172E
  8
247
 10
-196.22173810827439
 20
13.16632011413067
 30
0.0
 11
-195.24385123108991
 21
13.16632011413054
 31
0.0
  0
LINE
  5
1730
  8
247
 10
-196.3086559854722
 20
12.86318901061504
 30
0.0
 11
-196.15097928869491
 21
12.86318901061416
 31
0.0
  0
LINE
  5
1731
  8
247
 10
-196.22173810827439
 20
13.16632011413067
 30
0.0
 11
-196.3086559854722
 21
12.86318901061504
 31
0.0
  0
LINE
  5
1735
  8
247
 10
-194.09416700231759
 20
12.83288505553692
 30
0.0
 11
-193.98378873693659
 21
12.83288505553692
 31
0.0
  0
LINE
  5
1736
  8
247
 10
-194.09416700231759
 20
12.83288505553692
 30
0.0
 11
-193.9985516153547
 21
13.16632011413067
 31
0.0
  0
ARC
  5
1738
  8
247
 10
-195.58841062414371
 20
11.19597938537089
 30
0.0
 40
0.7578163146972659
 50
270.0
 51
40.329840654169217
  0
ARC
  5
173B
  8
247
 10
-195.92659498083319
 20
11.22629478454081
 30
0.0
 40
0.4546969681978227
 50
261.6628542111489
 51
66.338192159110051
  0
LINE
  5
173C
  8
247
 10
-195.74410823733999
 20
11.642765577439301
 30
0.0
 11
-195.9925248555549
 21
10.77640303699765
 31
0.0
  0
LINE
  5
173F
  8
247
 10
-196.84634519445629
 20
10.43816271304577
 30
0.0
 11
-195.58841062414371
 21
10.43816271304577
 31
0.0
  0
LINE
  5
1740
  8
247
 10
-196.36760804103571
 20
10.43816271304577
 30
0.0
 11
-195.97771388466401
 21
10.828056869417431
 31
0.0
  0
LINE
  5
1741
  8
247
 10
-194.67046857702459
 20
10.43816271304577
 30
0.0
 11
-193.99247480261059
 21
10.43816271304577
 31
0.0
  0
VIEWPORT
  5
22
 67
     1
  8
0
 10
261.51769911504419
 20
148.5
 30
0.0
 40
523.0353982300885
 41
297.0
 68
     1
 69
     1
1001
ACAD
1000
MVIEW
1002
{
1070
    16
1010
0.0
1020
0.0
1030
0.0
1010
0.0
1020
0.0
1030
1.0
1040
0.0
1040
297.0
1040
261.51769911504419
1040
148.5
1040
50.0
1040
0.0
1040
0.0
1070
     0
1070
   100
1070
     1
1070
     1
1070
     0
1070
     0
1070
     0
1070
     0
1040
0.0
1040
0.0
1040
0.0
1040
1.0
1040
1.0
1040
10.0
1040
10.0
1070
     0
1002
{
1002
}
1002
}
1001
GENIUS_GENODEF_13
1002
{
1000
HIER
1070
     0
1002
}
1002
{
1000
MANEDIT
1070
     0
1002
}
1002
{
1000
NOSEL
1070
     0
1002
}
1002
{
1000
BEHIND
1070
     0
1002
}
1002
{
1000
OTHER
1070
     0
1002
}
1002
{
1000
REACTOR
1002
}
1001
GENIUS_GENOBJ-N-SDF_13
1002
{
1000
OWNER
1000
GEN
1002
}
1001
GENIUS_GENSCREG_15
1000
PF
1040
1.0
1000
DF
1040
1.0
1000
MIN
1011
0.0
1021
-0.0
1031
0.0
1021
0.0
1031
0.0
1000
MAX
1011
523.0353982300885
1021
-0.0
1031
0.0
1021
297.0
1031
0.0
1000
FLAGS
1070
     2
  0
ENDSEC
  0
EOF
