  0
SECTION
  2
HEADER
  9
$ACADVER
  1
AC1009
  9
$INSBASE
 10
0.0
 20
0.0
 30
0.0
  9
$EXTMIN
 10
-206.80000000000001
 20
-16.414213562373089
 30
0.0
  9
$EXTMAX
 10
36.0
 20
60.761904761904788
 30
0.0
  9
$LIMMIN
 10
0.0
 20
0.0
  9
$LIMMAX
 10
297.0
 20
210.0
  9
$ORTHOMODE
 70
     0
  9
$REGENMODE
 70
     1
  9
$FILLMODE
 70
     1
  9
$QTEXTMODE
 70
     0
  9
$MIRRTEXT
 70
     1
  9
$DRAGMODE
 70
     2
  9
$LTSCALE
 40
10.0
  9
$OSMODE
 70
    39
  9
$ATTMODE
 70
     1
  9
$TEXTSIZE
 40
3.0
  9
$TRACEWID
 40
1.0
  9
$TEXTSTYLE
  7
YOKO
  9
$CLAYER
  8
240
  9
$CELTYPE
  6
BYLAYER
  9
$CECOLOR
 62
   256
  9
$DIMSCALE
 40
1.0
  9
$DIMASZ
 40
2.2299999999999991
  9
$DIMEXO
 40
0.5
  9
$DIMDLI
 40
7.0
  9
$DIMRND
 40
0.0
  9
$DIMDLE
 40
0.0
  9
$DIMEXE
 40
1.0
  9
$DIMTP
 40
0.0
  9
$DIMTM
 40
0.01
  9
$DIMTXT
 40
2.799999999999998
  9
$DIMCEN
 40
0.0
  9
$DIMTSZ
 40
0.0
  9
$DIMTOL
 70
     0
  9
$DIMLIM
 70
     0
  9
$DIMTIH
 70
     0
  9
$DIMTOH
 70
     0
  9
$DIMSE1
 70
     0
  9
$DIMSE2
 70
     0
  9
$DIMTAD
 70
     3
  9
$DIMZIN
 70
     9
  9
$DIMBLK
  1
OPEN
  9
$DIMASO
 70
     1
  9
$DIMSHO
 70
     1
  9
$DIMPOST
  1

  9
$DIMAPOST
  1

  9
$DIMALT
 70
     0
  9
$DIMALTD
 70
     2
  9
$DIMALTF
 40
25.399999999999999
  9
$DIMLFAC
 40
1.0
  9
$DIMTOFL
 70
     1
  9
$DIMTVP
 40
0.0
  9
$DIMTIX
 70
     1
  9
$DIMSOXD
 70
     0
  9
$DIMSAH
 70
     0
  9
$DIMBLK1
  1

  9
$DIMBLK2
  1

  9
$DIMSTYLE
  2
BIGT
  9
$DIMCLRD
 70
   256
  9
$DIMCLRE
 70
   256
  9
$DIMCLRT
 70
    40
  9
$DIMTFAC
 40
1.0
  9
$DIMGAP
 40
1.0
  9
$LUNITS
 70
     2
  9
$LUPREC
 70
     3
  9
$SKETCHINC
 40
1.0
  9
$FILLETRAD
 40
0.0
  9
$AUNITS
 70
     0
  9
$AUPREC
 70
     3
  9
$MENU
  1
.
  9
$ELEVATION
 40
0.0
  9
$PELEVATION
 40
0.0
  9
$THICKNESS
 40
0.0
  9
$LIMCHECK
 70
     0
  9
$BLIPMODE
 70
     0
  9
$CHAMFERA
 40
0.25
  9
$CHAMFERB
 40
0.25
  9
$SKPOLY
 70
     0
  9
$TDCREATE
 40
2456598.6751661231
  9
$TDUPDATE
 40
2456598.7135392711
  9
$TDINDWG
 40
0.0051444676
  9
$TDUSRTIMER
 40
0.0051444676
  9
$USRTIMER
 70
     1
  9
$ANGBASE
 50
0.0
  9
$ANGDIR
 70
     0
  9
$PDMODE
 70
     1
  9
$PDSIZE
 40
0.0
  9
$PLINEWID
 40
0.0
  9
$COORDS
 70
     2
  9
$SPLFRAME
 70
     0
  9
$SPLINETYPE
 70
     6
  9
$SPLINESEGS
 70
     4
  9
$ATTDIA
 70
     1
  9
$ATTREQ
 70
     1
  9
$HANDLING
 70
     1
  9
$HANDSEED
  5
1A5E
  9
$SURFTAB1
 70
     6
  9
$SURFTAB2
 70
     6
  9
$SURFTYPE
 70
     6
  9
$SURFU
 70
     6
  9
$SURFV
 70
     6
  9
$UCSNAME
  2

  9
$UCSORG
 10
0.0
 20
0.0
 30
0.0
  9
$UCSXDIR
 10
1.0
 20
0.0
 30
0.0
  9
$UCSYDIR
 10
0.0
 20
1.0
 30
0.0
  9
$PUCSNAME
  2

  9
$PUCSORG
 10
0.0
 20
0.0
 30
0.0
  9
$PUCSXDIR
 10
1.0
 20
0.0
 30
0.0
  9
$PUCSYDIR
 10
0.0
 20
1.0
 30
0.0
  9
$USERI1
 70
     1
  9
$USERI2
 70
     0
  9
$USERI3
 70
     0
  9
$USERI4
 70
     0
  9
$USERI5
 70
     0
  9
$USERR1
 40
0.0
  9
$USERR2
 40
0.0
  9
$USERR3
 40
0.0
  9
$USERR4
 40
0.0
  9
$USERR5
 40
0.0
  9
$WORLDVIEW
 70
     1
  9
$SHADEDGE
 70
     3
  9
$SHADEDIF
 70
    70
  9
$TILEMODE
 70
     1
  9
$MAXACTVP
 70
    16
  9
$PLIMCHECK
 70
     0
  9
$PEXTMIN
 10
1.0000000000000000E+020
 20
1.0000000000000000E+020
 30
1.0000000000000000E+020
  9
$PEXTMAX
 10
-1.0000000000000000E+020
 20
-1.0000000000000000E+020
 30
-1.0000000000000000E+020
  9
$PLIMMIN
 10
0.0
 20
0.0
  9
$PLIMMAX
 10
420.0
 20
297.0
  9
$UNITMODE
 70
     0
  9
$VISRETAIN
 70
     1
  9
$PLINEGEN
 70
     0
  9
$PSLTSCALE
 70
     1
  0
ENDSEC
  0
SECTION
  2
TABLES
  0
TABLE
  2
VPORT
 70
     3
  0
VPORT
  2
*ACTIVE
 70
     0
 10
0.0
 20
0.0
 11
1.0
 21
1.0
 12
-85.400641975808611
 22
22.167663966733599
 13
0.0
 23
0.0
 14
7.0
 24
7.0
 15
7.0
 25
7.0
 16
0.0
 26
0.0
 36
1.0
 17
0.0
 27
0.0
 37
0.0
 40
178.22557835356039
 41
1.369318181818181
 42
50.0
 43
0.0
 44
0.0
 50
0.0
 51
0.0
 71
     0
 72
  2000
 73
     1
 74
     0
 75
     0
 76
     0
 77
     0
 78
     0
  0
ENDTAB
  0
TABLE
  2
LTYPE
 70
    21
  0
LTYPE
  2
CONTINUOUS
 70
     0
  3
Solid line
 72
    65
 73
     0
 40
0.0
  0
LTYPE
  2
CENTER2
 70
     0
  3
___ _ ___ _ ___ _ ___ _ ___ _ ___ _ ___ _ ___ _
 72
    65
 73
     4
 40
1.125
 49
0.75
 49
-0.125
 49
0.125
 49
-0.125
  0
LTYPE
  2
HIDDEN2
 70
     0
  3
_ _ _ _ _ _ _ _ _ _ _ _ _ _ _ _ _ _ _ _ _ _ _ _
 72
    65
 73
     2
 40
0.1875
 49
0.125
 49
-0.0625
  0
LTYPE
  2
PHANTOM2
 70
     0
  3
___ _ _ ___ _ _ ___ _ _ ___ _ _ ___ _ _ ___ _ _
 72
    65
 73
     6
 40
1.25
 49
0.625
 49
-0.125
 49
0.125
 49
-0.125
 49
0.125
 49
-0.125
  0
LTYPE
  2
CENTER
 70
     0
  3
____ _ ____ _ ____ _ ____ _ ____ _ ____ _ ____ 
 72
    65
 73
     4
 40
2.0
 49
1.25
 49
-0.25
 49
0.25
 49
-0.25
  0
LTYPE
  2
AMCONSTR
 70
     0
  3
_______________________
 72
    65
 73
     2
 40
9999.0
 49
9999.0
 49
0.0
  0
LTYPE
  2
HIDDEN
 70
     0
  3
Hidden __ __ __ __ __ __ __ __ __ __ __ __ __ _
 72
    65
 73
     2
 40
9.5249999999999986
 49
6.3499999999999979
 49
-3.174999999999998
  0
LTYPE
  2
AMZIGZAG2
 70
     0
  3
/\/-/\/-/\/-/\/-/\/-/\/
 72
    65
 73
     2
 40
0.4401
 49
0.0001
 49
-0.4400000000000001
  0
LTYPE
  2
ACANSTGB
 70
     0
  3
__ . . __ . .
 72
    65
 73
     6
 40
0.35433070866
 49
0.15748031496
 49
-0.03937007874
 49
0.03937007874
 49
-0.03937007874
 49
0.03937007874
 49
-0.03937007874
  0
LTYPE
  2
ACANSTGL
 70
     0
  3
_ _ _ _ _
 72
    65
 73
     2
 40
0.11811023622
 49
0.07874015748
 49
-0.03937007874
  0
ENDTAB
  0
TABLE
  2
LAYER
 70
    11
  0
LAYER
  2
0
 70
     0
 62
     7
  6
CONTINUOUS
  0
LAYER
  2
240
 70
     0
 62
     4
  6
CONTINUOUS
  0
LAYER
  2
DEFPOINTS
 70
     0
 62
     7
  6
CONTINUOUS
  0
LAYER
  2
245
 70
     0
 62
     2
  6
CENTER2
  0
LAYER
  2
241
 70
     0
 62
   211
  6
CONTINUOUS
  0
LAYER
  2
242
 70
     0
 62
     3
  6
CONTINUOUS
  0
LAYER
  2
243
 70
     0
 62
   211
  6
HIDDEN2
  0
LAYER
  2
246
 70
     0
 62
     3
  6
PHANTOM2
  0
LAYER
  2
247
 70
     0
 62
    60
  6
CONTINUOUS
  0
LAYER
  2
250
 70
     0
 62
     3
  6
CONTINUOUS
  0
LAYER
  2
AM_7
 70
     0
 62
     2
  6
CENTER2
  0
ENDTAB
  0
TABLE
  2
STYLE
 70
     9
  0
STYLE
  2
STANDARD
 70
     0
 40
0.0
 41
1.0
 50
0.0
 71
     0
 42
3.0
  3
romans.shx
  4
extfont.shx
  0
STYLE
  2
YOKO
 70
     0
 40
0.0
 41
1.0
 50
0.0
 71
     0
 42
3.0
  3
romans.shx
  4
extfont.shx
  0
STYLE
  2

 70
     1
 40
0.0
 41
1.0
 50
0.0
 71
     0
 42
3.0
  3
ltypeshp.shx
  4

  0
STYLE
  2
ACANSTS
 70
     0
 40
1.0
 41
1.0
 50
0.0
 71
     0
 42
3.0
  3
romans.shx
  4
extfont.shx
  0
STYLE
  2
ACANSGDT
 70
     0
 40
0.0
 41
1.0
 50
0.0
 71
     0
 42
3.0
  3
amgdtans.shx
  4

  0
ENDTAB
  0
TABLE
  2
VIEW
 70
     0
  0
ENDTAB
  0
TABLE
  2
UCS
 70
     0
  0
ENDTAB
  0
TABLE
  2
APPID
 70
    38
  0
APPID
  2
ACAD
 70
     0
  0
APPID
  2
GLOBAL
 70
     0
  0
APPID
  2
DETAIL
 70
     0
  0
APPID
  2
GRPNAME
 70
     0
  0
APPID
  2
GPARA
 70
     0
  0
APPID
  2
MCAD_NO_VIS
 70
     0
  0
APPID
  2
ACAD_TEMP_GRAPHIC
 70
     0
  0
APPID
  2
ACATTRIBSERVICES
 70
     0
  0
APPID
  2
GENIUS_GENSCREG_15
 70
     0
  0
APPID
  2
GENIUS_GENODEF_13
 70
     0
  0
APPID
  2
GENIUS_GENOBJ-N-SDF_13
 70
     0
  0
APPID
  2
GENIUS_GENREC_14
 70
     0
  0
APPID
  2
GENIUS_GENOBJ-N-REC_13
 70
     0
  0
APPID
  2
GENIUS_GENDIMSH_14
 70
     0
  0
APPID
  2
GENIUS_GENOBJ-N-DIM_13
 70
     0
  0
APPID
  2
GENIUS_GENDIM_13
 70
     0
  0
APPID
  2
GENIUS_GENDTOL_13
 70
     0
  0
APPID
  2
GENIUS_GENOLIS_13
 70
     0
  0
APPID
  2
GENIUS_GENOENT_13
 70
     0
  0
APPID
  2
GENIUS_GENOBJ-F-FEM_13
 70
     0
  0
APPID
  2
GENIUS_GENOREF_13
 70
     0
  0
APPID
  2
GENIUS_GEFFEM_13
 70
     0
  0
APPID
  2
GENIUS_GEFFEMP_13
 70
     0
  0
APPID
  2
AD_DRAW
 70
     0
  0
APPID
  2
DESIGNERASSEMBLIES
 70
     0
  0
APPID
  2
ACADM_DIM_EDIT
 70
     0
  0
APPID
  2
AMDT_DM_ADJ
 70
     0
  0
APPID
  2
GENIUS_GENOBJ-N-FIL_13
 70
     0
  0
APPID
  2
GENIUS_GENFIL_13
 70
     0
  0
APPID
  2
GENIUS_GENOBJ-N-CHA_13
 70
     0
  0
APPID
  2
ACAECLAYERSTANDARD
 70
     0
  0
APPID
  2
ACAD_PSEXT
 70
     0
  0
APPID
  2
GENIUS_GENOBJ-N-CEN_13
 70
     0
  0
APPID
  2
ACAD_DSTYLE_DIMINSPECT
 70
     0
  0
APPID
  2
GENIUS_GENCEN_19
 70
     0
  0
APPID
  2
HATCH_TYPE
 70
     0
  0
APPID
  2
HATCH_DISPLAY
 70
     0
  0
APPID
  2
HATCH_DISTANCE
 70
     0
  0
ENDTAB
  0
TABLE
  2
DIMSTYLE
 70
    29
  0
DIMSTYLE
  2
BIGT
 70
     0
  3

  4

  5

  6

  7

 40
1.0
 41
2.2299999999999991
 42
0.5
 43
7.0
 44
1.0
 45
0.0
 46
0.0
 47
0.0
 48
0.01
140
2.799999999999998
141
0.0
142
0.0
143
25.399999999999999
144
1.0
145
0.0
146
1.0
147
1.0
 71
     0
 72
     0
 73
     0
 74
     0
 75
     0
 76
     0
 77
     3
 78
     9
170
     0
171
     2
172
     1
173
     0
174
     1
175
     0
176
   256
177
   256
178
    40
  0
DIMSTYLE
  2
AM_ANSI
 70
     0
  3

  4
mm
  5

  6

  7

 40
1.0
 41
0.1
 42
0.05
 43
0.5
 44
0.1
 45
0.0
 46
0.0
 47
0.1
 48
0.1
140
0.12
141
0.0
142
0.0
143
25.399999999999999
144
1.0
145
0.0
146
0.71
147
0.06
 71
     0
 72
     0
 73
     1
 74
     1
 75
     0
 76
     0
 77
     0
 78
     7
170
     0
171
     2
172
     0
173
     0
174
     0
175
     0
176
   256
177
   256
178
     2
  0
DIMSTYLE
  2
AM_ANSI$3
 70
     0
  3

  4
mm
  5

  6

  7

 40
1.0
 41
0.1
 42
0.05
 43
0.5
 44
0.1
 45
0.0
 46
0.0
 47
0.1
 48
0.1
140
0.12
141
0.0
142
0.0
143
25.399999999999999
144
1.0
145
0.0
146
0.71
147
0.06
 71
     0
 72
     0
 73
     1
 74
     1
 75
     0
 76
     0
 77
     0
 78
     7
170
     0
171
     2
172
     0
173
     0
174
     0
175
     0
176
   256
177
   256
178
     2
  0
DIMSTYLE
  2
AM_ANSI$4
 70
     0
  3

  4
mm
  5

  6

  7

 40
1.0
 41
0.1
 42
0.05
 43
0.5
 44
0.1
 45
0.0
 46
0.0
 47
0.1
 48
0.1
140
0.12
141
0.0
142
0.0
143
25.399999999999999
144
1.0
145
0.0
146
0.71
147
0.06
 71
     0
 72
     0
 73
     1
 74
     1
 75
     0
 76
     0
 77
     0
 78
     7
170
     0
171
     2
172
     0
173
     0
174
     0
175
     0
176
   256
177
   256
178
     2
  0
DIMSTYLE
  2
AM_ANSI$7
 70
     0
  3

  4
mm
  5

  6

  7

 40
1.0
 41
0.1
 42
0.05
 43
0.5
 44
0.1
 45
0.0
 46
0.0
 47
0.1
 48
0.1
140
0.24
141
0.0
142
0.0
143
25.399999999999999
144
1.0
145
0.0
146
0.71
147
0.06
 71
     0
 72
     0
 73
     1
 74
     1
 75
     0
 76
     0
 77
     0
 78
     7
170
     0
171
     2
172
     0
173
     0
174
     0
175
     0
176
   256
177
   256
178
     2
  0
DIMSTYLE
  2
AM_ANSI$SF
 70
     0
  3

  4
mm
  5

  6

  7

 40
1.0
 41
0.1
 42
0.05
 43
0.5
 44
0.1
 45
0.0
 46
0.0
 47
0.1
 48
0.1
140
0.12
141
0.0
142
0.0
143
25.399999999999999
144
1.0
145
0.0
146
0.71
147
0.06
 71
     0
 72
     0
 73
     1
 74
     1
 75
     1
 76
     1
 77
     0
 78
     7
170
     0
171
     2
172
     0
173
     0
174
     0
175
     0
176
   256
177
   256
178
     2
  0
DIMSTYLE
  2
AM_ANSI$SH
 70
     0
  3

  4
mm
  5

  6
GENAXEH
  7

 40
1.0
 41
0.1
 42
0.05
 43
0.5
 44
0.1
 45
0.0
 46
0.0
 47
0.1
 48
0.1
140
0.12
141
0.0
142
0.0
143
25.399999999999999
144
1.0
145
0.0
146
0.71
147
0.06
 71
     0
 72
     0
 73
     1
 74
     1
 75
     1
 76
     1
 77
     0
 78
     7
170
     0
171
     2
172
     0
173
     1
174
     0
175
     0
176
   256
177
   256
178
     2
  0
ENDTAB
  0
ENDSEC
  0
SECTION
  2
BLOCKS
  0
BLOCK
  8
0
  2
$MODEL_SPACE
 70
     0
 10
0.0
 20
0.0
 30
0.0
  3
$MODEL_SPACE
  1

  0
ENDBLK
  5
1958
  8
0
  0
BLOCK
 67
     1
  8
0
  2
$PAPER_SPACE
 70
     0
 10
0.0
 20
0.0
 30
0.0
  3
$PAPER_SPACE
  1

  0
ENDBLK
  5
1954
 67
     1
  8
0
  0
BLOCK
  8
0
  2
_OPEN
 70
     0
 10
0.0
 20
0.0
 30
0.0
  3
_OPEN
  1

  0
LINE
  5
18CB
  8
0
  6
BYBLOCK
 62
     0
 10
-1.0
 20
0.1666666666666666
 30
0.0
 11
0.0
 21
0.0
 31
0.0
  0
LINE
  5
18CC
  8
0
  6
BYBLOCK
 62
     0
 10
-1.0
 20
-0.1666666666666666
 30
0.0
 11
0.0
 21
0.0
 31
0.0
  0
LINE
  5
18CD
  8
0
  6
BYBLOCK
 62
     0
 10
0.0
 20
0.0
 30
0.0
 11
-1.0
 21
0.0
 31
0.0
  0
ENDBLK
  5
18CE
  8
0
  0
BLOCK
  8
0
  2
GENAXEH
 70
     0
 10
0.0
 20
0.0
 30
0.0
  3
GENAXEH
  1

  0
LINE
  5
18F6
  8
0
 10
-1.0
 20
0.0
 30
0.0
 11
1.0
 21
0.0
 31
0.0
  0
ENDBLK
  5
18F7
  8
0
  0
ENDSEC
  0
SECTION
  2
ENTITIES
  0
LINE
  5
1427
  8
AM_7
 10
-198.91053839450481
 20
0.0
 30
0.0
 11
23.000000000000679
 21
0.0
 31
0.0
1001
GENIUS_GENOBJ-N-CEN_13
1002
{
1000
OWNER
1000
GEN
1002
}
1001
GENIUS_GENODEF_13
1002
{
1000
HIER
1070
     0
1002
}
1002
{
1000
MANEDIT
1070
     0
1002
}
1002
{
1000
NOSEL
1070
     0
1002
}
1002
{
1000
BEHIND
1070
     0
1002
}
1002
{
1000
OTHER
1070
     0
1002
}
1002
{
1000
REACTOR
1002
}
1001
GENIUS_GENCEN_19
1002
{
1040
3.5
1002
}
  0
LINE
  5
1431
  8
241
 10
0.1000000000001364
 20
3.8922535211268041
 30
0.0
 11
-83.999999999999318
 21
3.8922535211268041
 31
0.0
  0
LINE
  5
1432
  8
240
 10
19.500000000000679
 20
-4.9500000000000437
 30
0.0
 11
-83.99999999999838
 21
-4.9500000000000437
 31
0.0
  0
LINE
  5
1433
  8
241
 10
0.5
 20
6.531373033403268
 30
0.0
 11
0.5
 21
4.2922535211266659
 31
0.0
  0
LINE
  5
1434
  8
240
 10
19.500000000000679
 20
19.150000000000091
 30
0.0
 11
2.818579219677531
 21
19.14999999999986
 31
0.0
  0
LINE
  5
1435
  8
240
 10
-100.2499999999997
 20
12.25000000000011
 30
0.0
 11
0.0
 21
12.25
 31
0.0
  0
LINE
  5
1436
  8
240
 10
-100.2499999999993
 20
-12.25
 30
0.0
 11
-86.299999999997922
 21
-12.25
 31
0.0
  0
ARC
  5
1437
  8
241
 10
1.3153000059649
 20
11.078720835374041
 30
0.0
 40
2.0
 50
144.15181357090901
 51
308.87910602852412
  0
ARC
  5
1438
  8
241
 10
8.3621106142447843
 20
9.6814161974971285
 30
0.0
 40
2.0
 50
205.55221892036701
 51
54.447798679719412
  0
LINE
  5
1439
  8
241
 10
-2.9999999999993161
 20
10.49999999999363
 30
0.0
 11
-3.0000000000024998
 21
12.25
 31
0.0
  0
ARC
  5
143A
  8
241
 10
1.000000000000681
 20
10.5
 30
0.0
 40
4.0
 50
180.00000000009121
 51
270.0
1001
GENIUS_GENOBJ-N-FIL_13
1002
{
1000
OWNER
1000
GEN
1002
}
1001
GENIUS_GENODEF_13
1002
{
1000
HIER
1070
     0
1002
}
1002
{
1000
MANEDIT
1070
     0
1002
}
1002
{
1000
NOSEL
1070
     0
1002
}
1002
{
1000
BEHIND
1070
     0
1002
}
1002
{
1000
OTHER
1070
     0
1002
}
1002
{
1000
REACTOR
1002
}
  0
LINE
  5
143B
  8
240
 10
20.000000000000679
 20
18.650000000000091
 30
0.0
 11
20.000000000000458
 21
-4.4500000000000437
 31
0.0
  0
LINE
  5
143C
  8
240
 10
19.500000000000679
 20
19.150000000000091
 30
0.0
 11
20.000000000000679
 21
18.650000000000091
 31
0.0
1001
GENIUS_GENFIL_13
1070
     0
1040
0.5
1040
0.5
1040
0.2
1040
45.0
1002
{
1002
}
1001
GENIUS_GENOBJ-N-CHA_13
1002
{
1000
OWNER
1000
GEN
1002
}
1001
GENIUS_GENODEF_13
1002
{
1000
HIER
1070
     0
1002
}
1002
{
1000
MANEDIT
1070
     0
1002
}
1002
{
1000
NOSEL
1070
     0
1002
}
1002
{
1000
BEHIND
1070
     0
1002
}
1002
{
1000
OTHER
1070
     0
1002
}
1002
{
1000
REACTOR
1002
}
  0
LINE
  5
143D
  8
240
 10
19.500000000000679
 20
-4.9500000000000437
 30
0.0
 11
20.000000000000679
 21
-4.4500000000000437
 31
0.0
1001
GENIUS_GENFIL_13
1070
     0
1040
0.5
1040
0.5
1040
0.2
1040
45.0
1002
{
1002
}
1001
GENIUS_GENOBJ-N-CHA_13
1002
{
1000
OWNER
1000
GEN
1002
}
1001
GENIUS_GENODEF_13
1002
{
1000
HIER
1070
     0
1002
}
1002
{
1000
MANEDIT
1070
     0
1002
}
1002
{
1000
NOSEL
1070
     0
1002
}
1002
{
1000
BEHIND
1070
     0
1002
}
1002
{
1000
OTHER
1070
     0
1002
}
1002
{
1000
REACTOR
1002
}
  0
LINE
  5
143E
  8
241
 10
9.5249999999998636
 20
9.2489414683088835
 30
0.0
 11
9.5250000000003183
 21
19.14999999999986
 31
0.0
  0
ARC
  5
143F
  8
241
 10
8.7250000000001364
 20
9.2489414683088835
 30
0.0
 40
0.8
 50
259.999999999995
 51
0.0
1001
GENIUS_GENODEF_13
1002
{
1000
HIER
1070
     0
1002
}
1002
{
1000
MANEDIT
1070
     0
1002
}
1002
{
1000
NOSEL
1070
     0
1002
}
1002
{
1000
BEHIND
1070
     0
1002
}
1002
{
1000
OTHER
1070
     0
1002
}
1002
{
1000
REACTOR
1002
}
1001
GENIUS_GENOBJ-N-FIL_13
1002
{
1000
OWNER
1000
GEN
1002
}
  0
CIRCLE
  5
1440
  8
246
 10
4.7625000000000437
 20
13.97126507896337
 30
0.0
 40
4.7625000000000011
  0
LINE
  5
1441
  8
241
 10
0.0
 20
18.693588689617851
 30
0.0
 11
0.0000000000002274
 21
10.31069293795235
 31
0.0
  0
ARC
  5
1442
  8
241
 10
0.7999999999999548
 20
18.693588689617851
 30
0.0
 40
0.8
 50
79.999999999994984
 51
180.0
1001
GENIUS_GENOBJ-N-FIL_13
1002
{
1000
OWNER
1000
GEN
1002
}
1001
GENIUS_GENODEF_13
1002
{
1000
HIER
1070
     0
1002
}
1002
{
1000
MANEDIT
1070
     0
1002
}
1002
{
1000
NOSEL
1070
     0
1002
}
1002
{
1000
BEHIND
1070
     0
1002
}
1002
{
1000
OTHER
1070
     0
1002
}
1002
{
1000
REACTOR
1002
}
  0
LINE
  5
1443
  8
241
 10
9.1944592710667621
 20
18.025760321179401
 30
0.0
 11
0.9389185421334785
 21
19.481434892027661
 31
0.0
  0
LINE
  5
1444
  8
240
 10
-85.999999999998394
 20
-6.9500000000005002
 30
0.0
 11
-85.999999999997954
 21
-11.949999999999701
 31
0.0
  0
ARC
  5
1445
  8
240
 10
-83.99999999999838
 20
-6.9500000000000437
 30
0.0
 40
2.0
 50
90.0
 51
180.00000000001299
1001
GENIUS_GENODEF_13
1002
{
1000
HIER
1070
     0
1002
}
1002
{
1000
MANEDIT
1070
     0
1002
}
1002
{
1000
NOSEL
1070
     0
1002
}
1002
{
1000
BEHIND
1070
     0
1002
}
1002
{
1000
OTHER
1070
     0
1002
}
1002
{
1000
REACTOR
1002
}
1001
GENIUS_GENOBJ-N-FIL_13
1002
{
1000
OWNER
1000
GEN
1002
}
  0
LINE
  5
1446
  8
241
 10
1.000000000000681
 20
6.5
 30
0.0
 11
20.000000000000679
 21
6.5
 31
0.0
  0
LINE
  5
1447
  8
241
 10
0.3305407289333289
 20
9.9167698367473314
 30
0.0
 11
8.5860814578666105
 21
8.4610952658990755
 31
0.0
  0
LINE
  5
1448
  8
241
 10
19.500000000000679
 20
-1.626212012320138
 30
0.0
 11
19.500000000000679
 21
-4.9500000000000437
 31
0.0
  0
LINE
  5
1449
  8
241
 10
-85.999999999999332
 20
1.892253521126803
 30
0.0
 11
-85.999999999999332
 21
-6.9377761916903182
 31
0.0
  0
ARC
  5
144A
  8
241
 10
0.400000000000091
 20
10.31069293795235
 30
0.0
 40
0.4
 50
180.0
 51
259.999999999995
  0
ARC
  5
144B
  8
241
 10
9.125
 20
17.631837219974379
 30
0.0
 40
0.4
 50
0.0
 51
79.999999999994984
  0
LINE
  5
144C
  8
240
 10
-86.299999999997922
 20
-12.25
 30
0.0
 11
-85.999999999997954
 21
-11.94999999999982
 31
0.0
1001
GENIUS_GENFIL_13
1070
     0
1040
0.3
1040
0.3
1040
0.2
1040
45.0
1002
{
1002
}
1001
GENIUS_GENOBJ-N-CHA_13
1002
{
1000
OWNER
1000
GEN
1002
}
1001
GENIUS_GENODEF_13
1002
{
1000
HIER
1070
     0
1002
}
1002
{
1000
MANEDIT
1070
     0
1002
}
1002
{
1000
NOSEL
1070
     0
1002
}
1002
{
1000
BEHIND
1070
     0
1002
}
1002
{
1000
OTHER
1070
     0
1002
}
1002
{
1000
REACTOR
1002
}
  0
ARC
  5
144D
  8
241
 10
0.1000000000001364
 20
4.2922535211266659
 30
0.0
 40
0.4
 50
269.99999999998693
 51
0.0000000000065138
1001
GENIUS_GENODEF_13
1002
{
1000
HIER
1070
     0
1002
}
1002
{
1000
MANEDIT
1070
     0
1002
}
1002
{
1000
NOSEL
1070
     0
1002
}
1002
{
1000
BEHIND
1070
     0
1002
}
1002
{
1000
OTHER
1070
     0
1002
}
1002
{
1000
REACTOR
1002
}
1001
GENIUS_GENOBJ-N-FIL_13
1002
{
1000
OWNER
1000
GEN
1002
}
  0
ARC
  5
144E
  8
241
 10
-83.999999999999318
 20
1.892253521126803
 30
0.0
 40
2.0
 50
90.0
 51
180.0
1001
GENIUS_GENODEF_13
1002
{
1000
HIER
1070
     0
1002
}
1002
{
1000
MANEDIT
1070
     0
1002
}
1002
{
1000
NOSEL
1070
     0
1002
}
1002
{
1000
BEHIND
1070
     0
1002
}
1002
{
1000
OTHER
1070
     0
1002
}
1002
{
1000
REACTOR
1002
}
1001
GENIUS_GENOBJ-N-FIL_13
1002
{
1000
OWNER
1000
GEN
1002
}
  0
LINE
  5
144F
  8
AM_7
 10
-198.91053839450481
 20
0.0
 30
0.0
 11
23.000000000000679
 21
0.0
 31
0.0
1001
GENIUS_GENOBJ-N-CEN_13
1002
{
1000
OWNER
1000
GEN
1002
}
1001
GENIUS_GENODEF_13
1002
{
1000
HIER
1070
     0
1002
}
1002
{
1000
MANEDIT
1070
     0
1002
}
1002
{
1000
NOSEL
1070
     0
1002
}
1002
{
1000
BEHIND
1070
     0
1002
}
1002
{
1000
OTHER
1070
     0
1002
}
1002
{
1000
REACTOR
1002
}
1001
GENIUS_GENCEN_19
1002
{
1040
3.5
1002
}
  0
LINE
  5
1450
  8
241
 10
-100.2499999999993
 20
-12.25
 30
0.0
 11
-100.250000000002
 21
12.24999999999568
 31
0.0
  0
LINE
  5
1451
  8
243
 10
-192.9999999999992
 20
-6.0
 30
0.0
 11
-93.999999999999318
 21
-6.0
 31
0.0
  0
LINE
  5
1452
  8
243
 10
-192.9999999999992
 20
6.0
 30
0.0
 11
-93.999999999999318
 21
6.0000000000001119
 31
0.0
  0
LINE
  5
1453
  8
243
 10
-93.999999999999318
 20
-6.0
 30
0.0
 11
-93.999999999999318
 21
6.0
 31
0.0
  0
LINE
  5
1454
  8
243
 10
-91.401923788645931
 20
-1.5
 30
0.0
 11
-91.401923788645931
 21
1.5
 31
0.0
  0
LINE
  5
1455
  8
243
 10
-93.999999999999318
 20
-6.0
 30
0.0
 11
-91.401923788645931
 21
-1.5
 31
0.0
  0
LINE
  5
1456
  8
243
 10
-93.999999999999318
 20
6.0000000000001119
 30
0.0
 11
-91.401923788646187
 21
1.5
 31
0.0
  0
LINE
  5
1457
  8
245
 10
0.0
 20
1.0
 30
0.0
 11
0.0
 21
7.6270166537927908
 31
0.0
  0
LINE
  5
1458
  8
243
 10
-1.25
 20
1.5000000000002021
 30
0.0
 11
-1.25
 21
7.1928108611698462
 31
0.0
  0
LINE
  5
1459
  8
243
 10
1.25
 20
-1.4999999999997911
 30
0.0
 11
1.25
 21
6.5
 31
0.0
  0
LINE
  5
145D
  8
243
 10
-1.25
 20
1.5000000000002021
 30
0.0
 11
-91.401923788645931
 21
1.5
 31
0.0
  0
LINE
  5
145E
  8
243
 10
1.25
 20
-1.4999999999997911
 30
0.0
 11
-91.401923788645931
 21
-1.5
 31
0.0
  0
LINE
  5
146C
  8
241
 10
-108.9999999999993
 20
5.5677643628296201
 30
0.0
 11
-103.9999999999993
 21
5.5677643628296201
 31
0.0
  0
LINE
  5
146D
  8
241
 10
-103.9999999999993
 20
-5.5677643628298483
 30
0.0
 11
-108.9999999999993
 21
-5.5677643628298483
 31
0.0
  0
LINE
  5
146E
  8
240
 10
-193.9999999999992
 20
-0.0000000000001137
 30
0.0
 11
-193.9999999999992
 21
13.99999999999989
 31
0.0
  0
LINE
  5
146F
  8
240
 10
-100.2499999999997
 20
12.25000000000011
 30
0.0
 11
-103.9999999999993
 21
15.999999999999879
 31
0.0
  0
LINE
  5
1470
  8
241
 10
-188.9999999999992
 20
-0.0000000000001137
 30
0.0
 11
-188.9999999999992
 21
15.999999999999879
 31
0.0
  0
LINE
  5
1471
  8
241
 10
-103.9999999999993
 20
5.5677643628296201
 30
0.0
 11
-103.9999999999993
 21
15.999999999999879
 31
0.0
  0
LINE
  5
1472
  8
240
 10
-103.9999999999993
 20
15.999999999999879
 30
0.0
 11
-191.9999999999992
 21
15.999999999999879
 31
0.0
  0
ARC
  5
1473
  8
240
 10
-191.9999999999992
 20
13.99999999999989
 30
0.0
 40
2.0
 50
90.0
 51
180.0
  0
LINE
  5
1474
  8
240
 10
-191.9999999999992
 20
-16.0
 30
0.0
 11
-103.9999999999993
 21
-16.0
 31
0.0
  0
LINE
  5
1475
  8
240
 10
-193.9999999999992
 20
0.0
 30
0.0
 11
-193.9999999999992
 21
-14.0
 31
0.0
  0
LINE
  5
1476
  8
241
 10
-188.9999999999992
 20
0.0
 30
0.0
 11
-188.9999999999992
 21
-16.0
 31
0.0
  0
ARC
  5
1477
  8
240
 10
-191.9999999999992
 20
-14.0
 30
0.0
 40
2.0
 50
180.0
 51
270.0
  0
LINE
  5
1478
  8
240
 10
-100.2499999999993
 20
-12.25
 30
0.0
 11
-103.9999999999993
 21
-16.0
 31
0.0
  0
LINE
  5
1479
  8
241
 10
-103.9999999999993
 20
-5.5677643628298483
 30
0.0
 11
-103.9999999999993
 21
-16.0
 31
0.0
  0
LINE
  5
147A
  8
241
 10
-108.9999999999993
 20
5.5677643628296201
 30
0.0
 11
-108.9999999999993
 21
-5.5677643628298483
 31
0.0
  0
ARC
  5
147B
  8
241
 10
-118.99999999999859
 20
-0.0000000000001137
 30
0.0
 40
15.99999999999924
 50
339.63586519368351
 51
20.364134806316461
  0
ARC
  5
147C
  8
243
 10
-192.9999999999992
 20
-7.0000000000002274
 30
0.0
 40
1.0
 50
90.0
 51
180.0
1001
GENIUS_GENODEF_13
1002
{
1000
HIER
1070
     0
1002
}
1002
{
1000
MANEDIT
1070
     0
1002
}
1002
{
1000
NOSEL
1070
     0
1002
}
1002
{
1000
BEHIND
1070
     0
1002
}
1002
{
1000
OTHER
1070
     0
1002
}
1002
{
1000
REACTOR
1002
}
1001
GENIUS_GENOBJ-N-FIL_13
1002
{
1000
OWNER
1000
GEN
1002
}
  0
ARC
  5
147D
  8
243
 10
-192.9999999999992
 20
7.0
 30
0.0
 40
1.0
 50
180.0
 51
270.0
1001
GENIUS_GENODEF_13
1002
{
1000
HIER
1070
     0
1002
}
1002
{
1000
MANEDIT
1070
     0
1002
}
1002
{
1000
NOSEL
1070
     0
1002
}
1002
{
1000
BEHIND
1070
     0
1002
}
1002
{
1000
OTHER
1070
     0
1002
}
1002
{
1000
REACTOR
1002
}
1001
GENIUS_GENOBJ-N-FIL_13
1002
{
1000
OWNER
1000
GEN
1002
}
  0
LINE
  5
15AD
  8
242
 10
-108.9999999999993
 20
-5.5677643628298483
 30
0.0
 11
-103.9999999999993
 21
5.5677643628296201
 31
0.0
  0
LINE
  5
15AE
  8
242
 10
-108.9999999999993
 20
5.5677643628296201
 30
0.0
 11
-103.9999999999993
 21
-5.5677643628298483
 31
0.0
  0
LINE
  5
15B1
  8
250
 10
-192.4999999999992
 20
15.999999999999879
 30
0.0
 11
-204.0
 21
15.99999999999989
 31
0.0
  0
LINE
  5
15B2
  8
250
 10
-192.4999999999992
 20
-16.0
 30
0.0
 11
-204.0
 21
-15.99999999999998
 31
0.0
  0
LINE
  5
15B3
  8
250
 10
-203.0
 20
13.769999999999881
 30
0.0
 11
-203.0
 21
-13.77
 31
0.0
  0
LINE
  5
15B8
  8
250
 10
0.0000000000001137
 20
19.193588689617911
 30
0.0
 11
0.0000000000001147
 21
36.0
 31
0.0
  0
LINE
  5
15B9
  8
250
 10
-83.999999999999318
 20
13.1625511015618
 30
0.0
 11
-83.999999999999318
 21
36.0
 31
0.0
  0
LINE
  5
15BA
  8
250
 10
-2.2299999999998841
 20
35.0
 30
0.0
 11
-81.769999999999314
 21
35.0
 31
0.0
  0
LINE
  5
15BE
  8
250
 10
20.000000000000789
 20
19.199999999999822
 30
0.0
 11
20.000000000000789
 21
36.0
 31
0.0
  0
LINE
  5
15BF
  8
250
 10
0.0
 20
19.193588689617851
 30
0.0
 11
0.0000000000000011
 21
36.0
 31
0.0
  0
LINE
  5
15C0
  8
250
 10
17.770000000000788
 20
35.0
 30
0.0
 11
2.2299999999999991
 21
35.0
 31
0.0
  0
LINE
  5
15C4
  8
250
 10
-193.9999999999992
 20
14.499999999999879
 30
0.0
 11
-193.9999999999992
 21
43.0
 31
0.0
  0
LINE
  5
15C5
  8
250
 10
20.000000000000789
 20
19.199999999999822
 30
0.0
 11
20.000000000000789
 21
43.0
 31
0.0
  0
LINE
  5
15C6
  8
250
 10
-191.7699999999993
 20
42.0
 30
0.0
 11
17.770000000000788
 21
42.0
 31
0.0
  0
LINE
  5
15CA
  8
250
 10
1.2999999999999541
 20
19.493588689617852
 30
0.0
 11
36.0
 21
19.493588689617852
 31
0.0
  0
LINE
  5
15CB
  8
250
 10
35.0
 20
17.263588689617851
 30
0.0
 11
35.0
 21
-2.960255356284522
 31
0.0
  0
TEXT
  5
15CE
  8
250
 10
-204.0
 20
-5.8000000000000043
 30
0.0
 40
2.799999999999998
  1
\U+220532
 50
90.0
  0
LINE
  5
15CF
  8
250
 10
-202.6283333333333
 20
-13.77
 30
0.0
 11
-203.0
 21
-16.0
 31
0.0
  0
LINE
  5
15D0
  8
250
 10
-203.3716666666667
 20
-13.77
 30
0.0
 11
-203.0
 21
-16.0
 31
0.0
  0
LINE
  5
15D1
  8
250
 10
-203.0
 20
-16.0
 30
0.0
 11
-203.0
 21
-13.77
 31
0.0
  0
LINE
  5
15D2
  8
250
 10
-203.3716666666667
 20
13.769999999999881
 30
0.0
 11
-203.0
 21
15.99999999999989
 31
0.0
  0
LINE
  5
15D3
  8
250
 10
-202.6283333333333
 20
13.769999999999881
 30
0.0
 11
-203.0
 21
15.99999999999989
 31
0.0
  0
LINE
  5
15D4
  8
250
 10
-203.0
 20
15.99999999999989
 30
0.0
 11
-203.0
 21
13.769999999999881
 31
0.0
  0
TEXT
  5
15D5
  8
250
 10
-44.733333333332922
 20
36.0
 30
0.0
 40
2.799999999999998
  1
84
  0
LINE
  5
15D6
  8
250
 10
-81.769999999999314
 20
34.62833333333333
 30
0.0
 11
-83.999999999999318
 21
35.0
 31
0.0
  0
LINE
  5
15D7
  8
250
 10
-81.769999999999314
 20
35.37166666666667
 30
0.0
 11
-83.999999999999318
 21
35.0
 31
0.0
  0
LINE
  5
15D8
  8
250
 10
-83.999999999999318
 20
35.0
 30
0.0
 11
-81.769999999999314
 21
35.0
 31
0.0
  0
LINE
  5
15D9
  8
250
 10
-2.2299999999998841
 20
35.37166666666667
 30
0.0
 11
0.0000000000001147
 21
35.0
 31
0.0
  0
LINE
  5
15DA
  8
250
 10
-2.2299999999998841
 20
34.62833333333333
 30
0.0
 11
0.0000000000001147
 21
35.0
 31
0.0
  0
LINE
  5
15DB
  8
250
 10
0.0000000000001147
 20
35.0
 30
0.0
 11
-2.2299999999998841
 21
35.0
 31
0.0
  0
TEXT
  5
15DC
  8
250
 10
7.3333333333337301
 20
36.0
 30
0.0
 40
2.799999999999998
  1
20
  0
LINE
  5
15DD
  8
250
 10
2.2299999999999991
 20
34.62833333333333
 30
0.0
 11
0.000000000000001
 21
35.0
 31
0.0
  0
LINE
  5
15DE
  8
250
 10
2.2299999999999991
 20
35.37166666666667
 30
0.0
 11
0.000000000000001
 21
35.0
 31
0.0
  0
LINE
  5
15DF
  8
250
 10
0.000000000000001
 20
35.0
 30
0.0
 11
2.2299999999999991
 21
35.0
 31
0.0
  0
LINE
  5
15E0
  8
250
 10
17.770000000000788
 20
35.37166666666667
 30
0.0
 11
20.000000000000789
 21
35.0
 31
0.0
  0
LINE
  5
15E1
  8
250
 10
17.770000000000788
 20
34.62833333333333
 30
0.0
 11
20.000000000000789
 21
35.0
 31
0.0
  0
LINE
  5
15E2
  8
250
 10
20.000000000000789
 20
35.0
 30
0.0
 11
17.770000000000788
 21
35.0
 31
0.0
  0
TEXT
  5
15E3
  8
250
 10
-91.066666666665895
 20
43.0
 30
0.0
 40
2.799999999999998
  1
214
  0
LINE
  5
15E4
  8
250
 10
17.770000000000788
 20
42.371666666666663
 30
0.0
 11
20.000000000000789
 21
42.0
 31
0.0
  0
LINE
  5
15E5
  8
250
 10
17.770000000000788
 20
41.62833333333333
 30
0.0
 11
20.000000000000789
 21
42.0
 31
0.0
  0
LINE
  5
15E6
  8
250
 10
20.000000000000789
 20
42.0
 30
0.0
 11
17.770000000000788
 21
42.0
 31
0.0
  0
LINE
  5
15E7
  8
250
 10
-191.7699999999993
 20
41.62833333333333
 30
0.0
 11
-193.9999999999992
 21
42.0
 31
0.0
  0
LINE
  5
15E8
  8
250
 10
-191.7699999999993
 20
42.371666666666663
 30
0.0
 11
-193.9999999999992
 21
42.0
 31
0.0
  0
LINE
  5
15E9
  8
250
 10
-193.9999999999992
 20
42.0
 30
0.0
 11
-191.7699999999993
 21
42.0
 31
0.0
  0
TEXT
  5
15EA
  8
250
 10
33.999999999999993
 20
-2.2269220229511841
 30
0.0
 40
2.799999999999998
  1
\U+220539
 50
90.0
  0
LINE
  5
15EB
  8
250
 10
34.62833333333333
 20
17.263588689617851
 30
0.0
 11
35.0
 21
19.493588689617852
 31
0.0
  0
LINE
  5
15EC
  8
250
 10
35.37166666666667
 20
17.263588689617851
 30
0.0
 11
35.0
 21
19.493588689617852
 31
0.0
  0
LINE
  5
15ED
  8
250
 10
35.0
 20
19.493588689617852
 30
0.0
 11
35.0
 21
17.263588689617851
 31
0.0
  0
TEXT
  5
16BE
  8
241
 10
-194.9999999999994
 20
56.0
 30
0.0
 40
4.0
  1
ST32-BFM24/39-84
  7
YOKO
  0
LINE
  5
16BF
  8
247
 10
-180.1663334451888
 20
12.48259612101095
 30
0.0
 11
-180.1663334451888
 21
12.48259612101095
 31
0.0
1001
HATCH_DISTANCE
1040
1.0
1001
HATCH_DISPLAY
1070
     0
1001
HATCH_TYPE
1070
     7
  0
LINE
  5
16C0
  8
247
 10
-180.2576229654525
 20
12.772097311196489
 30
0.0
 11
-180.1663334451888
 21
12.48259612101095
 31
0.0
1001
HATCH_DISTANCE
1040
1.0
1001
HATCH_DISPLAY
1070
     0
1001
HATCH_TYPE
1070
     7
  0
LINE
  5
16C1
  8
247
 10
-180.2576229654525
 20
12.772097311196489
 30
0.0
 11
-180.2576229654525
 21
12.772097311196489
 31
0.0
1001
HATCH_DISTANCE
1040
1.0
1001
HATCH_DISPLAY
1070
     0
1001
HATCH_TYPE
1070
     7
  0
LINE
  5
16C2
  8
247
 10
-180.1663334451888
 20
12.48259612101095
 30
0.0
 11
-180.2576229654525
 21
12.772097311196489
 31
0.0
1001
HATCH_DISTANCE
1040
1.0
1001
HATCH_DISPLAY
1070
     0
1001
HATCH_TYPE
1070
     7
  0
LINE
  5
16C3
  8
247
 10
-180.1663334451888
 20
12.48259612101095
 30
0.0
 11
-180.1663334451888
 21
12.48259612101095
 31
0.0
  0
LINE
  5
16C4
  8
247
 10
-180.2576229654525
 20
12.772097311196489
 30
0.0
 11
-180.1663334451888
 21
12.48259612101095
 31
0.0
  0
LINE
  5
16C5
  8
247
 10
-180.2576229654525
 20
12.772097311196489
 30
0.0
 11
-180.2576229654525
 21
12.772097311196489
 31
0.0
  0
LINE
  5
16C6
  8
247
 10
-180.1663334451888
 20
12.48259612101095
 30
0.0
 11
-180.2576229654525
 21
12.772097311196489
 31
0.0
  0
LINE
  5
16C7
  8
247
 10
-180.1663334451888
 20
12.48259612101095
 30
0.0
 11
-180.1663334451888
 21
12.48259612101095
 31
0.0
1001
HATCH_DISTANCE
1040
1.0
1001
HATCH_DISPLAY
1070
     0
1001
HATCH_TYPE
1070
     7
  0
LINE
  5
16C8
  8
247
 10
-180.2576229654525
 20
12.772097311196489
 30
0.0
 11
-180.1663334451888
 21
12.48259612101095
 31
0.0
1001
HATCH_DISTANCE
1040
1.0
1001
HATCH_DISPLAY
1070
     0
1001
HATCH_TYPE
1070
     7
  0
LINE
  5
16C9
  8
247
 10
-180.2576229654525
 20
12.772097311196489
 30
0.0
 11
-180.2576229654525
 21
12.772097311196489
 31
0.0
1001
HATCH_DISTANCE
1040
1.0
1001
HATCH_DISPLAY
1070
     0
1001
HATCH_TYPE
1070
     7
  0
LINE
  5
16CA
  8
247
 10
-180.1663334451888
 20
12.48259612101095
 30
0.0
 11
-180.2576229654525
 21
12.772097311196489
 31
0.0
1001
HATCH_DISTANCE
1040
1.0
1001
HATCH_DISPLAY
1070
     0
1001
HATCH_TYPE
1070
     7
  0
LINE
  5
16CB
  8
247
 10
-180.1663334451888
 20
12.48259612101095
 30
0.0
 11
-180.1663334451888
 21
12.48259612101095
 31
0.0
  0
LINE
  5
16CC
  8
247
 10
-180.2576229654525
 20
12.772097311196489
 30
0.0
 11
-180.1663334451888
 21
12.48259612101095
 31
0.0
  0
LINE
  5
16CD
  8
247
 10
-180.2576229654525
 20
12.772097311196489
 30
0.0
 11
-180.2576229654525
 21
12.772097311196489
 31
0.0
  0
LINE
  5
16CE
  8
247
 10
-180.1663334451888
 20
12.48259612101095
 30
0.0
 11
-180.2576229654525
 21
12.772097311196489
 31
0.0
  0
LINE
  5
16CF
  8
247
 10
-182.21019101965169
 20
12.824682913003141
 30
0.0
 11
-182.99855161535481
 21
12.824682913003141
 31
0.0
1001
HATCH_DISTANCE
1040
1.0
1001
HATCH_DISPLAY
1070
     0
1001
HATCH_TYPE
1070
     7
  0
LINE
  5
16D0
  8
247
 10
-182.9924748026107
 20
10.09652551191823
 30
0.0
 11
-182.21019101965169
 21
12.824682913003141
 31
0.0
1001
HATCH_DISTANCE
1040
1.0
1001
HATCH_DISPLAY
1070
     0
1001
HATCH_TYPE
1070
     7
  0
LINE
  5
16D1
  8
247
 10
-183.67046857702471
 20
10.09652551191823
 30
0.0
 11
-182.9924748026107
 21
10.09652551191823
 31
0.0
1001
HATCH_DISTANCE
1040
1.0
1001
HATCH_DISPLAY
1070
     0
1001
HATCH_TYPE
1070
     7
  0
LINE
  5
16D2
  8
247
 10
-182.98378873693679
 20
12.491247854409391
 30
0.0
 11
-183.67046857702471
 21
10.09652551191823
 31
0.0
1001
HATCH_DISTANCE
1040
1.0
1001
HATCH_DISPLAY
1070
     0
1001
HATCH_TYPE
1070
     7
  0
LINE
  5
16D3
  8
247
 10
-183.0941670023177
 20
12.491247854409391
 30
0.0
 11
-182.98378873693679
 21
12.491247854409391
 31
0.0
1001
HATCH_DISTANCE
1040
1.0
1001
HATCH_DISPLAY
1070
     0
1001
HATCH_TYPE
1070
     7
  0
LINE
  5
16D4
  8
247
 10
-182.99855161535481
 20
12.824682913003141
 30
0.0
 11
-183.0941670023177
 21
12.491247854409391
 31
0.0
1001
HATCH_DISTANCE
1040
1.0
1001
HATCH_DISPLAY
1070
     0
1001
HATCH_TYPE
1070
     7
  0
LINE
  5
16D5
  8
247
 10
-182.21019101965169
 20
12.824682913003141
 30
0.0
 11
-182.99855161535481
 21
12.824682913003141
 31
0.0
  0
LINE
  5
16D6
  8
247
 10
-182.9924748026107
 20
10.09652551191823
 30
0.0
 11
-182.21019101965169
 21
12.824682913003141
 31
0.0
  0
LINE
  5
16D7
  8
247
 10
-183.67046857702471
 20
10.09652551191823
 30
0.0
 11
-182.9924748026107
 21
10.09652551191823
 31
0.0
  0
LINE
  5
16D8
  8
247
 10
-182.98378873693679
 20
12.491247854409391
 30
0.0
 11
-183.67046857702471
 21
10.09652551191823
 31
0.0
  0
LINE
  5
16D9
  8
247
 10
-183.0941670023177
 20
12.491247854409391
 30
0.0
 11
-182.98378873693679
 21
12.491247854409391
 31
0.0
  0
LINE
  5
16DA
  8
247
 10
-182.99855161535481
 20
12.824682913003141
 30
0.0
 11
-183.0941670023177
 21
12.491247854409391
 31
0.0
  0
TEXT
  5
1721
  8
247
 10
-177.25315800997831
 20
10.074024408024711
 30
0.0
 40
2.5
  1
ST32-BFM24/39-84
  7
YOKO
 11
-177.25315800997831
 21
10.074024408024711
 31
0.0
 73
     1
  0
LINE
  5
1722
  8
247
 10
-180.3108837686751
 20
12.437014303383981
 30
0.0
 11
-180.4021732889388
 21
12.726515493569529
 31
0.0
  0
ARC
  5
1723
  8
247
 10
-179.85188413488601
 20
11.233256063637899
 30
0.0
 40
1.288299322128293
 50
110.8721834020771
 51
132.54194893738571
  0
ARC
  5
1724
  8
247
 10
-181.0410854898665
 20
12.172953329262899
 30
0.0
 40
0.3182875066995621
 50
1.7101213820643351
 51
163.99839835444811
  0
LINE
  5
1725
  8
247
 10
-181.7555744730208
 20
10.835985861001181
 30
0.0
 11
-181.34704328405601
 21
12.260695181069551
 31
0.0
  0
ARC
  5
1726
  8
247
 10
-181.4496166788314
 20
10.74825545328633
 30
0.0
 40
0.3182872831821442
 50
164.00027305718319
 51
344.00027305718322
  0
LINE
  5
1727
  8
247
 10
-181.14365888464201
 20
10.6605250455715
 30
0.0
 11
-180.9490063272689
 21
11.33935423868672
 31
0.0
  0
LINE
  5
1728
  8
247
 10
-181.20127988683919
 20
11.33935423868672
 30
0.0
 11
-180.9490063272689
 21
11.33935423868672
 31
0.0
  0
LINE
  5
1729
  8
247
 10
-181.20127988683919
 20
11.33935423868672
 30
0.0
 11
-181.11436200964201
 21
11.642485342202351
 31
0.0
  0
LINE
  5
172A
  8
247
 10
-181.11436200964201
 20
11.642485342202351
 30
0.0
 11
-180.23139310705409
 21
11.642485342202351
 31
0.0
  0
LINE
  5
172B
  8
247
 10
-180.6746914468977
 20
10.096525511918241
 30
0.0
 11
-180.23139310705409
 21
11.642485342202351
 31
0.0
  0
LINE
  5
172C
  8
247
 10
-180.85250974523771
 20
10.27433236616629
 30
0.0
 11
-180.6746914468977
 21
10.096525511918241
 31
0.0
  0
ARC
  5
172D
  8
247
 10
-181.41706968176101
 20
11.08169051188008
 30
0.0
 40
0.9851760864257813
 50
163.99975070172741
 51
304.96387329163082
  0
ARC
  5
172E
  8
247
 10
-179.80635953771821
 20
11.029894552407431
 30
0.0
 40
2.5780792236328121
 50
155.20517736984181
 51
172.7948259620504
  0
ARC
  5
172F
  8
247
 10
-181.199769266722
 20
11.83951827066914
 30
0.0
 40
0.9851660728454588
 50
53.444012197055507
 51
164.0001843876849
  0
ARC
  5
1730
  8
247
 10
-179.85188413488601
 20
11.233256063637899
 30
0.0
 40
1.591427564620969
 50
110.22964506332001
 51
118.57168892371681
  0
LINE
  5
1731
  8
247
 10
-185.3794033609602
 20
12.824682913003141
 30
0.0
 11
-185.46632123815741
 21
12.521551809487519
 31
0.0
  0
LINE
  5
1732
  8
247
 10
-186.0054066263412
 20
12.824682913003141
 30
0.0
 11
-185.3794033609602
 21
12.824682913003141
 31
0.0
  0
LINE
  5
1733
  8
247
 10
-186.0054066263412
 20
12.521551809487519
 30
0.0
 11
-185.46632123815741
 21
12.521551809487519
 31
0.0
  0
ARC
  5
1734
  8
247
 10
-186.0054066263412
 20
11.233256063637899
 30
0.0
 40
1.288295745849606
 50
90.0
 51
270.0
  0
ARC
  5
1735
  8
247
 10
-186.0054066263412
 20
11.233256063637899
 30
0.0
 40
1.591426849365233
 50
90.0
 51
270.0
  0
LINE
  5
1736
  8
247
 10
-186.0054066263412
 20
9.6418288644462233
 30
0.0
 11
-179.85188413488601
 21
9.6418288644462073
 31
0.0
  0
LINE
  5
1737
  8
247
 10
-186.0054066263412
 20
9.9449599601604302
 30
0.0
 11
-179.85188413488601
 21
9.9449599601604142
 31
0.0
  0
ARC
  5
1738
  8
247
 10
-179.85188413488601
 20
11.233256063637899
 30
0.0
 40
1.591426849365233
 50
270.0
 51
104.7707939660941
  0
ARC
  5
1739
  8
247
 10
-179.85188413488601
 20
11.233256063637899
 30
0.0
 40
1.288295745849606
 50
270.0
 51
104.1274364964119
  0
LINE
  5
173A
  8
247
 10
-180.1663334451888
 20
12.482596121010941
 30
0.0
 11
-180.2576229654525
 21
12.772097311196481
 31
0.0
  0
LINE
  5
173B
  8
247
 10
-182.9924748026107
 20
10.096525511918241
 30
0.0
 11
-182.21019101965169
 21
12.824682913003141
 31
0.0
  0
LINE
  5
173C
  8
247
 10
-185.8463451944564
 20
10.096525511918241
 30
0.0
 11
-185.150979288695
 21
12.52155180948664
 31
0.0
  0
ARC
  5
173F
  8
247
 10
-184.5789120279525
 20
12.097170553384
 30
0.0
 40
0.4546839594841006
 50
261.6626016879294
 51
66.338155095189762
  0
ARC
  5
1741
  8
247
 10
-184.2407276712629
 20
12.06686659830587
 30
0.0
 40
0.7578227519989014
 50
287.66957754739798
 51
90.236159842671626
  0
LINE
  5
1743
  8
247
 10
-184.3964289023844
 20
12.51362872882906
 30
0.0
 11
-184.64484143389939
 21
11.647291884803661
 31
0.0
  0
LINE
  5
1744
  8
247
 10
-183.67046857702471
 20
10.096525511918241
 30
0.0
 11
-182.98378873693679
 21
12.491247854409391
 31
0.0
  0
LINE
  5
1745
  8
247
 10
-182.99855161535481
 20
12.824682913003141
 30
0.0
 11
-182.21019101965169
 21
12.824682913003141
 31
0.0
  0
LINE
  5
1748
  8
247
 10
-185.22173810827439
 20
12.824682913003141
 30
0.0
 11
-184.24385123108999
 21
12.824682913003031
 31
0.0
  0
LINE
  5
174A
  8
247
 10
-185.3086559854722
 20
12.521551809487519
 30
0.0
 11
-185.150979288695
 21
12.52155180948664
 31
0.0
  0
LINE
  5
174B
  8
247
 10
-185.22173810827439
 20
12.824682913003141
 30
0.0
 11
-185.3086559854722
 21
12.521551809487519
 31
0.0
  0
LINE
  5
174F
  8
247
 10
-183.0941670023177
 20
12.491247854409391
 30
0.0
 11
-182.98378873693679
 21
12.491247854409391
 31
0.0
  0
LINE
  5
1750
  8
247
 10
-183.0941670023177
 20
12.491247854409391
 30
0.0
 11
-182.99855161535481
 21
12.824682913003141
 31
0.0
  0
ARC
  5
1752
  8
247
 10
-184.58841062414399
 20
10.85434218424337
 30
0.0
 40
0.7578163146972659
 50
270.0
 51
40.329840654169217
  0
ARC
  5
1755
  8
247
 10
-184.92659498083341
 20
10.88465758341329
 30
0.0
 40
0.4546969681978227
 50
261.6628542111489
 51
66.338192159110051
  0
LINE
  5
1756
  8
247
 10
-184.7441082373401
 20
11.30112837631177
 30
0.0
 11
-184.9925248555551
 21
10.43476583587012
 31
0.0
  0
LINE
  5
1759
  8
247
 10
-185.8463451944564
 20
10.096525511918241
 30
0.0
 11
-184.58841062414399
 21
10.096525511918241
 31
0.0
  0
LINE
  5
175B
  8
247
 10
-183.67046857702471
 20
10.096525511918241
 30
0.0
 11
-182.9924748026107
 21
10.096525511918241
 31
0.0
  0
VIEWPORT
  5
22
 67
     1
  8
0
 10
261.51769911504419
 20
148.5
 30
0.0
 40
523.0353982300885
 41
297.0
 68
     1
 69
     1
1001
ACAD
1000
MVIEW
1002
{
1070
    16
1010
0.0
1020
0.0
1030
0.0
1010
0.0
1020
0.0
1030
1.0
1040
0.0
1040
297.0
1040
261.51769911504419
1040
148.5
1040
50.0
1040
0.0
1040
0.0
1070
     0
1070
   100
1070
     1
1070
     1
1070
     0
1070
     0
1070
     0
1070
     0
1040
0.0
1040
0.0
1040
0.0
1040
1.0
1040
1.0
1040
10.0
1040
10.0
1070
     0
1002
{
1002
}
1002
}
1001
GENIUS_GENODEF_13
1002
{
1000
HIER
1070
     0
1002
}
1002
{
1000
MANEDIT
1070
     0
1002
}
1002
{
1000
NOSEL
1070
     0
1002
}
1002
{
1000
BEHIND
1070
     0
1002
}
1002
{
1000
OTHER
1070
     0
1002
}
1002
{
1000
REACTOR
1002
}
1001
GENIUS_GENOBJ-N-SDF_13
1002
{
1000
OWNER
1000
GEN
1002
}
1001
GENIUS_GENSCREG_15
1000
PF
1040
1.0
1000
DF
1040
1.0
1000
MIN
1011
0.0
1021
0.0
1031
0.0
1021
0.0
1031
0.0
1000
MAX
1011
523.0353982300885
1021
0.0
1031
0.0
1021
297.0
1031
0.0
1000
FLAGS
1070
     2
  0
ENDSEC
  0
EOF
