  0
SECTION
  2
HEADER
  9
$ACADVER
  1
AC1009
  9
$INSBASE
 10
0.0
 20
0.0
 30
0.0
  9
$EXTMIN
 10
-199.80000000000001
 20
-16.414213562372979
 30
0.0
  9
$EXTMAX
 10
29.0
 20
60.761904761904788
 30
0.0
  9
$LIMMIN
 10
0.0
 20
0.0
  9
$LIMMAX
 10
297.0
 20
210.0
  9
$ORTHOMODE
 70
     1
  9
$REGENMODE
 70
     1
  9
$FILLMODE
 70
     1
  9
$QTEXTMODE
 70
     0
  9
$MIRRTEXT
 70
     1
  9
$DRAGMODE
 70
     2
  9
$LTSCALE
 40
10.0
  9
$OSMODE
 70
    39
  9
$ATTMODE
 70
     1
  9
$TEXTSIZE
 40
3.0
  9
$TRACEWID
 40
1.0
  9
$TEXTSTYLE
  7
YOKO
  9
$CLAYER
  8
240
  9
$CELTYPE
  6
BYLAYER
  9
$CECOLOR
 62
   256
  9
$DIMSCALE
 40
1.0
  9
$DIMASZ
 40
2.2299999999999991
  9
$DIMEXO
 40
0.5
  9
$DIMDLI
 40
7.0
  9
$DIMRND
 40
0.0
  9
$DIMDLE
 40
0.0
  9
$DIMEXE
 40
1.0
  9
$DIMTP
 40
0.0
  9
$DIMTM
 40
0.01
  9
$DIMTXT
 40
2.799999999999998
  9
$DIMCEN
 40
0.0
  9
$DIMTSZ
 40
0.0
  9
$DIMTOL
 70
     0
  9
$DIMLIM
 70
     0
  9
$DIMTIH
 70
     0
  9
$DIMTOH
 70
     0
  9
$DIMSE1
 70
     0
  9
$DIMSE2
 70
     0
  9
$DIMTAD
 70
     3
  9
$DIMZIN
 70
     9
  9
$DIMBLK
  1
OPEN
  9
$DIMASO
 70
     1
  9
$DIMSHO
 70
     1
  9
$DIMPOST
  1

  9
$DIMAPOST
  1

  9
$DIMALT
 70
     0
  9
$DIMALTD
 70
     2
  9
$DIMALTF
 40
25.399999999999999
  9
$DIMLFAC
 40
1.0
  9
$DIMTOFL
 70
     1
  9
$DIMTVP
 40
0.0
  9
$DIMTIX
 70
     1
  9
$DIMSOXD
 70
     0
  9
$DIMSAH
 70
     0
  9
$DIMBLK1
  1

  9
$DIMBLK2
  1

  9
$DIMSTYLE
  2
BIGT
  9
$DIMCLRD
 70
   256
  9
$DIMCLRE
 70
   256
  9
$DIMCLRT
 70
    40
  9
$DIMTFAC
 40
1.0
  9
$DIMGAP
 40
1.0
  9
$LUNITS
 70
     2
  9
$LUPREC
 70
     3
  9
$SKETCHINC
 40
1.0
  9
$FILLETRAD
 40
0.0
  9
$AUNITS
 70
     0
  9
$AUPREC
 70
     3
  9
$MENU
  1
.
  9
$ELEVATION
 40
0.0
  9
$PELEVATION
 40
0.0
  9
$THICKNESS
 40
0.0
  9
$LIMCHECK
 70
     0
  9
$BLIPMODE
 70
     0
  9
$CHAMFERA
 40
0.25
  9
$CHAMFERB
 40
0.25
  9
$SKPOLY
 70
     0
  9
$TDCREATE
 40
2456598.6709162039
  9
$TDUPDATE
 40
2456598.713297396
  9
$TDINDWG
 40
0.0047035069
  9
$TDUSRTIMER
 40
0.0047035069
  9
$USRTIMER
 70
     1
  9
$ANGBASE
 50
0.0
  9
$ANGDIR
 70
     0
  9
$PDMODE
 70
     1
  9
$PDSIZE
 40
0.0
  9
$PLINEWID
 40
0.0
  9
$COORDS
 70
     2
  9
$SPLFRAME
 70
     0
  9
$SPLINETYPE
 70
     6
  9
$SPLINESEGS
 70
     4
  9
$ATTDIA
 70
     1
  9
$ATTREQ
 70
     1
  9
$HANDLING
 70
     1
  9
$HANDSEED
  5
1A32
  9
$SURFTAB1
 70
     6
  9
$SURFTAB2
 70
     6
  9
$SURFTYPE
 70
     6
  9
$SURFU
 70
     6
  9
$SURFV
 70
     6
  9
$UCSNAME
  2

  9
$UCSORG
 10
0.0
 20
0.0
 30
0.0
  9
$UCSXDIR
 10
1.0
 20
0.0
 30
0.0
  9
$UCSYDIR
 10
0.0
 20
1.0
 30
0.0
  9
$PUCSNAME
  2

  9
$PUCSORG
 10
0.0
 20
0.0
 30
0.0
  9
$PUCSXDIR
 10
1.0
 20
0.0
 30
0.0
  9
$PUCSYDIR
 10
0.0
 20
1.0
 30
0.0
  9
$USERI1
 70
     1
  9
$USERI2
 70
     0
  9
$USERI3
 70
     0
  9
$USERI4
 70
     0
  9
$USERI5
 70
     0
  9
$USERR1
 40
0.0
  9
$USERR2
 40
0.0
  9
$USERR3
 40
0.0
  9
$USERR4
 40
0.0
  9
$USERR5
 40
0.0
  9
$WORLDVIEW
 70
     1
  9
$SHADEDGE
 70
     3
  9
$SHADEDIF
 70
    70
  9
$TILEMODE
 70
     1
  9
$MAXACTVP
 70
    16
  9
$PLIMCHECK
 70
     0
  9
$PEXTMIN
 10
1.0000000000000000E+020
 20
1.0000000000000000E+020
 30
1.0000000000000000E+020
  9
$PEXTMAX
 10
-1.0000000000000000E+020
 20
-1.0000000000000000E+020
 30
-1.0000000000000000E+020
  9
$PLIMMIN
 10
0.0
 20
0.0
  9
$PLIMMAX
 10
420.0
 20
297.0
  9
$UNITMODE
 70
     0
  9
$VISRETAIN
 70
     1
  9
$PLINEGEN
 70
     0
  9
$PSLTSCALE
 70
     1
  0
ENDSEC
  0
SECTION
  2
TABLES
  0
TABLE
  2
VPORT
 70
     3
  0
VPORT
  2
*ACTIVE
 70
     0
 10
0.0
 20
0.0
 11
1.0
 21
1.0
 12
-85.400641975808625
 22
22.167663966733581
 13
0.0
 23
0.0
 14
7.0
 24
7.0
 15
7.0
 25
7.0
 16
0.0
 26
0.0
 36
1.0
 17
0.0
 27
0.0
 37
0.0
 40
167.94813059958801
 41
1.369318181818181
 42
50.0
 43
0.0
 44
0.0
 50
0.0
 51
0.0
 71
     0
 72
  2000
 73
     1
 74
     0
 75
     0
 76
     0
 77
     0
 78
     0
  0
ENDTAB
  0
TABLE
  2
LTYPE
 70
    21
  0
LTYPE
  2
CONTINUOUS
 70
     0
  3
Solid line
 72
    65
 73
     0
 40
0.0
  0
LTYPE
  2
CENTER2
 70
     0
  3
___ _ ___ _ ___ _ ___ _ ___ _ ___ _ ___ _ ___ _
 72
    65
 73
     4
 40
1.125
 49
0.75
 49
-0.125
 49
0.125
 49
-0.125
  0
LTYPE
  2
HIDDEN2
 70
     0
  3
_ _ _ _ _ _ _ _ _ _ _ _ _ _ _ _ _ _ _ _ _ _ _ _
 72
    65
 73
     2
 40
0.1875
 49
0.125
 49
-0.0625
  0
LTYPE
  2
PHANTOM2
 70
     0
  3
___ _ _ ___ _ _ ___ _ _ ___ _ _ ___ _ _ ___ _ _
 72
    65
 73
     6
 40
1.25
 49
0.625
 49
-0.125
 49
0.125
 49
-0.125
 49
0.125
 49
-0.125
  0
LTYPE
  2
CENTER
 70
     0
  3
____ _ ____ _ ____ _ ____ _ ____ _ ____ _ ____ 
 72
    65
 73
     4
 40
2.0
 49
1.25
 49
-0.25
 49
0.25
 49
-0.25
  0
LTYPE
  2
AMCONSTR
 70
     0
  3
_______________________
 72
    65
 73
     2
 40
9999.0
 49
9999.0
 49
0.0
  0
LTYPE
  2
HIDDEN
 70
     0
  3
Hidden __ __ __ __ __ __ __ __ __ __ __ __ __ _
 72
    65
 73
     2
 40
9.5249999999999986
 49
6.3499999999999979
 49
-3.174999999999998
  0
LTYPE
  2
AMZIGZAG2
 70
     0
  3
/\/-/\/-/\/-/\/-/\/-/\/
 72
    65
 73
     2
 40
0.4401
 49
0.0001
 49
-0.4400000000000001
  0
LTYPE
  2
ACANSTGB
 70
     0
  3
__ . . __ . .
 72
    65
 73
     6
 40
0.35433070866
 49
0.15748031496
 49
-0.03937007874
 49
0.03937007874
 49
-0.03937007874
 49
0.03937007874
 49
-0.03937007874
  0
LTYPE
  2
ACANSTGL
 70
     0
  3
_ _ _ _ _
 72
    65
 73
     2
 40
0.11811023622
 49
0.07874015748
 49
-0.03937007874
  0
ENDTAB
  0
TABLE
  2
LAYER
 70
    10
  0
LAYER
  2
0
 70
     0
 62
     7
  6
CONTINUOUS
  0
LAYER
  2
240
 70
     0
 62
     4
  6
CONTINUOUS
  0
LAYER
  2
DEFPOINTS
 70
     0
 62
     7
  6
CONTINUOUS
  0
LAYER
  2
245
 70
     0
 62
     2
  6
CENTER2
  0
LAYER
  2
241
 70
     0
 62
   211
  6
CONTINUOUS
  0
LAYER
  2
242
 70
     0
 62
     3
  6
CONTINUOUS
  0
LAYER
  2
243
 70
     0
 62
   211
  6
HIDDEN2
  0
LAYER
  2
246
 70
     0
 62
     3
  6
PHANTOM2
  0
LAYER
  2
247
 70
     0
 62
    60
  6
CONTINUOUS
  0
LAYER
  2
250
 70
     0
 62
     3
  6
CONTINUOUS
  0
ENDTAB
  0
TABLE
  2
STYLE
 70
     9
  0
STYLE
  2
STANDARD
 70
     0
 40
0.0
 41
1.0
 50
0.0
 71
     0
 42
3.0
  3
romans.shx
  4
extfont.shx
  0
STYLE
  2
YOKO
 70
     0
 40
0.0
 41
1.0
 50
0.0
 71
     0
 42
3.0
  3
romans.shx
  4
extfont.shx
  0
STYLE
  2

 70
     1
 40
0.0
 41
1.0
 50
0.0
 71
     0
 42
3.0
  3
ltypeshp.shx
  4

  0
STYLE
  2
ACANSTS
 70
     0
 40
1.0
 41
1.0
 50
0.0
 71
     0
 42
3.0
  3
romans.shx
  4
extfont.shx
  0
STYLE
  2
ACANSGDT
 70
     0
 40
0.0
 41
1.0
 50
0.0
 71
     0
 42
3.0
  3
amgdtans.shx
  4

  0
ENDTAB
  0
TABLE
  2
VIEW
 70
     0
  0
ENDTAB
  0
TABLE
  2
UCS
 70
     0
  0
ENDTAB
  0
TABLE
  2
APPID
 70
    35
  0
APPID
  2
ACAD
 70
     0
  0
APPID
  2
GLOBAL
 70
     0
  0
APPID
  2
DETAIL
 70
     0
  0
APPID
  2
GRPNAME
 70
     0
  0
APPID
  2
GPARA
 70
     0
  0
APPID
  2
MCAD_NO_VIS
 70
     0
  0
APPID
  2
ACAD_TEMP_GRAPHIC
 70
     0
  0
APPID
  2
ACATTRIBSERVICES
 70
     0
  0
APPID
  2
GENIUS_GENSCREG_15
 70
     0
  0
APPID
  2
GENIUS_GENODEF_13
 70
     0
  0
APPID
  2
GENIUS_GENOBJ-N-SDF_13
 70
     0
  0
APPID
  2
GENIUS_GENREC_14
 70
     0
  0
APPID
  2
GENIUS_GENOBJ-N-REC_13
 70
     0
  0
APPID
  2
GENIUS_GENDIMSH_14
 70
     0
  0
APPID
  2
GENIUS_GENOBJ-N-DIM_13
 70
     0
  0
APPID
  2
GENIUS_GENDIM_13
 70
     0
  0
APPID
  2
GENIUS_GENDTOL_13
 70
     0
  0
APPID
  2
GENIUS_GENOLIS_13
 70
     0
  0
APPID
  2
GENIUS_GENOENT_13
 70
     0
  0
APPID
  2
GENIUS_GENOBJ-F-FEM_13
 70
     0
  0
APPID
  2
GENIUS_GENOREF_13
 70
     0
  0
APPID
  2
GENIUS_GEFFEM_13
 70
     0
  0
APPID
  2
GENIUS_GEFFEMP_13
 70
     0
  0
APPID
  2
AD_DRAW
 70
     0
  0
APPID
  2
DESIGNERASSEMBLIES
 70
     0
  0
APPID
  2
ACADM_DIM_EDIT
 70
     0
  0
APPID
  2
AMDT_DM_ADJ
 70
     0
  0
APPID
  2
GENIUS_GENOBJ-N-FIL_13
 70
     0
  0
APPID
  2
GENIUS_GENFIL_13
 70
     0
  0
APPID
  2
GENIUS_GENOBJ-N-CHA_13
 70
     0
  0
APPID
  2
ACAD_PSEXT
 70
     0
  0
APPID
  2
ACAD_DSTYLE_DIMINSPECT
 70
     0
  0
APPID
  2
HATCH_TYPE
 70
     0
  0
APPID
  2
HATCH_DISPLAY
 70
     0
  0
APPID
  2
HATCH_DISTANCE
 70
     0
  0
ENDTAB
  0
TABLE
  2
DIMSTYLE
 70
    29
  0
DIMSTYLE
  2
BIGT
 70
     0
  3

  4

  5

  6

  7

 40
1.0
 41
2.2299999999999991
 42
0.5
 43
7.0
 44
1.0
 45
0.0
 46
0.0
 47
0.0
 48
0.01
140
2.799999999999998
141
0.0
142
0.0
143
25.399999999999999
144
1.0
145
0.0
146
1.0
147
1.0
 71
     0
 72
     0
 73
     0
 74
     0
 75
     0
 76
     0
 77
     3
 78
     9
170
     0
171
     2
172
     1
173
     0
174
     1
175
     0
176
   256
177
   256
178
    40
  0
DIMSTYLE
  2
AM_ANSI
 70
     0
  3

  4
mm
  5

  6

  7

 40
1.0
 41
0.1
 42
0.05
 43
0.5
 44
0.1
 45
0.0
 46
0.0
 47
0.1
 48
0.1
140
0.12
141
0.0
142
0.0
143
25.399999999999999
144
1.0
145
0.0
146
0.71
147
0.06
 71
     0
 72
     0
 73
     1
 74
     1
 75
     0
 76
     0
 77
     0
 78
     7
170
     0
171
     2
172
     0
173
     0
174
     0
175
     0
176
   256
177
   256
178
     2
  0
DIMSTYLE
  2
AM_ANSI$3
 70
     0
  3

  4
mm
  5

  6

  7

 40
1.0
 41
0.1
 42
0.05
 43
0.5
 44
0.1
 45
0.0
 46
0.0
 47
0.1
 48
0.1
140
0.12
141
0.0
142
0.0
143
25.399999999999999
144
1.0
145
0.0
146
0.71
147
0.06
 71
     0
 72
     0
 73
     1
 74
     1
 75
     0
 76
     0
 77
     0
 78
     7
170
     0
171
     2
172
     0
173
     0
174
     0
175
     0
176
   256
177
   256
178
     2
  0
DIMSTYLE
  2
AM_ANSI$4
 70
     0
  3

  4
mm
  5

  6

  7

 40
1.0
 41
0.1
 42
0.05
 43
0.5
 44
0.1
 45
0.0
 46
0.0
 47
0.1
 48
0.1
140
0.12
141
0.0
142
0.0
143
25.399999999999999
144
1.0
145
0.0
146
0.71
147
0.06
 71
     0
 72
     0
 73
     1
 74
     1
 75
     0
 76
     0
 77
     0
 78
     7
170
     0
171
     2
172
     0
173
     0
174
     0
175
     0
176
   256
177
   256
178
     2
  0
DIMSTYLE
  2
AM_ANSI$7
 70
     0
  3

  4
mm
  5

  6

  7

 40
1.0
 41
0.1
 42
0.05
 43
0.5
 44
0.1
 45
0.0
 46
0.0
 47
0.1
 48
0.1
140
0.24
141
0.0
142
0.0
143
25.399999999999999
144
1.0
145
0.0
146
0.71
147
0.06
 71
     0
 72
     0
 73
     1
 74
     1
 75
     0
 76
     0
 77
     0
 78
     7
170
     0
171
     2
172
     0
173
     0
174
     0
175
     0
176
   256
177
   256
178
     2
  0
DIMSTYLE
  2
AM_ANSI$SF
 70
     0
  3

  4
mm
  5

  6

  7

 40
1.0
 41
0.1
 42
0.05
 43
0.5
 44
0.1
 45
0.0
 46
0.0
 47
0.1
 48
0.1
140
0.12
141
0.0
142
0.0
143
25.399999999999999
144
1.0
145
0.0
146
0.71
147
0.06
 71
     0
 72
     0
 73
     1
 74
     1
 75
     1
 76
     1
 77
     0
 78
     7
170
     0
171
     2
172
     0
173
     0
174
     0
175
     0
176
   256
177
   256
178
     2
  0
DIMSTYLE
  2
AM_ANSI$SH
 70
     0
  3

  4
mm
  5

  6
GENAXEH
  7

 40
1.0
 41
0.1
 42
0.05
 43
0.5
 44
0.1
 45
0.0
 46
0.0
 47
0.1
 48
0.1
140
0.12
141
0.0
142
0.0
143
25.399999999999999
144
1.0
145
0.0
146
0.71
147
0.06
 71
     0
 72
     0
 73
     1
 74
     1
 75
     1
 76
     1
 77
     0
 78
     7
170
     0
171
     2
172
     0
173
     1
174
     0
175
     0
176
   256
177
   256
178
     2
  0
ENDTAB
  0
ENDSEC
  0
SECTION
  2
BLOCKS
  0
BLOCK
  8
0
  2
$MODEL_SPACE
 70
     0
 10
0.0
 20
0.0
 30
0.0
  3
$MODEL_SPACE
  1

  0
ENDBLK
  5
1930
  8
0
  0
BLOCK
 67
     1
  8
0
  2
$PAPER_SPACE
 70
     0
 10
0.0
 20
0.0
 30
0.0
  3
$PAPER_SPACE
  1

  0
ENDBLK
  5
192C
 67
     1
  8
0
  0
BLOCK
  8
0
  2
_OPEN
 70
     0
 10
0.0
 20
0.0
 30
0.0
  3
_OPEN
  1

  0
LINE
  5
18A3
  8
0
  6
BYBLOCK
 62
     0
 10
-1.0
 20
0.1666666666666666
 30
0.0
 11
0.0
 21
0.0
 31
0.0
  0
LINE
  5
18A4
  8
0
  6
BYBLOCK
 62
     0
 10
-1.0
 20
-0.1666666666666666
 30
0.0
 11
0.0
 21
0.0
 31
0.0
  0
LINE
  5
18A5
  8
0
  6
BYBLOCK
 62
     0
 10
0.0
 20
0.0
 30
0.0
 11
-1.0
 21
0.0
 31
0.0
  0
ENDBLK
  5
18A6
  8
0
  0
BLOCK
  8
0
  2
GENAXEH
 70
     0
 10
0.0
 20
0.0
 30
0.0
  3
GENAXEH
  1

  0
LINE
  5
18CE
  8
0
 10
-1.0
 20
0.0
 30
0.0
 11
1.0
 21
0.0
 31
0.0
  0
ENDBLK
  5
18CF
  8
0
  0
ENDSEC
  0
SECTION
  2
ENTITIES
  0
LINE
  5
142A
  8
241
 10
-102.0
 20
5.567764362829676
 30
0.0
 11
-97.0
 21
5.567764362829676
 31
0.0
  0
LINE
  5
142B
  8
241
 10
-97.0
 20
-5.567764362829676
 30
0.0
 11
-102.0
 21
-5.567764362829676
 31
0.0
  0
LINE
  5
142C
  8
241
 10
0.1000000000001364
 20
3.3033057851240799
 30
0.0
 11
-77.000000000000455
 21
3.3033057851240799
 31
0.0
  0
ARC
  5
142D
  8
241
 10
0.1000000000001364
 20
3.7033057851240572
 30
0.0
 40
0.4
 50
270.0
 51
0.0
1001
GENIUS_GENOBJ-N-FIL_13
1002
{
1000
OWNER
1000
GEN
1002
}
1001
GENIUS_GENODEF_13
1002
{
1000
HIER
1070
     0
1002
}
1002
{
1000
MANEDIT
1070
     0
1002
}
1002
{
1000
NOSEL
1070
     0
1002
}
1002
{
1000
BEHIND
1070
     0
1002
}
1002
{
1000
OTHER
1070
     0
1002
}
1002
{
1000
REACTOR
1002
}
  0
LINE
  5
142E
  8
241
 10
0.5000000000002274
 20
3.7033057851240572
 30
0.0
 11
0.5
 21
6.5313730334028151
 31
0.0
  0
LINE
  5
142F
  8
240
 10
-77.000000000000213
 20
-5.0999999999998522
 30
0.0
 11
14.50000000000068
 21
-5.0999999999999091
 31
0.0
  0
LINE
  5
1430
  8
240
 10
15.00000000000068
 20
-4.5999999999999091
 30
0.0
 11
14.50000000000068
 21
-5.0999999999999091
 31
0.0
1001
GENIUS_GENFIL_13
1070
     0
1040
0.5
1040
0.5
1040
0.2
1040
45.0
1002
{
1002
}
1001
GENIUS_GENODEF_13
1002
{
1000
HIER
1070
     0
1002
}
1002
{
1000
MANEDIT
1070
     0
1002
}
1002
{
1000
NOSEL
1070
     0
1002
}
1002
{
1000
BEHIND
1070
     0
1002
}
1002
{
1000
OTHER
1070
     0
1002
}
1002
{
1000
REACTOR
1002
}
1001
GENIUS_GENOBJ-N-CHA_13
1002
{
1000
OWNER
1000
GEN
1002
}
  0
LINE
  5
1431
  8
240
 10
-92.300000000000196
 20
11.300000000000059
 30
0.0
 11
0.0000000000002274
 21
11.300000000000059
 31
0.0
  0
LINE
  5
1432
  8
240
 10
-187.0
 20
0.0
 30
0.0
 11
-187.0
 21
14.0
 31
0.0
  0
LINE
  5
1433
  8
240
 10
-92.300000000000196
 20
11.300000000000059
 30
0.0
 11
-97.0
 21
16.0
 31
0.0
  0
LINE
  5
1434
  8
241
 10
-182.0
 20
0.0
 30
0.0
 11
-182.0
 21
16.0
 31
0.0
  0
LINE
  5
1435
  8
241
 10
-97.0
 20
5.567764362829676
 30
0.0
 11
-97.0
 21
16.0
 31
0.0
  0
LINE
  5
1436
  8
240
 10
-97.0
 20
16.0
 30
0.0
 11
-185.00000000000011
 21
16.0
 31
0.0
  0
ARC
  5
1437
  8
240
 10
-185.0
 20
14.0
 30
0.0
 40
2.0
 50
90.0
 51
180.0
  0
LINE
  5
1438
  8
240
 10
-185.0
 20
-15.999999999999879
 30
0.0
 11
-97.0
 21
-15.999999999999879
 31
0.0
  0
LINE
  5
1439
  8
245
 10
-190.0
 20
0.0
 30
0.0
 11
18.000000000000679
 21
0.0
 31
0.0
  0
LINE
  5
143A
  8
240
 10
-187.0
 20
0.0000000000001137
 30
0.0
 11
-187.0
 21
-13.99999999999989
 31
0.0
  0
LINE
  5
143B
  8
241
 10
-182.0
 20
0.0000000000001137
 30
0.0
 11
-182.0
 21
-15.999999999999879
 31
0.0
  0
ARC
  5
143C
  8
240
 10
-185.0
 20
-13.99999999999989
 30
0.0
 40
2.0
 50
180.0
 51
270.0
  0
LINE
  5
143D
  8
240
 10
-92.299999999999955
 20
-11.29999999999986
 30
0.0
 11
-79.299999999999486
 21
-11.30000000000012
 31
0.0
  0
LINE
  5
143E
  8
240
 10
-92.299999999999955
 20
-11.29999999999986
 30
0.0
 11
-97.0
 21
-15.999999999999879
 31
0.0
  0
LINE
  5
143F
  8
241
 10
-97.0
 20
-5.567764362829676
 30
0.0
 11
-97.0
 21
-15.999999999999879
 31
0.0
  0
LINE
  5
1440
  8
241
 10
-102.0
 20
5.567764362829676
 30
0.0
 11
-102.0
 21
-5.567764362829676
 31
0.0
  0
LINE
  5
1441
  8
241
 10
-92.299999999999955
 20
-11.29999999999986
 30
0.0
 11
-92.300000000000196
 21
11.300000000000059
 31
0.0
  0
LINE
  5
1442
  8
241
 10
-79.000000000000455
 20
-7.0999999999998522
 30
0.0
 11
-79.000000000000455
 21
1.303305785124081
 31
0.0
  0
ARC
  5
1443
  8
241
 10
-77.000000000000455
 20
1.303305785124081
 30
0.0
 40
2.0
 50
90.0
 51
180.0
1001
GENIUS_GENODEF_13
1002
{
1000
HIER
1070
     0
1002
}
1002
{
1000
MANEDIT
1070
     0
1002
}
1002
{
1000
NOSEL
1070
     0
1002
}
1002
{
1000
BEHIND
1070
     0
1002
}
1002
{
1000
OTHER
1070
     0
1002
}
1002
{
1000
REACTOR
1002
}
1001
GENIUS_GENOBJ-N-FIL_13
1002
{
1000
OWNER
1000
GEN
1002
}
  0
LINE
  5
1444
  8
240
 10
-78.999999999999545
 20
-11.00000000000005
 30
0.0
 11
-79.000000000000455
 21
-7.1000000000002768
 31
0.0
  0
ARC
  5
1445
  8
240
 10
-77.000000000000213
 20
-7.0999999999998522
 30
0.0
 40
2.0
 50
90.0
 51
180.00000000001299
1001
GENIUS_GENODEF_13
1002
{
1000
HIER
1070
     0
1002
}
1002
{
1000
MANEDIT
1070
     0
1002
}
1002
{
1000
NOSEL
1070
     0
1002
}
1002
{
1000
BEHIND
1070
     0
1002
}
1002
{
1000
OTHER
1070
     0
1002
}
1002
{
1000
REACTOR
1002
}
1001
GENIUS_GENOBJ-N-FIL_13
1002
{
1000
OWNER
1000
GEN
1002
}
  0
LINE
  5
1446
  8
240
 10
-78.999999999999545
 20
-11.00000000000005
 30
0.0
 11
-79.299999999999486
 21
-11.30000000000012
 31
0.0
  0
LINE
  5
1447
  8
240
 10
15.00000000000068
 20
16.700000000000099
 30
0.0
 11
15.00000000000068
 21
-4.5999999999998789
 31
0.0
  0
LINE
  5
1448
  8
240
 10
14.50000000000068
 20
17.200000000000099
 30
0.0
 11
2.0958625848907091
 21
17.200000000000099
 31
0.0
  0
LINE
  5
1449
  8
240
 10
15.00000000000068
 20
16.700000000000099
 30
0.0
 11
14.50000000000068
 21
17.200000000000099
 31
0.0
1001
GENIUS_GENFIL_13
1070
     0
1040
0.5
1040
0.5
1040
0.2
1040
45.0
1002
{
1002
}
1001
GENIUS_GENOBJ-N-CHA_13
1002
{
1000
OWNER
1000
GEN
1002
}
1001
GENIUS_GENODEF_13
1002
{
1000
HIER
1070
     0
1002
}
1002
{
1000
MANEDIT
1070
     0
1002
}
1002
{
1000
NOSEL
1070
     0
1002
}
1002
{
1000
BEHIND
1070
     0
1002
}
1002
{
1000
OTHER
1070
     0
1002
}
1002
{
1000
REACTOR
1002
}
  0
LINE
  5
144A
  8
241
 10
14.50000000000068
 20
-5.0999999999999091
 30
0.0
 11
14.50000000000068
 21
-1.5798822815243041
 31
0.0
  0
LINE
  5
144B
  8
241
 10
7.9379999999998727
 20
8.5861185405985054
 30
0.0
 11
7.9380000000003292
 21
17.200000000000099
 31
0.0
  0
ARC
  5
144C
  8
241
 10
7.5380000000002383
 20
15.83423369623878
 30
0.0
 40
0.4
 50
359.99999999999682
 51
80.000000000001407
1001
GENIUS_GENODEF_13
1002
{
1000
HIER
1070
     0
1002
}
1002
{
1000
MANEDIT
1070
     0
1002
}
1002
{
1000
NOSEL
1070
     0
1002
}
1002
{
1000
BEHIND
1070
     0
1002
}
1002
{
1000
OTHER
1070
     0
1002
}
1002
{
1000
REACTOR
1002
}
1001
GENIUS_GENOBJ-N-FIL_13
1002
{
1000
OWNER
1000
GEN
1002
}
  0
LINE
  5
144D
  8
241
 10
7.6074592710670004
 20
16.228156797443631
 30
0.0
 11
0.4694592710668532
 21
17.486778785740992
 31
0.0
  0
LINE
  5
144E
  8
241
 10
0.0
 20
17.092855684535959
 30
0.0
 11
0.0
 21
9.8447405288951302
 31
0.0
  0
ARC
  5
144F
  8
241
 10
0.400000000000091
 20
9.8447405288951302
 30
0.0
 40
0.4
 50
180.00000000000321
 51
260.00000000000148
1001
GENIUS_GENOBJ-N-FIL_13
1002
{
1000
OWNER
1000
GEN
1002
}
1001
GENIUS_GENODEF_13
1002
{
1000
HIER
1070
     0
1002
}
1002
{
1000
MANEDIT
1070
     0
1002
}
1002
{
1000
NOSEL
1070
     0
1002
}
1002
{
1000
BEHIND
1070
     0
1002
}
1002
{
1000
OTHER
1070
     0
1002
}
1002
{
1000
REACTOR
1002
}
  0
ARC
  5
1450
  8
241
 10
0.3999999999998636
 20
17.092855684535959
 30
0.0
 40
0.4
 50
80.00001760009448
 51
180.0
  0
LINE
  5
1451
  8
241
 10
1.0
 20
6.499999999999714
 30
0.0
 11
15.00000000000068
 21
6.499999999999714
 31
0.0
  0
ARC
  5
1452
  8
241
 10
1.0
 20
10.49999999999971
 30
0.0
 40
4.0
 50
180.00000000000321
 51
270.0
  0
LINE
  5
1453
  8
241
 10
-3.0
 20
10.49999999999971
 30
0.0
 11
-3.0
 21
11.300000000000059
 31
0.0
  0
LINE
  5
1454
  8
241
 10
0.3305407289333289
 20
9.4508174276902821
 30
0.0
 11
7.4685407289330197
 21
8.1921954393935401
 31
0.0
  0
CIRCLE
  5
1455
  8
246
 10
3.9689999999998231
 20
12.839487112567239
 30
0.0
 40
3.968999999999999
  0
ARC
  5
1456
  8
241
 10
0.9048222275239368
 20
10.268336673821089
 30
0.0
 40
1.5
 50
136.54571864190791
 51
312.89950931049083
  0
ARC
  5
1457
  8
241
 10
7.0865199069796727
 20
9.1241715634402851
 30
0.0
 40
1.5
 50
204.5867514478538
 51
55.413266152265109
  0
ARC
  5
1458
  8
241
 10
7.5379999999997818
 20
8.5861185405985054
 30
0.0
 40
0.4
 50
260.00001760009451
 51
0.0
  0
ARC
  5
1459
  8
241
 10
-111.9999999999993
 20
0.0
 30
0.0
 40
15.99999999999924
 50
339.63586519368351
 51
20.364134806316461
  0
LINE
  5
145A
  8
245
 10
0.0
 20
0.5000000000001137
 30
0.0
 11
0.0
 21
7.6270166537922801
 31
0.0
  0
LINE
  5
145B
  8
243
 10
-1.25
 20
1.5000000000001039
 30
0.0
 11
-1.25
 21
7.1928108611689652
 31
0.0
  0
LINE
  5
145C
  8
243
 10
1.25
 20
-1.4999999999998901
 30
0.0
 11
1.25
 21
6.499999999999714
 31
0.0
  0
LINE
  5
1460
  8
243
 10
-1.25
 20
1.5000000000001039
 30
0.0
 11
-86.401923788646627
 21
1.5
 31
0.0
  0
LINE
  5
1461
  8
243
 10
1.25
 20
-1.4999999999998901
 30
0.0
 11
-86.401923788646627
 21
-1.5
 31
0.0
  0
LINE
  5
146F
  8
243
 10
-89.0
 20
-6.0000000000001119
 30
0.0
 11
-89.0
 21
5.9999999999998863
 31
0.0
  0
LINE
  5
1470
  8
243
 10
-89.0
 20
-6.0000000000001119
 30
0.0
 11
-86.401923788646627
 21
-1.5
 31
0.0
  0
LINE
  5
1471
  8
243
 10
-186.0
 20
-6.0000000000001119
 30
0.0
 11
-89.0
 21
-6.0000000000001119
 31
0.0
  0
ARC
  5
1472
  8
243
 10
-186.0
 20
-7.0000000000001119
 30
0.0
 40
1.0
 50
90.0
 51
180.0
1001
GENIUS_GENODEF_13
1002
{
1000
HIER
1070
     0
1002
}
1002
{
1000
MANEDIT
1070
     0
1002
}
1002
{
1000
NOSEL
1070
     0
1002
}
1002
{
1000
BEHIND
1070
     0
1002
}
1002
{
1000
OTHER
1070
     0
1002
}
1002
{
1000
REACTOR
1002
}
1001
GENIUS_GENOBJ-N-FIL_13
1002
{
1000
OWNER
1000
GEN
1002
}
  0
LINE
  5
1473
  8
243
 10
-89.000000000000213
 20
6.0
 30
0.0
 11
-86.401923788646627
 21
1.5
 31
0.0
  0
LINE
  5
1474
  8
243
 10
-186.0
 20
5.9999999999998863
 30
0.0
 11
-89.000000000000213
 21
6.0
 31
0.0
  0
ARC
  5
1475
  8
243
 10
-186.0
 20
7.0000000000001119
 30
0.0
 40
1.0
 50
180.0
 51
270.0
1001
GENIUS_GENODEF_13
1002
{
1000
HIER
1070
     0
1002
}
1002
{
1000
MANEDIT
1070
     0
1002
}
1002
{
1000
NOSEL
1070
     0
1002
}
1002
{
1000
BEHIND
1070
     0
1002
}
1002
{
1000
OTHER
1070
     0
1002
}
1002
{
1000
REACTOR
1002
}
1001
GENIUS_GENOBJ-N-FIL_13
1002
{
1000
OWNER
1000
GEN
1002
}
  0
LINE
  5
1476
  8
243
 10
-86.401923788646627
 20
-1.5
 30
0.0
 11
-86.401923788646627
 21
1.5
 31
0.0
  0
LINE
  5
1585
  8
242
 10
-102.0
 20
-5.567764362829676
 30
0.0
 11
-96.999999999999901
 21
5.5677643628294051
 31
0.0
  0
LINE
  5
1586
  8
242
 10
-102.0
 20
5.567764362829676
 30
0.0
 11
-97.0
 21
-5.567764362829676
 31
0.0
  0
TEXT
  5
1653
  8
241
 10
-188.0
 20
56.0
 30
0.0
 40
4.0
  1
ST32-BFM22/35-77
  7
YOKO
  0
LINE
  5
1654
  8
247
 10
-173.16633344518951
 20
12.78938240076093
 30
0.0
 11
-173.16633344518951
 21
12.78938240076093
 31
0.0
1001
HATCH_DISTANCE
1040
1.0
1001
HATCH_DISPLAY
1070
     0
1001
HATCH_TYPE
1070
     7
  0
LINE
  5
1655
  8
247
 10
-173.25762296545309
 20
13.07888359094648
 30
0.0
 11
-173.16633344518951
 21
12.78938240076093
 31
0.0
1001
HATCH_DISTANCE
1040
1.0
1001
HATCH_DISPLAY
1070
     0
1001
HATCH_TYPE
1070
     7
  0
LINE
  5
1656
  8
247
 10
-173.25762296545309
 20
13.07888359094648
 30
0.0
 11
-173.25762296545309
 21
13.07888359094648
 31
0.0
1001
HATCH_DISTANCE
1040
1.0
1001
HATCH_DISPLAY
1070
     0
1001
HATCH_TYPE
1070
     7
  0
LINE
  5
1657
  8
247
 10
-173.16633344518951
 20
12.78938240076093
 30
0.0
 11
-173.25762296545309
 21
13.07888359094648
 31
0.0
1001
HATCH_DISTANCE
1040
1.0
1001
HATCH_DISPLAY
1070
     0
1001
HATCH_TYPE
1070
     7
  0
LINE
  5
1658
  8
247
 10
-173.16633344518951
 20
12.78938240076093
 30
0.0
 11
-173.16633344518951
 21
12.78938240076093
 31
0.0
  0
LINE
  5
1659
  8
247
 10
-173.25762296545309
 20
13.07888359094648
 30
0.0
 11
-173.16633344518951
 21
12.78938240076093
 31
0.0
  0
LINE
  5
165A
  8
247
 10
-173.25762296545309
 20
13.07888359094648
 30
0.0
 11
-173.25762296545309
 21
13.07888359094648
 31
0.0
  0
LINE
  5
165B
  8
247
 10
-173.16633344518951
 20
12.78938240076093
 30
0.0
 11
-173.25762296545309
 21
13.07888359094648
 31
0.0
  0
LINE
  5
165C
  8
247
 10
-173.16633344518951
 20
12.78938240076093
 30
0.0
 11
-173.16633344518951
 21
12.78938240076093
 31
0.0
1001
HATCH_DISTANCE
1040
1.0
1001
HATCH_DISPLAY
1070
     0
1001
HATCH_TYPE
1070
     7
  0
LINE
  5
165D
  8
247
 10
-173.25762296545309
 20
13.07888359094648
 30
0.0
 11
-173.16633344518951
 21
12.78938240076093
 31
0.0
1001
HATCH_DISTANCE
1040
1.0
1001
HATCH_DISPLAY
1070
     0
1001
HATCH_TYPE
1070
     7
  0
LINE
  5
165E
  8
247
 10
-173.25762296545309
 20
13.07888359094648
 30
0.0
 11
-173.25762296545309
 21
13.07888359094648
 31
0.0
1001
HATCH_DISTANCE
1040
1.0
1001
HATCH_DISPLAY
1070
     0
1001
HATCH_TYPE
1070
     7
  0
LINE
  5
165F
  8
247
 10
-173.16633344518951
 20
12.78938240076093
 30
0.0
 11
-173.25762296545309
 21
13.07888359094648
 31
0.0
1001
HATCH_DISTANCE
1040
1.0
1001
HATCH_DISPLAY
1070
     0
1001
HATCH_TYPE
1070
     7
  0
LINE
  5
1660
  8
247
 10
-173.16633344518951
 20
12.78938240076093
 30
0.0
 11
-173.16633344518951
 21
12.78938240076093
 31
0.0
  0
LINE
  5
1661
  8
247
 10
-173.25762296545309
 20
13.07888359094648
 30
0.0
 11
-173.16633344518951
 21
12.78938240076093
 31
0.0
  0
LINE
  5
1662
  8
247
 10
-173.25762296545309
 20
13.07888359094648
 30
0.0
 11
-173.25762296545309
 21
13.07888359094648
 31
0.0
  0
LINE
  5
1663
  8
247
 10
-173.16633344518951
 20
12.78938240076093
 30
0.0
 11
-173.25762296545309
 21
13.07888359094648
 31
0.0
  0
LINE
  5
1664
  8
247
 10
-175.2101910196524
 20
13.131469192753119
 30
0.0
 11
-175.9985516153555
 21
13.131469192753119
 31
0.0
1001
HATCH_DISTANCE
1040
1.0
1001
HATCH_DISPLAY
1070
     0
1001
HATCH_TYPE
1070
     7
  0
LINE
  5
1665
  8
247
 10
-175.9924748026113
 20
10.403311791668219
 30
0.0
 11
-175.2101910196524
 21
13.131469192753119
 31
0.0
1001
HATCH_DISTANCE
1040
1.0
1001
HATCH_DISPLAY
1070
     0
1001
HATCH_TYPE
1070
     7
  0
LINE
  5
1666
  8
247
 10
-176.67046857702539
 20
10.403311791668219
 30
0.0
 11
-175.9924748026113
 21
10.403311791668219
 31
0.0
1001
HATCH_DISTANCE
1040
1.0
1001
HATCH_DISPLAY
1070
     0
1001
HATCH_TYPE
1070
     7
  0
LINE
  5
1667
  8
247
 10
-175.9837887369375
 20
12.798034134159369
 30
0.0
 11
-176.67046857702539
 21
10.403311791668219
 31
0.0
1001
HATCH_DISTANCE
1040
1.0
1001
HATCH_DISPLAY
1070
     0
1001
HATCH_TYPE
1070
     7
  0
LINE
  5
1668
  8
247
 10
-176.09416700231839
 20
12.798034134159369
 30
0.0
 11
-175.9837887369375
 21
12.798034134159369
 31
0.0
1001
HATCH_DISTANCE
1040
1.0
1001
HATCH_DISPLAY
1070
     0
1001
HATCH_TYPE
1070
     7
  0
LINE
  5
1669
  8
247
 10
-175.9985516153555
 20
13.131469192753119
 30
0.0
 11
-176.09416700231839
 21
12.798034134159369
 31
0.0
1001
HATCH_DISTANCE
1040
1.0
1001
HATCH_DISPLAY
1070
     0
1001
HATCH_TYPE
1070
     7
  0
LINE
  5
166A
  8
247
 10
-175.2101910196524
 20
13.131469192753119
 30
0.0
 11
-175.9985516153555
 21
13.131469192753119
 31
0.0
  0
LINE
  5
166B
  8
247
 10
-175.9924748026113
 20
10.403311791668219
 30
0.0
 11
-175.2101910196524
 21
13.131469192753119
 31
0.0
  0
LINE
  5
166C
  8
247
 10
-176.67046857702539
 20
10.403311791668219
 30
0.0
 11
-175.9924748026113
 21
10.403311791668219
 31
0.0
  0
LINE
  5
166D
  8
247
 10
-175.9837887369375
 20
12.798034134159369
 30
0.0
 11
-176.67046857702539
 21
10.403311791668219
 31
0.0
  0
LINE
  5
166E
  8
247
 10
-176.09416700231839
 20
12.798034134159369
 30
0.0
 11
-175.9837887369375
 21
12.798034134159369
 31
0.0
  0
LINE
  5
166F
  8
247
 10
-175.9985516153555
 20
13.131469192753119
 30
0.0
 11
-176.09416700231839
 21
12.798034134159369
 31
0.0
  0
TEXT
  5
16B6
  8
247
 10
-170.25315800997899
 20
10.380810687774691
 30
0.0
 40
2.5
  1
ST32-BFM22/35-77
  7
YOKO
 11
-170.25315800997899
 21
10.380810687774691
 31
0.0
 73
     1
  0
LINE
  5
16B7
  8
247
 10
-173.31088376867581
 20
12.74380058313397
 30
0.0
 11
-173.40217328893951
 21
13.03330177331952
 31
0.0
  0
ARC
  5
16B8
  8
247
 10
-172.85188413488669
 20
11.54004234338789
 30
0.0
 40
1.288299322128293
 50
110.8721834020771
 51
132.54194893738571
  0
ARC
  5
16B9
  8
247
 10
-174.04108548986721
 20
12.47973960901288
 30
0.0
 40
0.3182875066995621
 50
1.7101213820643351
 51
163.99839835444811
  0
LINE
  5
16BA
  8
247
 10
-174.75557447302151
 20
11.14277214075117
 30
0.0
 11
-174.3470432840567
 21
12.56748146081954
 31
0.0
  0
ARC
  5
16BB
  8
247
 10
-174.44961667883209
 20
11.055041733036321
 30
0.0
 40
0.3182872831821442
 50
164.00027305718319
 51
344.00027305718322
  0
LINE
  5
16BC
  8
247
 10
-174.1436588846426
 20
10.96731132532148
 30
0.0
 11
-173.94900632726959
 21
11.64614051843672
 31
0.0
  0
LINE
  5
16BD
  8
247
 10
-174.2012798868399
 20
11.64614051843672
 30
0.0
 11
-173.94900632726959
 21
11.64614051843672
 31
0.0
  0
LINE
  5
16BE
  8
247
 10
-174.2012798868399
 20
11.64614051843672
 30
0.0
 11
-174.1143620096426
 21
11.94927162195234
 31
0.0
  0
LINE
  5
16BF
  8
247
 10
-174.1143620096426
 20
11.94927162195234
 30
0.0
 11
-173.23139310705471
 21
11.949271621952329
 31
0.0
  0
LINE
  5
16C0
  8
247
 10
-173.67469144689841
 20
10.40331179166823
 30
0.0
 11
-173.23139310705471
 21
11.949271621952329
 31
0.0
  0
LINE
  5
16C1
  8
247
 10
-173.85250974523831
 20
10.58111864591627
 30
0.0
 11
-173.67469144689841
 21
10.40331179166823
 31
0.0
  0
ARC
  5
16C2
  8
247
 10
-174.41706968176169
 20
11.388476791630071
 30
0.0
 40
0.9851760864257813
 50
163.99975070172741
 51
304.96387329163082
  0
ARC
  5
16C3
  8
247
 10
-172.80635953771881
 20
11.33668083215742
 30
0.0
 40
2.5780792236328121
 50
155.20517736984181
 51
172.7948259620504
  0
ARC
  5
16C4
  8
247
 10
-174.19976926672271
 20
12.14630455041914
 30
0.0
 40
0.9851660728454588
 50
53.444012197055507
 51
164.0001843876849
  0
ARC
  5
16C5
  8
247
 10
-172.85188413488669
 20
11.54004234338789
 30
0.0
 40
1.591427564620969
 50
110.22964506332001
 51
118.57168892371681
  0
LINE
  5
16C6
  8
247
 10
-178.37940336096091
 20
13.13146919275313
 30
0.0
 11
-178.4663212381582
 21
12.8283380892375
 31
0.0
  0
LINE
  5
16C7
  8
247
 10
-179.0054066263418
 20
13.13146919275313
 30
0.0
 11
-178.37940336096091
 21
13.13146919275313
 31
0.0
  0
LINE
  5
16C8
  8
247
 10
-179.0054066263418
 20
12.8283380892375
 30
0.0
 11
-178.4663212381582
 21
12.8283380892375
 31
0.0
  0
ARC
  5
16C9
  8
247
 10
-179.0054066263418
 20
11.54004234338789
 30
0.0
 40
1.288295745849606
 50
90.0
 51
270.0
  0
ARC
  5
16CA
  8
247
 10
-179.0054066263418
 20
11.54004234338789
 30
0.0
 40
1.591426849365233
 50
90.0
 51
270.0
  0
LINE
  5
16CB
  8
247
 10
-179.0054066263418
 20
9.9486151441962072
 30
0.0
 11
-172.85188413488669
 21
9.9486151441961947
 31
0.0
  0
LINE
  5
16CC
  8
247
 10
-179.0054066263418
 20
10.25174623991041
 30
0.0
 11
-172.85188413488669
 21
10.2517462399104
 31
0.0
  0
ARC
  5
16CD
  8
247
 10
-172.85188413488669
 20
11.54004234338789
 30
0.0
 40
1.591426849365233
 50
270.0
 51
104.7707939660941
  0
ARC
  5
16CE
  8
247
 10
-172.85188413488669
 20
11.54004234338789
 30
0.0
 40
1.288295745849606
 50
270.0
 51
104.1274364964119
  0
LINE
  5
16CF
  8
247
 10
-173.16633344518951
 20
12.789382400760919
 30
0.0
 11
-173.25762296545309
 21
13.07888359094647
 31
0.0
  0
LINE
  5
16D0
  8
247
 10
-175.9924748026113
 20
10.40331179166823
 30
0.0
 11
-175.2101910196524
 21
13.13146919275313
 31
0.0
  0
LINE
  5
16D1
  8
247
 10
-178.846345194457
 20
10.40331179166823
 30
0.0
 11
-178.15097928869571
 21
12.82833808923662
 31
0.0
  0
ARC
  5
16D4
  8
247
 10
-177.57891202795309
 20
12.40395683313398
 30
0.0
 40
0.4546839594841006
 50
261.6626016879294
 51
66.338155095189762
  0
ARC
  5
16D6
  8
247
 10
-177.2407276712637
 20
12.37365287805585
 30
0.0
 40
0.7578227519989014
 50
287.66957754739798
 51
90.236159842671626
  0
LINE
  5
16D8
  8
247
 10
-177.39642890238511
 20
12.82041500857904
 30
0.0
 11
-177.6448414339001
 21
11.95407816455365
 31
0.0
  0
LINE
  5
16D9
  8
247
 10
-176.67046857702539
 20
10.40331179166823
 30
0.0
 11
-175.9837887369375
 21
12.79803413415938
 31
0.0
  0
LINE
  5
16DA
  8
247
 10
-175.9985516153555
 20
13.13146919275313
 30
0.0
 11
-175.2101910196524
 21
13.13146919275313
 31
0.0
  0
LINE
  5
16DD
  8
247
 10
-178.22173810827519
 20
13.13146919275313
 30
0.0
 11
-177.2438512310907
 21
13.131469192753009
 31
0.0
  0
LINE
  5
16DF
  8
247
 10
-178.308655985473
 20
12.8283380892375
 30
0.0
 11
-178.15097928869571
 21
12.82833808923662
 31
0.0
  0
LINE
  5
16E0
  8
247
 10
-178.22173810827519
 20
13.13146919275313
 30
0.0
 11
-178.308655985473
 21
12.8283380892375
 31
0.0
  0
LINE
  5
16E4
  8
247
 10
-176.09416700231839
 20
12.79803413415938
 30
0.0
 11
-175.9837887369375
 21
12.79803413415938
 31
0.0
  0
LINE
  5
16E5
  8
247
 10
-176.09416700231839
 20
12.79803413415938
 30
0.0
 11
-175.9985516153555
 21
13.13146919275313
 31
0.0
  0
ARC
  5
16E7
  8
247
 10
-177.58841062414459
 20
11.16112846399335
 30
0.0
 40
0.7578163146972659
 50
270.0
 51
40.329840654169217
  0
ARC
  5
16EA
  8
247
 10
-177.92659498083401
 20
11.19144386316327
 30
0.0
 40
0.4546969681978227
 50
261.6628542111489
 51
66.338192159110051
  0
LINE
  5
16EB
  8
247
 10
-177.74410823734081
 20
11.607914656061761
 30
0.0
 11
-177.99252485555581
 21
10.741552115620101
 31
0.0
  0
LINE
  5
16EE
  8
247
 10
-178.846345194457
 20
10.40331179166823
 30
0.0
 11
-177.58841062414459
 21
10.40331179166823
 31
0.0
  0
LINE
  5
16F0
  8
247
 10
-176.67046857702539
 20
10.40331179166823
 30
0.0
 11
-175.9924748026113
 21
10.40331179166823
 31
0.0
  0
LINE
  5
16F3
  8
250
 10
0.899999999999977
 20
17.49285568453611
 30
0.0
 11
29.0
 21
17.49285568453611
 31
0.0
  0
LINE
  5
16F4
  8
250
 10
28.0
 20
15.26285568453612
 30
0.0
 11
27.999999999999989
 21
-1.4498163960082551
 31
0.0
  0
LINE
  5
16F8
  8
250
 10
0.0
 20
17.59285568453609
 30
0.0
 11
0.0000000000000012
 21
36.0
 31
0.0
  0
LINE
  5
16F9
  8
250
 10
15.00000000000062
 20
20.300000000000239
 30
0.0
 11
15.000000000000631
 21
36.0
 31
0.0
  0
LINE
  5
16FA
  8
250
 10
2.2299999999999991
 20
35.0
 30
0.0
 11
12.77000000000062
 21
35.0
 31
0.0
  0
LINE
  5
16FE
  8
250
 10
-185.5
 20
16.00000000000011
 30
0.0
 11
-197.0
 21
16.00000000000011
 31
0.0
  0
LINE
  5
16FF
  8
250
 10
-185.5
 20
-15.999999999999771
 30
0.0
 11
-197.0
 21
-15.999999999999771
 31
0.0
  0
LINE
  5
1700
  8
250
 10
-196.0
 20
13.77000000000011
 30
0.0
 11
-196.0
 21
-13.76999999999977
 31
0.0
  0
LINE
  5
1704
  8
250
 10
-187.0
 20
14.50000000000011
 30
0.0
 11
-187.0
 21
43.0
 31
0.0
  0
LINE
  5
1705
  8
250
 10
15.000000000000851
 20
17.200000000000209
 30
0.0
 11
15.000000000000851
 21
43.0
 31
0.0
  0
LINE
  5
1706
  8
250
 10
-184.77000000000001
 20
42.0
 30
0.0
 11
12.77000000000085
 21
42.0
 31
0.0
  0
LINE
  5
170A
  8
250
 10
-77.000000000000369
 20
11.82988232013588
 30
0.0
 11
-77.000000000000369
 21
36.0
 31
0.0
  0
LINE
  5
170B
  8
250
 10
0.0
 20
17.60000000000019
 30
0.0
 11
0.0000000000000012
 21
36.0
 31
0.0
  0
LINE
  5
170C
  8
250
 10
-74.770000000000366
 20
35.0
 30
0.0
 11
-2.2299999999999991
 21
35.0
 31
0.0
  0
TEXT
  5
1710
  8
250
 10
26.999999999999989
 20
-0.7164830626749179
 30
0.0
 40
2.799999999999998
  1
\U+220535
 50
90.0
  0
LINE
  5
1711
  8
250
 10
27.62833333333333
 20
15.26285568453612
 30
0.0
 11
28.0
 21
17.49285568453611
 31
0.0
  0
LINE
  5
1712
  8
250
 10
28.371666666666659
 20
15.26285568453612
 30
0.0
 11
28.0
 21
17.49285568453611
 31
0.0
  0
LINE
  5
1713
  8
250
 10
28.0
 20
17.49285568453611
 30
0.0
 11
28.0
 21
15.26285568453612
 31
0.0
  0
TEXT
  5
1714
  8
250
 10
4.6333333333336473
 20
36.0
 30
0.0
 40
2.799999999999998
  1
15
  0
LINE
  5
1715
  8
250
 10
12.77000000000062
 20
35.37166666666667
 30
0.0
 11
15.000000000000631
 21
35.0
 31
0.0
  0
LINE
  5
1716
  8
250
 10
12.77000000000062
 20
34.62833333333333
 30
0.0
 11
15.000000000000631
 21
35.0
 31
0.0
  0
LINE
  5
1717
  8
250
 10
15.000000000000631
 20
35.0
 30
0.0
 11
12.77000000000062
 21
35.0
 31
0.0
  0
LINE
  5
1718
  8
250
 10
2.2299999999999991
 20
34.62833333333333
 30
0.0
 11
0.0000000000000011
 21
35.0
 31
0.0
  0
LINE
  5
1719
  8
250
 10
2.2299999999999991
 20
35.37166666666667
 30
0.0
 11
0.0000000000000011
 21
35.0
 31
0.0
  0
LINE
  5
171A
  8
250
 10
0.0000000000000011
 20
35.0
 30
0.0
 11
2.2299999999999991
 21
35.0
 31
0.0
  0
TEXT
  5
171B
  8
250
 10
-197.0
 20
-3.7999999999998559
 30
0.0
 40
2.799999999999998
  1
\U+220532
 50
90.0
  0
LINE
  5
171C
  8
250
 10
-195.6283333333333
 20
-13.76999999999977
 30
0.0
 11
-196.0
 21
-15.999999999999771
 31
0.0
  0
LINE
  5
171D
  8
250
 10
-196.37166666666661
 20
-13.76999999999977
 30
0.0
 11
-196.0
 21
-15.999999999999771
 31
0.0
  0
LINE
  5
171E
  8
250
 10
-196.0
 20
-15.999999999999771
 30
0.0
 11
-196.0
 21
-13.76999999999977
 31
0.0
  0
LINE
  5
171F
  8
250
 10
-196.37166666666661
 20
13.77000000000011
 30
0.0
 11
-196.0
 21
16.00000000000011
 31
0.0
  0
LINE
  5
1720
  8
250
 10
-195.6283333333333
 20
13.77000000000011
 30
0.0
 11
-196.0
 21
16.00000000000011
 31
0.0
  0
LINE
  5
1721
  8
250
 10
-196.0
 20
16.00000000000011
 30
0.0
 11
-196.0
 21
13.77000000000011
 31
0.0
  0
TEXT
  5
1722
  8
250
 10
-89.999999999999545
 20
43.0
 30
0.0
 40
2.799999999999998
  1
202
  0
LINE
  5
1723
  8
250
 10
12.77000000000085
 20
42.371666666666663
 30
0.0
 11
15.000000000000851
 21
42.0
 31
0.0
  0
LINE
  5
1724
  8
250
 10
12.77000000000085
 20
41.62833333333333
 30
0.0
 11
15.000000000000851
 21
42.0
 31
0.0
  0
LINE
  5
1725
  8
250
 10
15.000000000000851
 20
42.0
 30
0.0
 11
12.77000000000085
 21
42.0
 31
0.0
  0
LINE
  5
1726
  8
250
 10
-184.77000000000001
 20
41.62833333333333
 30
0.0
 11
-187.0
 21
42.0
 31
0.0
  0
LINE
  5
1727
  8
250
 10
-184.77000000000001
 20
42.371666666666663
 30
0.0
 11
-187.0
 21
42.0
 31
0.0
  0
LINE
  5
1728
  8
250
 10
-187.0
 20
42.0
 30
0.0
 11
-184.77000000000001
 21
42.0
 31
0.0
  0
TEXT
  5
1729
  8
250
 10
-41.166666666666863
 20
36.0
 30
0.0
 40
2.799999999999998
  1
77
  0
LINE
  5
172A
  8
250
 10
-2.2299999999999991
 20
35.37166666666667
 30
0.0
 11
0.0000000000000011
 21
35.0
 31
0.0
  0
LINE
  5
172B
  8
250
 10
-2.2299999999999991
 20
34.62833333333333
 30
0.0
 11
0.0000000000000011
 21
35.0
 31
0.0
  0
LINE
  5
172C
  8
250
 10
0.0000000000000011
 20
35.0
 30
0.0
 11
-2.2299999999999991
 21
35.0
 31
0.0
  0
LINE
  5
172D
  8
250
 10
-74.770000000000366
 20
34.62833333333333
 30
0.0
 11
-77.000000000000369
 21
35.0
 31
0.0
  0
LINE
  5
172E
  8
250
 10
-74.770000000000366
 20
35.37166666666667
 30
0.0
 11
-77.000000000000369
 21
35.0
 31
0.0
  0
LINE
  5
172F
  8
250
 10
-77.000000000000369
 20
35.0
 30
0.0
 11
-74.770000000000366
 21
35.0
 31
0.0
  0
VIEWPORT
  5
22
 67
     1
  8
0
 10
261.51769911504419
 20
148.5
 30
0.0
 40
523.0353982300885
 41
297.0
 68
     1
 69
     1
1001
ACAD
1000
MVIEW
1002
{
1070
    16
1010
0.0
1020
0.0
1030
0.0
1010
0.0
1020
0.0
1030
1.0
1040
0.0
1040
297.0
1040
261.51769911504419
1040
148.5
1040
50.0
1040
0.0
1040
0.0
1070
     0
1070
   100
1070
     1
1070
     1
1070
     0
1070
     0
1070
     0
1070
     0
1040
0.0
1040
0.0
1040
0.0
1040
1.0
1040
1.0
1040
10.0
1040
10.0
1070
     0
1002
{
1002
}
1002
}
1001
GENIUS_GENODEF_13
1002
{
1000
HIER
1070
     0
1002
}
1002
{
1000
MANEDIT
1070
     0
1002
}
1002
{
1000
NOSEL
1070
     0
1002
}
1002
{
1000
BEHIND
1070
     0
1002
}
1002
{
1000
OTHER
1070
     0
1002
}
1002
{
1000
REACTOR
1002
}
1001
GENIUS_GENOBJ-N-SDF_13
1002
{
1000
OWNER
1000
GEN
1002
}
1001
GENIUS_GENSCREG_15
1000
PF
1040
1.0
1000
DF
1040
1.0
1000
MIN
1011
0.0
1021
0.0
1031
0.0
1021
0.0
1031
0.0
1000
MAX
1011
523.0353982300885
1021
0.0
1031
0.0
1021
297.0
1031
0.0
1000
FLAGS
1070
     2
  0
ENDSEC
  0
EOF
