  0
SECTION
  2
HEADER
  9
$ACADVER
  1
AC1009
  9
$INSBASE
 10
0.0
 20
0.0
 30
0.0
  9
$EXTMIN
 10
-192.80000000000001
 20
-16.414213562372922
 30
0.0
  9
$EXTMAX
 10
29.0
 20
60.761904761904972
 30
0.0
  9
$LIMMIN
 10
0.0
 20
0.0
  9
$LIMMAX
 10
297.0
 20
210.0
  9
$ORTHOMODE
 70
     1
  9
$REGENMODE
 70
     1
  9
$FILLMODE
 70
     1
  9
$QTEXTMODE
 70
     0
  9
$MIRRTEXT
 70
     1
  9
$DRAGMODE
 70
     2
  9
$LTSCALE
 40
10.0
  9
$OSMODE
 70
    39
  9
$ATTMODE
 70
     1
  9
$TEXTSIZE
 40
3.0
  9
$TRACEWID
 40
1.0
  9
$TEXTSTYLE
  7
YOKO
  9
$CLAYER
  8
240
  9
$CELTYPE
  6
BYLAYER
  9
$CECOLOR
 62
   256
  9
$DIMSCALE
 40
1.0
  9
$DIMASZ
 40
2.2299999999999991
  9
$DIMEXO
 40
0.5
  9
$DIMDLI
 40
7.0
  9
$DIMRND
 40
0.0
  9
$DIMDLE
 40
0.0
  9
$DIMEXE
 40
1.0
  9
$DIMTP
 40
0.0
  9
$DIMTM
 40
0.01
  9
$DIMTXT
 40
2.799999999999998
  9
$DIMCEN
 40
0.0
  9
$DIMTSZ
 40
0.0
  9
$DIMTOL
 70
     0
  9
$DIMLIM
 70
     0
  9
$DIMTIH
 70
     0
  9
$DIMTOH
 70
     0
  9
$DIMSE1
 70
     0
  9
$DIMSE2
 70
     0
  9
$DIMTAD
 70
     3
  9
$DIMZIN
 70
     9
  9
$DIMBLK
  1
OPEN
  9
$DIMASO
 70
     1
  9
$DIMSHO
 70
     1
  9
$DIMPOST
  1

  9
$DIMAPOST
  1

  9
$DIMALT
 70
     0
  9
$DIMALTD
 70
     2
  9
$DIMALTF
 40
25.399999999999999
  9
$DIMLFAC
 40
1.0
  9
$DIMTOFL
 70
     1
  9
$DIMTVP
 40
0.0
  9
$DIMTIX
 70
     1
  9
$DIMSOXD
 70
     0
  9
$DIMSAH
 70
     0
  9
$DIMBLK1
  1

  9
$DIMBLK2
  1

  9
$DIMSTYLE
  2
BIGT
  9
$DIMCLRD
 70
   256
  9
$DIMCLRE
 70
   256
  9
$DIMCLRT
 70
    40
  9
$DIMTFAC
 40
1.0
  9
$DIMGAP
 40
1.0
  9
$LUNITS
 70
     2
  9
$LUPREC
 70
     3
  9
$SKETCHINC
 40
1.0
  9
$FILLETRAD
 40
0.0
  9
$AUNITS
 70
     0
  9
$AUPREC
 70
     3
  9
$MENU
  1
.
  9
$ELEVATION
 40
0.0
  9
$PELEVATION
 40
0.0
  9
$THICKNESS
 40
0.0
  9
$LIMCHECK
 70
     0
  9
$BLIPMODE
 70
     0
  9
$CHAMFERA
 40
0.25
  9
$CHAMFERB
 40
0.25
  9
$SKPOLY
 70
     0
  9
$TDCREATE
 40
2456598.6661707289
  9
$TDUPDATE
 40
2456598.7128199651
  9
$TDINDWG
 40
0.0050951273
  9
$TDUSRTIMER
 40
0.0050949421
  9
$USRTIMER
 70
     1
  9
$ANGBASE
 50
0.0
  9
$ANGDIR
 70
     0
  9
$PDMODE
 70
     1
  9
$PDSIZE
 40
0.0
  9
$PLINEWID
 40
0.0
  9
$COORDS
 70
     2
  9
$SPLFRAME
 70
     0
  9
$SPLINETYPE
 70
     6
  9
$SPLINESEGS
 70
     4
  9
$ATTDIA
 70
     1
  9
$ATTREQ
 70
     1
  9
$HANDLING
 70
     1
  9
$HANDSEED
  5
1A5F
  9
$SURFTAB1
 70
     6
  9
$SURFTAB2
 70
     6
  9
$SURFTYPE
 70
     6
  9
$SURFU
 70
     6
  9
$SURFV
 70
     6
  9
$UCSNAME
  2

  9
$UCSORG
 10
0.0
 20
0.0
 30
0.0
  9
$UCSXDIR
 10
1.0
 20
0.0
 30
0.0
  9
$UCSYDIR
 10
0.0
 20
1.0
 30
0.0
  9
$PUCSNAME
  2

  9
$PUCSORG
 10
0.0
 20
0.0
 30
0.0
  9
$PUCSXDIR
 10
1.0
 20
0.0
 30
0.0
  9
$PUCSYDIR
 10
0.0
 20
1.0
 30
0.0
  9
$USERI1
 70
     1
  9
$USERI2
 70
     0
  9
$USERI3
 70
     0
  9
$USERI4
 70
     0
  9
$USERI5
 70
     0
  9
$USERR1
 40
0.0
  9
$USERR2
 40
0.0
  9
$USERR3
 40
0.0
  9
$USERR4
 40
0.0
  9
$USERR5
 40
0.0
  9
$WORLDVIEW
 70
     1
  9
$SHADEDGE
 70
     3
  9
$SHADEDIF
 70
    70
  9
$TILEMODE
 70
     1
  9
$MAXACTVP
 70
    16
  9
$PLIMCHECK
 70
     0
  9
$PEXTMIN
 10
1.0000000000000000E+020
 20
1.0000000000000000E+020
 30
1.0000000000000000E+020
  9
$PEXTMAX
 10
-1.0000000000000000E+020
 20
-1.0000000000000000E+020
 30
-1.0000000000000000E+020
  9
$PLIMMIN
 10
0.0
 20
0.0
  9
$PLIMMAX
 10
420.0
 20
297.0
  9
$UNITMODE
 70
     0
  9
$VISRETAIN
 70
     1
  9
$PLINEGEN
 70
     0
  9
$PSLTSCALE
 70
     1
  0
ENDSEC
  0
SECTION
  2
TABLES
  0
TABLE
  2
VPORT
 70
     3
  0
VPORT
  2
*ACTIVE
 70
     0
 10
0.0
 20
0.0
 11
1.0
 21
1.0
 12
-81.899779850151063
 22
22.167663966733581
 13
0.0
 23
0.0
 14
7.0
 24
7.0
 15
7.0
 25
7.0
 16
0.0
 26
0.0
 36
1.0
 17
0.0
 27
0.0
 37
0.0
 40
162.80940672260181
 41
1.369318181818181
 42
50.0
 43
0.0
 44
0.0
 50
0.0
 51
0.0
 71
     0
 72
  2000
 73
     1
 74
     0
 75
     0
 76
     0
 77
     0
 78
     0
  0
ENDTAB
  0
TABLE
  2
LTYPE
 70
    21
  0
LTYPE
  2
CONTINUOUS
 70
     0
  3
Solid line
 72
    65
 73
     0
 40
0.0
  0
LTYPE
  2
CENTER2
 70
     0
  3
___ _ ___ _ ___ _ ___ _ ___ _ ___ _ ___ _ ___ _
 72
    65
 73
     4
 40
1.125
 49
0.75
 49
-0.125
 49
0.125
 49
-0.125
  0
LTYPE
  2
HIDDEN2
 70
     0
  3
_ _ _ _ _ _ _ _ _ _ _ _ _ _ _ _ _ _ _ _ _ _ _ _
 72
    65
 73
     2
 40
0.1875
 49
0.125
 49
-0.0625
  0
LTYPE
  2
PHANTOM2
 70
     0
  3
___ _ _ ___ _ _ ___ _ _ ___ _ _ ___ _ _ ___ _ _
 72
    65
 73
     6
 40
1.25
 49
0.625
 49
-0.125
 49
0.125
 49
-0.125
 49
0.125
 49
-0.125
  0
LTYPE
  2
CENTER
 70
     0
  3
____ _ ____ _ ____ _ ____ _ ____ _ ____ _ ____ 
 72
    65
 73
     4
 40
2.0
 49
1.25
 49
-0.25
 49
0.25
 49
-0.25
  0
LTYPE
  2
AMCONSTR
 70
     0
  3
_______________________
 72
    65
 73
     2
 40
9999.0
 49
9999.0
 49
0.0
  0
LTYPE
  2
HIDDEN
 70
     0
  3
Hidden __ __ __ __ __ __ __ __ __ __ __ __ __ _
 72
    65
 73
     2
 40
9.5249999999999986
 49
6.3499999999999979
 49
-3.174999999999998
  0
LTYPE
  2
AMZIGZAG2
 70
     0
  3
/\/-/\/-/\/-/\/-/\/-/\/
 72
    65
 73
     2
 40
0.4401
 49
0.0001
 49
-0.4400000000000001
  0
LTYPE
  2
ACANSTGB
 70
     0
  3
__ . . __ . .
 72
    65
 73
     6
 40
0.35433070866
 49
0.15748031496
 49
-0.03937007874
 49
0.03937007874
 49
-0.03937007874
 49
0.03937007874
 49
-0.03937007874
  0
LTYPE
  2
ACANSTGL
 70
     0
  3
_ _ _ _ _
 72
    65
 73
     2
 40
0.11811023622
 49
0.07874015748
 49
-0.03937007874
  0
ENDTAB
  0
TABLE
  2
LAYER
 70
    10
  0
LAYER
  2
0
 70
     0
 62
     7
  6
CONTINUOUS
  0
LAYER
  2
240
 70
     0
 62
     4
  6
CONTINUOUS
  0
LAYER
  2
DEFPOINTS
 70
     0
 62
     7
  6
CONTINUOUS
  0
LAYER
  2
245
 70
     0
 62
     2
  6
CENTER2
  0
LAYER
  2
241
 70
     0
 62
   211
  6
CONTINUOUS
  0
LAYER
  2
242
 70
     0
 62
     3
  6
CONTINUOUS
  0
LAYER
  2
243
 70
     0
 62
   211
  6
HIDDEN2
  0
LAYER
  2
246
 70
     0
 62
     3
  6
PHANTOM2
  0
LAYER
  2
247
 70
     0
 62
    60
  6
CONTINUOUS
  0
LAYER
  2
250
 70
     0
 62
     3
  6
CONTINUOUS
  0
ENDTAB
  0
TABLE
  2
STYLE
 70
     9
  0
STYLE
  2
STANDARD
 70
     0
 40
0.0
 41
1.0
 50
0.0
 71
     0
 42
3.0
  3
romans.shx
  4
extfont.shx
  0
STYLE
  2
YOKO
 70
     0
 40
0.0
 41
1.0
 50
0.0
 71
     0
 42
3.0
  3
romans.shx
  4
extfont.shx
  0
STYLE
  2

 70
     1
 40
0.0
 41
1.0
 50
0.0
 71
     0
 42
3.0
  3
ltypeshp.shx
  4

  0
STYLE
  2
ACANSTS
 70
     0
 40
1.0
 41
1.0
 50
0.0
 71
     0
 42
3.0
  3
romans.shx
  4
extfont.shx
  0
STYLE
  2
ACANSGDT
 70
     0
 40
0.0
 41
1.0
 50
0.0
 71
     0
 42
3.0
  3
amgdtans.shx
  4

  0
ENDTAB
  0
TABLE
  2
VIEW
 70
     0
  0
ENDTAB
  0
TABLE
  2
UCS
 70
     0
  0
ENDTAB
  0
TABLE
  2
APPID
 70
    35
  0
APPID
  2
ACAD
 70
     0
  0
APPID
  2
GLOBAL
 70
     0
  0
APPID
  2
DETAIL
 70
     0
  0
APPID
  2
GRPNAME
 70
     0
  0
APPID
  2
GPARA
 70
     0
  0
APPID
  2
MCAD_NO_VIS
 70
     0
  0
APPID
  2
ACAD_TEMP_GRAPHIC
 70
     0
  0
APPID
  2
ACATTRIBSERVICES
 70
     0
  0
APPID
  2
GENIUS_GENSCREG_15
 70
     0
  0
APPID
  2
GENIUS_GENODEF_13
 70
     0
  0
APPID
  2
GENIUS_GENOBJ-N-SDF_13
 70
     0
  0
APPID
  2
GENIUS_GENREC_14
 70
     0
  0
APPID
  2
GENIUS_GENOBJ-N-REC_13
 70
     0
  0
APPID
  2
GENIUS_GENDIMSH_14
 70
     0
  0
APPID
  2
GENIUS_GENOBJ-N-DIM_13
 70
     0
  0
APPID
  2
GENIUS_GENDIM_13
 70
     0
  0
APPID
  2
GENIUS_GENDTOL_13
 70
     0
  0
APPID
  2
GENIUS_GENOLIS_13
 70
     0
  0
APPID
  2
GENIUS_GENOENT_13
 70
     0
  0
APPID
  2
GENIUS_GENOBJ-F-FEM_13
 70
     0
  0
APPID
  2
GENIUS_GENOREF_13
 70
     0
  0
APPID
  2
GENIUS_GEFFEM_13
 70
     0
  0
APPID
  2
GENIUS_GEFFEMP_13
 70
     0
  0
APPID
  2
AD_DRAW
 70
     0
  0
APPID
  2
DESIGNERASSEMBLIES
 70
     0
  0
APPID
  2
ACADM_DIM_EDIT
 70
     0
  0
APPID
  2
AMDT_DM_ADJ
 70
     0
  0
APPID
  2
GENIUS_GENOBJ-N-FIL_13
 70
     0
  0
APPID
  2
GENIUS_GENFIL_13
 70
     0
  0
APPID
  2
GENIUS_GENOBJ-N-CHA_13
 70
     0
  0
APPID
  2
ACAD_PSEXT
 70
     0
  0
APPID
  2
ACAD_DSTYLE_DIMINSPECT
 70
     0
  0
APPID
  2
HATCH_TYPE
 70
     0
  0
APPID
  2
HATCH_DISPLAY
 70
     0
  0
APPID
  2
HATCH_DISTANCE
 70
     0
  0
ENDTAB
  0
TABLE
  2
DIMSTYLE
 70
    29
  0
DIMSTYLE
  2
BIGT
 70
     0
  3

  4

  5

  6

  7

 40
1.0
 41
2.2299999999999991
 42
0.5
 43
7.0
 44
1.0
 45
0.0
 46
0.0
 47
0.0
 48
0.01
140
2.799999999999998
141
0.0
142
0.0
143
25.399999999999999
144
1.0
145
0.0
146
1.0
147
1.0
 71
     0
 72
     0
 73
     0
 74
     0
 75
     0
 76
     0
 77
     3
 78
     9
170
     0
171
     2
172
     1
173
     0
174
     1
175
     0
176
   256
177
   256
178
    40
  0
DIMSTYLE
  2
AM_ANSI
 70
     0
  3

  4
mm
  5

  6

  7

 40
1.0
 41
0.1
 42
0.05
 43
0.5
 44
0.1
 45
0.0
 46
0.0
 47
0.1
 48
0.1
140
0.12
141
0.0
142
0.0
143
25.399999999999999
144
1.0
145
0.0
146
0.71
147
0.06
 71
     0
 72
     0
 73
     1
 74
     1
 75
     0
 76
     0
 77
     0
 78
     7
170
     0
171
     2
172
     0
173
     0
174
     0
175
     0
176
   256
177
   256
178
     2
  0
DIMSTYLE
  2
AM_ANSI$3
 70
     0
  3

  4
mm
  5

  6

  7

 40
1.0
 41
0.1
 42
0.05
 43
0.5
 44
0.1
 45
0.0
 46
0.0
 47
0.1
 48
0.1
140
0.12
141
0.0
142
0.0
143
25.399999999999999
144
1.0
145
0.0
146
0.71
147
0.06
 71
     0
 72
     0
 73
     1
 74
     1
 75
     0
 76
     0
 77
     0
 78
     7
170
     0
171
     2
172
     0
173
     0
174
     0
175
     0
176
   256
177
   256
178
     2
  0
DIMSTYLE
  2
AM_ANSI$4
 70
     0
  3

  4
mm
  5

  6

  7

 40
1.0
 41
0.1
 42
0.05
 43
0.5
 44
0.1
 45
0.0
 46
0.0
 47
0.1
 48
0.1
140
0.12
141
0.0
142
0.0
143
25.399999999999999
144
1.0
145
0.0
146
0.71
147
0.06
 71
     0
 72
     0
 73
     1
 74
     1
 75
     0
 76
     0
 77
     0
 78
     7
170
     0
171
     2
172
     0
173
     0
174
     0
175
     0
176
   256
177
   256
178
     2
  0
DIMSTYLE
  2
AM_ANSI$7
 70
     0
  3

  4
mm
  5

  6

  7

 40
1.0
 41
0.1
 42
0.05
 43
0.5
 44
0.1
 45
0.0
 46
0.0
 47
0.1
 48
0.1
140
0.24
141
0.0
142
0.0
143
25.399999999999999
144
1.0
145
0.0
146
0.71
147
0.06
 71
     0
 72
     0
 73
     1
 74
     1
 75
     0
 76
     0
 77
     0
 78
     7
170
     0
171
     2
172
     0
173
     0
174
     0
175
     0
176
   256
177
   256
178
     2
  0
DIMSTYLE
  2
AM_ANSI$SF
 70
     0
  3

  4
mm
  5

  6

  7

 40
1.0
 41
0.1
 42
0.05
 43
0.5
 44
0.1
 45
0.0
 46
0.0
 47
0.1
 48
0.1
140
0.12
141
0.0
142
0.0
143
25.399999999999999
144
1.0
145
0.0
146
0.71
147
0.06
 71
     0
 72
     0
 73
     1
 74
     1
 75
     1
 76
     1
 77
     0
 78
     7
170
     0
171
     2
172
     0
173
     0
174
     0
175
     0
176
   256
177
   256
178
     2
  0
DIMSTYLE
  2
AM_ANSI$SH
 70
     0
  3

  4
mm
  5

  6
GENAXEH
  7

 40
1.0
 41
0.1
 42
0.05
 43
0.5
 44
0.1
 45
0.0
 46
0.0
 47
0.1
 48
0.1
140
0.12
141
0.0
142
0.0
143
25.399999999999999
144
1.0
145
0.0
146
0.71
147
0.06
 71
     0
 72
     0
 73
     1
 74
     1
 75
     1
 76
     1
 77
     0
 78
     7
170
     0
171
     2
172
     0
173
     1
174
     0
175
     0
176
   256
177
   256
178
     2
  0
ENDTAB
  0
ENDSEC
  0
SECTION
  2
BLOCKS
  0
BLOCK
  8
0
  2
$MODEL_SPACE
 70
     0
 10
0.0
 20
0.0
 30
0.0
  3
$MODEL_SPACE
  1

  0
ENDBLK
  5
195D
  8
0
  0
BLOCK
 67
     1
  8
0
  2
$PAPER_SPACE
 70
     0
 10
0.0
 20
0.0
 30
0.0
  3
$PAPER_SPACE
  1

  0
ENDBLK
  5
1959
 67
     1
  8
0
  0
BLOCK
  8
0
  2
_OPEN
 70
     0
 10
0.0
 20
0.0
 30
0.0
  3
_OPEN
  1

  0
LINE
  5
18D0
  8
0
  6
BYBLOCK
 62
     0
 10
-1.0
 20
0.1666666666666666
 30
0.0
 11
0.0
 21
0.0
 31
0.0
  0
LINE
  5
18D1
  8
0
  6
BYBLOCK
 62
     0
 10
-1.0
 20
-0.1666666666666666
 30
0.0
 11
0.0
 21
0.0
 31
0.0
  0
LINE
  5
18D2
  8
0
  6
BYBLOCK
 62
     0
 10
0.0
 20
0.0
 30
0.0
 11
-1.0
 21
0.0
 31
0.0
  0
ENDBLK
  5
18D3
  8
0
  0
BLOCK
  8
0
  2
GENAXEH
 70
     0
 10
0.0
 20
0.0
 30
0.0
  3
GENAXEH
  1

  0
LINE
  5
18FB
  8
0
 10
-1.0
 20
0.0
 30
0.0
 11
1.0
 21
0.0
 31
0.0
  0
ENDBLK
  5
18FC
  8
0
  0
ENDSEC
  0
SECTION
  2
ENTITIES
  0
LINE
  5
142B
  8
241
 10
-95.0
 20
5.5677643628297329
 30
0.0
 11
-90.0
 21
5.5677643628297329
 31
0.0
  0
LINE
  5
142C
  8
241
 10
-90.0
 20
-5.5677643628296201
 30
0.0
 11
-95.0
 21
-5.5677643628296201
 31
0.0
  0
LINE
  5
142D
  8
241
 10
0.1000000000001364
 20
3.0513513513515118
 30
0.0
 11
-70.000000000000455
 21
3.0513513513515118
 31
0.0
  0
ARC
  5
142E
  8
241
 10
0.1000000000001364
 20
3.4513513513514891
 30
0.0
 40
0.4
 50
270.0
 51
0.0
1001
GENIUS_GENOBJ-N-FIL_13
1002
{
1000
OWNER
1000
GEN
1002
}
1001
GENIUS_GENODEF_13
1002
{
1000
HIER
1070
     0
1002
}
1002
{
1000
MANEDIT
1070
     0
1002
}
1002
{
1000
NOSEL
1070
     0
1002
}
1002
{
1000
BEHIND
1070
     0
1002
}
1002
{
1000
OTHER
1070
     0
1002
}
1002
{
1000
REACTOR
1002
}
  0
LINE
  5
142F
  8
241
 10
0.5
 20
3.4513513513514891
 30
0.0
 11
0.5
 21
5.031373033403268
 31
0.0
  0
LINE
  5
1430
  8
240
 10
-70.000000000000227
 20
-4.5999999999998522
 30
0.0
 11
14.50000000000068
 21
-4.5999999999999091
 31
0.0
  0
LINE
  5
1431
  8
240
 10
15.00000000000068
 20
-4.0999999999999091
 30
0.0
 11
14.50000000000068
 21
-4.5999999999999091
 31
0.0
1001
GENIUS_GENFIL_13
1070
     0
1040
0.5
1040
0.5
1040
0.2
1040
45.0
1002
{
1002
}
1001
GENIUS_GENODEF_13
1002
{
1000
HIER
1070
     0
1002
}
1002
{
1000
MANEDIT
1070
     0
1002
}
1002
{
1000
NOSEL
1070
     0
1002
}
1002
{
1000
BEHIND
1070
     0
1002
}
1002
{
1000
OTHER
1070
     0
1002
}
1002
{
1000
REACTOR
1002
}
1001
GENIUS_GENOBJ-N-CHA_13
1002
{
1000
OWNER
1000
GEN
1002
}
  0
LINE
  5
1432
  8
240
 10
-84.300000000000196
 20
10.30000000000012
 30
0.0
 11
0.0000000000004547
 21
10.30000000000012
 31
0.0
  0
LINE
  5
1433
  8
240
 10
-180.0
 20
0.0000000000000568
 30
0.0
 11
-180.0
 21
14.00000000000005
 31
0.0
  0
LINE
  5
1434
  8
240
 10
-84.300000000000196
 20
10.30000000000012
 30
0.0
 11
-90.0
 21
16.00000000000006
 31
0.0
  0
LINE
  5
1435
  8
241
 10
-175.0
 20
0.0000000000000568
 30
0.0
 11
-175.0
 21
16.00000000000006
 31
0.0
  0
LINE
  5
1436
  8
241
 10
-90.0
 20
5.5677643628297329
 30
0.0
 11
-90.0
 21
16.00000000000006
 31
0.0
  0
LINE
  5
1437
  8
240
 10
-90.0
 20
16.00000000000006
 30
0.0
 11
-178.0
 21
16.00000000000006
 31
0.0
  0
ARC
  5
1438
  8
240
 10
-178.0
 20
14.00000000000005
 30
0.0
 40
2.0
 50
90.0
 51
180.0
  0
LINE
  5
1439
  8
240
 10
-178.0
 20
-15.999999999999821
 30
0.0
 11
-90.0
 21
-15.999999999999821
 31
0.0
  0
LINE
  5
143A
  8
245
 10
-183.0
 20
0.0000000000000568
 30
0.0
 11
18.000000000000679
 21
0.0
 31
0.0
  0
LINE
  5
143B
  8
240
 10
-180.0
 20
0.0000000000001705
 30
0.0
 11
-180.0
 21
-13.999999999999829
 31
0.0
  0
LINE
  5
143C
  8
241
 10
-175.0
 20
0.0000000000001705
 30
0.0
 11
-175.0
 21
-15.999999999999821
 31
0.0
  0
ARC
  5
143D
  8
240
 10
-178.0
 20
-13.999999999999829
 30
0.0
 40
2.0
 50
180.0
 51
270.0
  0
LINE
  5
143E
  8
240
 10
-84.299999999999685
 20
-10.299999999999841
 30
0.0
 11
-72.2999999999995
 21
-10.30000000000007
 31
0.0
  0
LINE
  5
143F
  8
240
 10
-84.299999999999685
 20
-10.299999999999841
 30
0.0
 11
-90.0
 21
-15.999999999999821
 31
0.0
  0
LINE
  5
1440
  8
241
 10
-90.0
 20
-5.5677643628296201
 30
0.0
 11
-90.0
 21
-15.999999999999821
 31
0.0
  0
LINE
  5
1441
  8
241
 10
-95.0
 20
5.5677643628297329
 30
0.0
 11
-95.0
 21
-5.5677643628296201
 31
0.0
  0
LINE
  5
1442
  8
241
 10
-84.299999999999685
 20
-10.299999999999841
 30
0.0
 11
-84.299999999999955
 21
10.30000000000012
 31
0.0
  0
LINE
  5
1443
  8
241
 10
-72.000000000000455
 20
-6.5999999999998522
 30
0.0
 11
-72.000000000000455
 21
1.051351351351512
 31
0.0
  0
ARC
  5
1444
  8
241
 10
-70.000000000000455
 20
1.051351351351512
 30
0.0
 40
2.0
 50
90.0
 51
180.0
1001
GENIUS_GENODEF_13
1002
{
1000
HIER
1070
     0
1002
}
1002
{
1000
MANEDIT
1070
     0
1002
}
1002
{
1000
NOSEL
1070
     0
1002
}
1002
{
1000
BEHIND
1070
     0
1002
}
1002
{
1000
OTHER
1070
     0
1002
}
1002
{
1000
REACTOR
1002
}
1001
GENIUS_GENOBJ-N-FIL_13
1002
{
1000
OWNER
1000
GEN
1002
}
  0
LINE
  5
1445
  8
240
 10
-71.999999999999545
 20
-10.0
 30
0.0
 11
-72.000000000000242
 21
-6.6000000000003052
 31
0.0
  0
ARC
  5
1446
  8
240
 10
-70.000000000000227
 20
-6.5999999999998522
 30
0.0
 40
2.0
 50
90.0
 51
180.00000000001299
1001
GENIUS_GENODEF_13
1002
{
1000
HIER
1070
     0
1002
}
1002
{
1000
MANEDIT
1070
     0
1002
}
1002
{
1000
NOSEL
1070
     0
1002
}
1002
{
1000
BEHIND
1070
     0
1002
}
1002
{
1000
OTHER
1070
     0
1002
}
1002
{
1000
REACTOR
1002
}
1001
GENIUS_GENOBJ-N-FIL_13
1002
{
1000
OWNER
1000
GEN
1002
}
  0
LINE
  5
1447
  8
240
 10
-71.999999999999545
 20
-10.0
 30
0.0
 11
-72.2999999999995
 21
-10.30000000000007
 31
0.0
  0
LINE
  5
1448
  8
240
 10
15.000000000000909
 20
15.200000000000101
 30
0.0
 11
15.00000000000068
 21
-4.0999999999999091
 31
0.0
  0
LINE
  5
1449
  8
240
 10
14.500000000000901
 20
15.700000000000101
 30
0.0
 11
2.0920622996836751
 21
15.700000000000101
 31
0.0
  0
LINE
  5
144A
  8
240
 10
15.000000000000909
 20
15.200000000000101
 30
0.0
 11
14.500000000000901
 21
15.700000000000101
 31
0.0
1001
GENIUS_GENFIL_13
1070
     0
1040
0.5
1040
0.5
1040
0.2
1040
45.0
1002
{
1002
}
1001
GENIUS_GENOBJ-N-CHA_13
1002
{
1000
OWNER
1000
GEN
1002
}
1001
GENIUS_GENODEF_13
1002
{
1000
HIER
1070
     0
1002
}
1002
{
1000
MANEDIT
1070
     0
1002
}
1002
{
1000
NOSEL
1070
     0
1002
}
1002
{
1000
BEHIND
1070
     0
1002
}
1002
{
1000
OTHER
1070
     0
1002
}
1002
{
1000
REACTOR
1002
}
  0
LINE
  5
144B
  8
241
 10
14.50000000000068
 20
-4.5999999999999091
 30
0.0
 11
14.50000000000068
 21
-1.0798822815243041
 31
0.0
  0
LINE
  5
144C
  8
241
 10
7.9379999999998727
 20
7.0854484477821398
 30
0.0
 11
7.9380000000005539
 21
15.700000000000159
 31
0.0
  0
ARC
  5
144D
  8
241
 10
7.538000000000463
 20
14.333563603422419
 30
0.0
 40
0.4
 50
0.0
 51
80.000000000001407
1001
GENIUS_GENODEF_13
1002
{
1000
HIER
1070
     0
1002
}
1002
{
1000
MANEDIT
1070
     0
1002
}
1002
{
1000
NOSEL
1070
     0
1002
}
1002
{
1000
BEHIND
1070
     0
1002
}
1002
{
1000
OTHER
1070
     0
1002
}
1002
{
1000
REACTOR
1002
}
1001
GENIUS_GENOBJ-N-FIL_13
1002
{
1000
OWNER
1000
GEN
1002
}
  0
LINE
  5
144E
  8
241
 10
7.6074592710670004
 20
14.727486704627269
 30
0.0
 11
0.4694592710668532
 21
15.986108692924621
 31
0.0
  0
LINE
  5
144F
  8
241
 10
0.0
 20
15.592185591719611
 30
0.0
 11
0.0
 21
8.3440704360787663
 31
0.0
  0
ARC
  5
1450
  8
241
 10
0.400000000000091
 20
8.3440704360787663
 30
0.0
 40
0.4
 50
180.00000000000659
 51
260.00000000000148
1001
GENIUS_GENOBJ-N-FIL_13
1002
{
1000
OWNER
1000
GEN
1002
}
1001
GENIUS_GENODEF_13
1002
{
1000
HIER
1070
     0
1002
}
1002
{
1000
MANEDIT
1070
     0
1002
}
1002
{
1000
NOSEL
1070
     0
1002
}
1002
{
1000
BEHIND
1070
     0
1002
}
1002
{
1000
OTHER
1070
     0
1002
}
1002
{
1000
REACTOR
1002
}
  0
ARC
  5
1451
  8
241
 10
0.400000000000091
 20
15.592185591719611
 30
0.0
 40
0.4
 50
80.000017600094296
 51
180.0
  0
LINE
  5
1452
  8
241
 10
1.0
 20
5.0000000000001688
 30
0.0
 11
15.00000000000068
 21
5.0000000000001688
 31
0.0
  0
ARC
  5
1453
  8
241
 10
1.0
 20
9.0000000000001688
 30
0.0
 40
4.0
 50
180.00000000000659
 51
270.0
  0
LINE
  5
1454
  8
241
 10
-3.0
 20
9.0000000000001688
 30
0.0
 11
-3.0
 21
10.30000000000012
 31
0.0
  0
LINE
  5
1455
  8
241
 10
0.3305407289333289
 20
7.9501473348739182
 30
0.0
 11
7.4685407289330197
 21
6.691525346577178
 31
0.0
  0
CIRCLE
  5
1456
  8
246
 10
3.96900000000005
 20
11.33881701975087
 30
0.0
 40
3.968999999999999
  0
ARC
  5
1457
  8
241
 10
0.9048222275239368
 20
8.7676665810047325
 30
0.0
 40
1.5
 50
127.10050828958521
 51
312.8995093104943
  0
ARC
  5
1458
  8
241
 10
7.0865199069796727
 20
7.6235014706239213
 30
0.0
 40
1.5
 50
204.5867514478538
 51
55.413266152265109
  0
ARC
  5
1459
  8
241
 10
7.5380000000000091
 20
7.0854484477821398
 30
0.0
 40
0.4
 50
260.00001760009428
 51
0.0
  0
ARC
  5
145A
  8
241
 10
-104.9999999999993
 20
0.0000000000000568
 30
0.0
 40
15.99999999999924
 50
339.63586519368351
 51
20.364134806316461
  0
LINE
  5
145B
  8
245
 10
0.0
 20
0.5000000000001708
 30
0.0
 11
0.0
 21
6.1270166537927349
 31
0.0
  0
LINE
  5
145C
  8
243
 10
-1.25
 20
1.5000000000001621
 30
0.0
 11
-1.25
 21
5.6928108611693906
 31
0.0
  0
LINE
  5
145D
  8
243
 10
1.25
 20
-1.499999999999833
 30
0.0
 11
1.25
 21
5.0000000000001688
 31
0.0
  0
LINE
  5
1461
  8
243
 10
-1.25
 20
1.5000000000001621
 30
0.0
 11
-79.401923788646613
 21
1.5000000000000551
 31
0.0
  0
LINE
  5
1462
  8
243
 10
1.25
 20
-1.499999999999833
 30
0.0
 11
-79.4019237886464
 21
-1.499999999999942
 31
0.0
  0
LINE
  5
1470
  8
243
 10
-82.0
 20
-6.000000000000056
 30
0.0
 11
-82.0
 21
5.9999999999999432
 31
0.0
  0
LINE
  5
1471
  8
243
 10
-82.0
 20
-6.000000000000056
 30
0.0
 11
-79.401923788646613
 21
-1.499999999999942
 31
0.0
  0
LINE
  5
1472
  8
243
 10
-179.0
 20
-6.000000000000056
 30
0.0
 11
-82.0
 21
-6.000000000000056
 31
0.0
  0
ARC
  5
1473
  8
243
 10
-179.0
 20
-7.000000000000056
 30
0.0
 40
1.0
 50
90.0
 51
180.0
1001
GENIUS_GENODEF_13
1002
{
1000
HIER
1070
     0
1002
}
1002
{
1000
MANEDIT
1070
     0
1002
}
1002
{
1000
NOSEL
1070
     0
1002
}
1002
{
1000
BEHIND
1070
     0
1002
}
1002
{
1000
OTHER
1070
     0
1002
}
1002
{
1000
REACTOR
1002
}
1001
GENIUS_GENOBJ-N-FIL_13
1002
{
1000
OWNER
1000
GEN
1002
}
  0
LINE
  5
1474
  8
243
 10
-82.0
 20
6.000000000000056
 30
0.0
 11
-79.401923788646613
 21
1.5000000000000551
 31
0.0
  0
LINE
  5
1475
  8
243
 10
-179.0
 20
5.9999999999999432
 30
0.0
 11
-82.0
 21
6.000000000000056
 31
0.0
  0
ARC
  5
1476
  8
243
 10
-179.0
 20
7.0000000000001688
 30
0.0
 40
1.0
 50
180.0
 51
270.0
1001
GENIUS_GENODEF_13
1002
{
1000
HIER
1070
     0
1002
}
1002
{
1000
MANEDIT
1070
     0
1002
}
1002
{
1000
NOSEL
1070
     0
1002
}
1002
{
1000
BEHIND
1070
     0
1002
}
1002
{
1000
OTHER
1070
     0
1002
}
1002
{
1000
REACTOR
1002
}
1001
GENIUS_GENOBJ-N-FIL_13
1002
{
1000
OWNER
1000
GEN
1002
}
  0
LINE
  5
1477
  8
243
 10
-79.4019237886464
 20
-1.499999999999942
 30
0.0
 11
-79.4019237886464
 21
1.5000000000000551
 31
0.0
  0
TEXT
  5
1660
  8
241
 10
-181.00000000000011
 20
56.000000000000171
 30
0.0
 40
4.0
  1
ST32-BFM20/32-70
  7
YOKO
  0
LINE
  5
1661
  8
247
 10
-166.16633344518951
 20
13.06060040322445
 30
0.0
 11
-166.16633344518951
 21
13.06060040322445
 31
0.0
1001
HATCH_DISTANCE
1040
1.0
1001
HATCH_DISPLAY
1070
     0
1001
HATCH_TYPE
1070
     7
  0
LINE
  5
1662
  8
247
 10
-166.25762296545321
 20
13.35010159340999
 30
0.0
 11
-166.16633344518951
 21
13.06060040322445
 31
0.0
1001
HATCH_DISTANCE
1040
1.0
1001
HATCH_DISPLAY
1070
     0
1001
HATCH_TYPE
1070
     7
  0
LINE
  5
1663
  8
247
 10
-166.25762296545321
 20
13.35010159340999
 30
0.0
 11
-166.25762296545321
 21
13.35010159340999
 31
0.0
1001
HATCH_DISTANCE
1040
1.0
1001
HATCH_DISPLAY
1070
     0
1001
HATCH_TYPE
1070
     7
  0
LINE
  5
1664
  8
247
 10
-166.16633344518951
 20
13.06060040322445
 30
0.0
 11
-166.25762296545321
 21
13.35010159340999
 31
0.0
1001
HATCH_DISTANCE
1040
1.0
1001
HATCH_DISPLAY
1070
     0
1001
HATCH_TYPE
1070
     7
  0
LINE
  5
1665
  8
247
 10
-166.16633344518951
 20
13.06060040322445
 30
0.0
 11
-166.16633344518951
 21
13.06060040322445
 31
0.0
  0
LINE
  5
1666
  8
247
 10
-166.25762296545321
 20
13.35010159340999
 30
0.0
 11
-166.16633344518951
 21
13.06060040322445
 31
0.0
  0
LINE
  5
1667
  8
247
 10
-166.25762296545321
 20
13.35010159340999
 30
0.0
 11
-166.25762296545321
 21
13.35010159340999
 31
0.0
  0
LINE
  5
1668
  8
247
 10
-166.16633344518951
 20
13.06060040322445
 30
0.0
 11
-166.25762296545321
 21
13.35010159340999
 31
0.0
  0
LINE
  5
1669
  8
247
 10
-166.16633344518951
 20
13.06060040322445
 30
0.0
 11
-166.16633344518951
 21
13.06060040322445
 31
0.0
1001
HATCH_DISTANCE
1040
1.0
1001
HATCH_DISPLAY
1070
     0
1001
HATCH_TYPE
1070
     7
  0
LINE
  5
166A
  8
247
 10
-166.25762296545321
 20
13.35010159340999
 30
0.0
 11
-166.16633344518951
 21
13.06060040322445
 31
0.0
1001
HATCH_DISTANCE
1040
1.0
1001
HATCH_DISPLAY
1070
     0
1001
HATCH_TYPE
1070
     7
  0
LINE
  5
166B
  8
247
 10
-166.25762296545321
 20
13.35010159340999
 30
0.0
 11
-166.25762296545321
 21
13.35010159340999
 31
0.0
1001
HATCH_DISTANCE
1040
1.0
1001
HATCH_DISPLAY
1070
     0
1001
HATCH_TYPE
1070
     7
  0
LINE
  5
166C
  8
247
 10
-166.16633344518951
 20
13.06060040322445
 30
0.0
 11
-166.25762296545321
 21
13.35010159340999
 31
0.0
1001
HATCH_DISTANCE
1040
1.0
1001
HATCH_DISPLAY
1070
     0
1001
HATCH_TYPE
1070
     7
  0
LINE
  5
166D
  8
247
 10
-166.16633344518951
 20
13.06060040322445
 30
0.0
 11
-166.16633344518951
 21
13.06060040322445
 31
0.0
  0
LINE
  5
166E
  8
247
 10
-166.25762296545321
 20
13.35010159340999
 30
0.0
 11
-166.16633344518951
 21
13.06060040322445
 31
0.0
  0
LINE
  5
166F
  8
247
 10
-166.25762296545321
 20
13.35010159340999
 30
0.0
 11
-166.25762296545321
 21
13.35010159340999
 31
0.0
  0
LINE
  5
1670
  8
247
 10
-166.16633344518951
 20
13.06060040322445
 30
0.0
 11
-166.25762296545321
 21
13.35010159340999
 31
0.0
  0
LINE
  5
1671
  8
247
 10
-168.2101910196524
 20
13.402687195216631
 30
0.0
 11
-168.9985516153555
 21
13.402687195216631
 31
0.0
1001
HATCH_DISTANCE
1040
1.0
1001
HATCH_DISPLAY
1070
     0
1001
HATCH_TYPE
1070
     7
  0
LINE
  5
1672
  8
247
 10
-168.99247480261141
 20
10.674529794131731
 30
0.0
 11
-168.2101910196524
 21
13.402687195216631
 31
0.0
1001
HATCH_DISTANCE
1040
1.0
1001
HATCH_DISPLAY
1070
     0
1001
HATCH_TYPE
1070
     7
  0
LINE
  5
1673
  8
247
 10
-169.67046857702539
 20
10.674529794131731
 30
0.0
 11
-168.99247480261141
 21
10.674529794131731
 31
0.0
1001
HATCH_DISTANCE
1040
1.0
1001
HATCH_DISPLAY
1070
     0
1001
HATCH_TYPE
1070
     7
  0
LINE
  5
1674
  8
247
 10
-168.9837887369375
 20
13.069252136622881
 30
0.0
 11
-169.67046857702539
 21
10.674529794131731
 31
0.0
1001
HATCH_DISTANCE
1040
1.0
1001
HATCH_DISPLAY
1070
     0
1001
HATCH_TYPE
1070
     7
  0
LINE
  5
1675
  8
247
 10
-169.09416700231839
 20
13.069252136622881
 30
0.0
 11
-168.9837887369375
 21
13.069252136622881
 31
0.0
1001
HATCH_DISTANCE
1040
1.0
1001
HATCH_DISPLAY
1070
     0
1001
HATCH_TYPE
1070
     7
  0
LINE
  5
1676
  8
247
 10
-168.9985516153555
 20
13.402687195216631
 30
0.0
 11
-169.09416700231839
 21
13.069252136622881
 31
0.0
1001
HATCH_DISTANCE
1040
1.0
1001
HATCH_DISPLAY
1070
     0
1001
HATCH_TYPE
1070
     7
  0
LINE
  5
1677
  8
247
 10
-168.2101910196524
 20
13.402687195216631
 30
0.0
 11
-168.9985516153555
 21
13.402687195216631
 31
0.0
  0
LINE
  5
1678
  8
247
 10
-168.99247480261141
 20
10.674529794131731
 30
0.0
 11
-168.2101910196524
 21
13.402687195216631
 31
0.0
  0
LINE
  5
1679
  8
247
 10
-169.67046857702539
 20
10.674529794131731
 30
0.0
 11
-168.99247480261141
 21
10.674529794131731
 31
0.0
  0
LINE
  5
167A
  8
247
 10
-168.9837887369375
 20
13.069252136622881
 30
0.0
 11
-169.67046857702539
 21
10.674529794131731
 31
0.0
  0
LINE
  5
167B
  8
247
 10
-169.09416700231839
 20
13.069252136622881
 30
0.0
 11
-168.9837887369375
 21
13.069252136622881
 31
0.0
  0
LINE
  5
167C
  8
247
 10
-168.9985516153555
 20
13.402687195216631
 30
0.0
 11
-169.09416700231839
 21
13.069252136622881
 31
0.0
  0
TEXT
  5
16C3
  8
247
 10
-163.25315800997899
 20
10.652028690238209
 30
0.0
 40
2.5
  1
ST32-BFM20/32-70
  7
YOKO
 11
-163.25315800997899
 21
10.652028690238209
 31
0.0
 73
     1
  0
LINE
  5
16C4
  8
247
 10
-166.31088376867581
 20
13.015018585597479
 30
0.0
 11
-166.40217328893951
 21
13.30451977578303
 31
0.0
  0
ARC
  5
16C5
  8
247
 10
-165.85188413488669
 20
11.8112603458514
 30
0.0
 40
1.288299322128293
 50
110.8721834020771
 51
132.54194893738571
  0
ARC
  5
16C6
  8
247
 10
-167.04108548986721
 20
12.7509576114764
 30
0.0
 40
0.3182875066995621
 50
1.7101213820643351
 51
163.99839835444811
  0
LINE
  5
16C7
  8
247
 10
-167.75557447302151
 20
11.41399014321469
 30
0.0
 11
-167.3470432840567
 21
12.83869946328304
 31
0.0
  0
ARC
  5
16C8
  8
247
 10
-167.44961667883209
 20
11.32625973549983
 30
0.0
 40
0.3182872831821442
 50
164.00027305718319
 51
344.00027305718322
  0
LINE
  5
16C9
  8
247
 10
-167.1436588846426
 20
11.238529327785001
 30
0.0
 11
-166.94900632726959
 21
11.91735852090023
 31
0.0
  0
LINE
  5
16CA
  8
247
 10
-167.2012798868399
 20
11.91735852090023
 30
0.0
 11
-166.94900632726959
 21
11.91735852090023
 31
0.0
  0
LINE
  5
16CB
  8
247
 10
-167.2012798868399
 20
11.91735852090023
 30
0.0
 11
-167.1143620096426
 21
12.22048962441586
 31
0.0
  0
LINE
  5
16CC
  8
247
 10
-167.1143620096426
 20
12.22048962441586
 30
0.0
 11
-166.23139310705471
 21
12.220489624415849
 31
0.0
  0
LINE
  5
16CD
  8
247
 10
-166.67469144689841
 20
10.67452979413174
 30
0.0
 11
-166.23139310705471
 21
12.220489624415849
 31
0.0
  0
LINE
  5
16CE
  8
247
 10
-166.85250974523831
 20
10.85233664837979
 30
0.0
 11
-166.67469144689841
 21
10.67452979413174
 31
0.0
  0
ARC
  5
16CF
  8
247
 10
-167.41706968176169
 20
11.65969479409358
 30
0.0
 40
0.9851760864257813
 50
163.99975070172741
 51
304.96387329163082
  0
ARC
  5
16D0
  8
247
 10
-165.80635953771881
 20
11.607898834620929
 30
0.0
 40
2.5780792236328121
 50
155.20517736984181
 51
172.7948259620504
  0
ARC
  5
16D1
  8
247
 10
-167.19976926672271
 20
12.41752255288265
 30
0.0
 40
0.9851660728454588
 50
53.444012197055507
 51
164.0001843876849
  0
ARC
  5
16D2
  8
247
 10
-165.85188413488669
 20
11.8112603458514
 30
0.0
 40
1.591427564620969
 50
110.22964506332001
 51
118.57168892371681
  0
LINE
  5
16D3
  8
247
 10
-171.37940336096091
 20
13.40268719521664
 30
0.0
 11
-171.4663212381582
 21
13.09955609170102
 31
0.0
  0
LINE
  5
16D4
  8
247
 10
-172.0054066263418
 20
13.40268719521664
 30
0.0
 11
-171.37940336096091
 21
13.40268719521664
 31
0.0
  0
LINE
  5
16D5
  8
247
 10
-172.0054066263418
 20
13.09955609170102
 30
0.0
 11
-171.4663212381582
 21
13.09955609170102
 31
0.0
  0
ARC
  5
16D6
  8
247
 10
-172.0054066263418
 20
11.8112603458514
 30
0.0
 40
1.288295745849606
 50
90.0
 51
270.0
  0
ARC
  5
16D7
  8
247
 10
-172.0054066263418
 20
11.8112603458514
 30
0.0
 40
1.591426849365233
 50
90.0
 51
270.0
  0
LINE
  5
16D8
  8
247
 10
-172.0054066263418
 20
10.21983314665972
 30
0.0
 11
-165.85188413488669
 21
10.21983314665971
 31
0.0
  0
LINE
  5
16D9
  8
247
 10
-172.0054066263418
 20
10.522964242373931
 30
0.0
 11
-165.85188413488669
 21
10.522964242373909
 31
0.0
  0
ARC
  5
16DA
  8
247
 10
-165.85188413488669
 20
11.8112603458514
 30
0.0
 40
1.591426849365233
 50
270.0
 51
104.7707939660941
  0
ARC
  5
16DB
  8
247
 10
-165.85188413488669
 20
11.8112603458514
 30
0.0
 40
1.288295745849606
 50
270.0
 51
104.1274364964119
  0
LINE
  5
16DC
  8
247
 10
-166.16633344518951
 20
13.06060040322444
 30
0.0
 11
-166.25762296545321
 21
13.350101593409979
 31
0.0
  0
LINE
  5
16DD
  8
247
 10
-168.99247480261141
 20
10.67452979413174
 30
0.0
 11
-168.2101910196524
 21
13.40268719521664
 31
0.0
  0
LINE
  5
16DE
  8
247
 10
-171.84634519445709
 20
10.67452979413174
 30
0.0
 11
-171.15097928869571
 21
13.09955609170013
 31
0.0
  0
ARC
  5
16E1
  8
247
 10
-170.57891202795321
 20
12.67517483559749
 30
0.0
 40
0.4546839594841006
 50
261.6626016879294
 51
66.338155095189762
  0
ARC
  5
16E3
  8
247
 10
-170.2407276712637
 20
12.64487088051937
 30
0.0
 40
0.7578227519989014
 50
287.66957754739798
 51
90.236159842671626
  0
LINE
  5
16E5
  8
247
 10
-170.39642890238511
 20
13.09163301104256
 30
0.0
 11
-170.6448414339001
 21
12.225296167017159
 31
0.0
  0
LINE
  5
16E6
  8
247
 10
-169.67046857702539
 20
10.67452979413174
 30
0.0
 11
-168.9837887369375
 21
13.06925213662289
 31
0.0
  0
LINE
  5
16E7
  8
247
 10
-168.9985516153555
 20
13.40268719521664
 30
0.0
 11
-168.2101910196524
 21
13.40268719521664
 31
0.0
  0
LINE
  5
16EA
  8
247
 10
-171.22173810827519
 20
13.40268719521664
 30
0.0
 11
-170.24385123109059
 21
13.402687195216529
 31
0.0
  0
LINE
  5
16EC
  8
247
 10
-171.308655985473
 20
13.09955609170102
 30
0.0
 11
-171.15097928869571
 21
13.09955609170013
 31
0.0
  0
LINE
  5
16ED
  8
247
 10
-171.22173810827519
 20
13.40268719521664
 30
0.0
 11
-171.308655985473
 21
13.09955609170102
 31
0.0
  0
LINE
  5
16F1
  8
247
 10
-169.09416700231839
 20
13.06925213662289
 30
0.0
 11
-168.9837887369375
 21
13.06925213662289
 31
0.0
  0
LINE
  5
16F2
  8
247
 10
-169.09416700231839
 20
13.06925213662289
 30
0.0
 11
-168.9985516153555
 21
13.40268719521664
 31
0.0
  0
ARC
  5
16F4
  8
247
 10
-170.58841062414459
 20
11.43234646645686
 30
0.0
 40
0.7578163146972659
 50
270.0
 51
40.329840654169217
  0
ARC
  5
16F7
  8
247
 10
-170.92659498083401
 20
11.46266186562679
 30
0.0
 40
0.4546969681978227
 50
261.6628542111489
 51
66.338192159110051
  0
LINE
  5
16F8
  8
247
 10
-170.74410823734081
 20
11.87913265852527
 30
0.0
 11
-170.99252485555581
 21
11.012770118083621
 31
0.0
  0
LINE
  5
16FB
  8
247
 10
-171.84634519445709
 20
10.67452979413174
 30
0.0
 11
-170.58841062414459
 21
10.67452979413174
 31
0.0
  0
LINE
  5
16FD
  8
247
 10
-169.67046857702539
 20
10.67452979413174
 30
0.0
 11
-168.99247480261141
 21
10.67452979413174
 31
0.0
  0
LINE
  5
1700
  8
242
 10
-95.0
 20
-5.5677643628296201
 30
0.0
 11
-89.999999999999915
 21
5.5677643628294611
 31
0.0
  0
LINE
  5
1701
  8
242
 10
-95.0
 20
5.5677643628297329
 30
0.0
 11
-89.999999999999915
 21
-5.5677643628293563
 31
0.0
  0
LINE
  5
171E
  8
250
 10
0.900000000000091
 20
15.99218559171959
 30
0.0
 11
29.0
 21
15.992185591719579
 31
0.0
  0
LINE
  5
171F
  8
250
 10
28.000000000000011
 20
13.762185591719581
 30
0.0
 11
28.0
 21
0.0508536968083355
 31
0.0
  0
LINE
  5
1723
  8
250
 10
0.0
 20
16.092185591719719
 30
0.0
 11
0.0000000000000012
 21
36.0
 31
0.0
  0
LINE
  5
1724
  8
250
 10
15.00000000000062
 20
20.300000000000299
 30
0.0
 11
15.000000000000631
 21
36.0
 31
0.0
  0
LINE
  5
1725
  8
250
 10
2.23
 20
35.0
 30
0.0
 11
12.77000000000062
 21
35.0
 31
0.0
  0
LINE
  5
1729
  8
250
 10
-178.5
 20
16.000000000000171
 30
0.0
 11
-190.0
 21
16.000000000000171
 31
0.0
  0
LINE
  5
172A
  8
250
 10
-178.5
 20
-15.99999999999971
 30
0.0
 11
-190.0
 21
-15.99999999999971
 31
0.0
  0
LINE
  5
172B
  8
250
 10
-189.0
 20
13.77000000000017
 30
0.0
 11
-189.0
 21
-13.76999999999971
 31
0.0
  0
LINE
  5
172F
  8
250
 10
-180.0
 20
14.500000000000171
 30
0.0
 11
-180.0
 21
43.0
 31
0.0
  0
LINE
  5
1730
  8
250
 10
15.000000000000851
 20
15.700000000000211
 30
0.0
 11
15.000000000000851
 21
43.0
 31
0.0
  0
LINE
  5
1731
  8
250
 10
-177.77000000000001
 20
42.0
 30
0.0
 11
12.77000000000085
 21
42.0
 31
0.0
  0
LINE
  5
1735
  8
250
 10
-70.000000000000384
 20
11.490314700939731
 30
0.0
 11
-70.000000000000384
 21
36.0
 31
0.0
  0
LINE
  5
1736
  8
250
 10
0.0
 20
17.60000000000025
 30
0.0
 11
0.0000000000000012
 21
36.0
 31
0.0
  0
LINE
  5
1737
  8
250
 10
-67.770000000000394
 20
35.0
 30
0.0
 11
-2.2299999999999991
 21
35.0
 31
0.0
  0
TEXT
  5
173B
  8
250
 10
27.0
 20
0.7841870301416734
 30
0.0
 40
2.799999999999998
  1
\U+220532
 50
90.0
  0
LINE
  5
173C
  8
250
 10
27.628333333333341
 20
13.762185591719581
 30
0.0
 11
28.000000000000011
 21
15.992185591719579
 31
0.0
  0
LINE
  5
173D
  8
250
 10
28.37166666666667
 20
13.762185591719581
 30
0.0
 11
28.000000000000011
 21
15.992185591719579
 31
0.0
  0
LINE
  5
173E
  8
250
 10
28.000000000000011
 20
15.992185591719579
 30
0.0
 11
28.000000000000011
 21
13.762185591719581
 31
0.0
  0
TEXT
  5
173F
  8
250
 10
4.6333333333336482
 20
36.0
 30
0.0
 40
2.799999999999998
  1
15
  0
LINE
  5
1740
  8
250
 10
12.77000000000062
 20
35.37166666666667
 30
0.0
 11
15.000000000000631
 21
35.0
 31
0.0
  0
LINE
  5
1741
  8
250
 10
12.77000000000062
 20
34.62833333333333
 30
0.0
 11
15.000000000000631
 21
35.0
 31
0.0
  0
LINE
  5
1742
  8
250
 10
15.000000000000631
 20
35.0
 30
0.0
 11
12.77000000000062
 21
35.0
 31
0.0
  0
LINE
  5
1743
  8
250
 10
2.23
 20
34.62833333333333
 30
0.0
 11
0.0000000000000012
 21
35.0
 31
0.0
  0
LINE
  5
1744
  8
250
 10
2.23
 20
35.37166666666667
 30
0.0
 11
0.0000000000000012
 21
35.0
 31
0.0
  0
LINE
  5
1745
  8
250
 10
0.0000000000000012
 20
35.0
 30
0.0
 11
2.23
 21
35.0
 31
0.0
  0
TEXT
  5
1746
  8
250
 10
-190.0
 20
-3.7999999999997982
 30
0.0
 40
2.799999999999998
  1
\U+220532
 50
90.0
  0
LINE
  5
1747
  8
250
 10
-188.6283333333333
 20
-13.76999999999971
 30
0.0
 11
-189.0
 21
-15.99999999999971
 31
0.0
  0
LINE
  5
1748
  8
250
 10
-189.37166666666661
 20
-13.76999999999971
 30
0.0
 11
-189.0
 21
-15.99999999999971
 31
0.0
  0
LINE
  5
1749
  8
250
 10
-189.0
 20
-15.99999999999971
 30
0.0
 11
-189.0
 21
-13.76999999999971
 31
0.0
  0
LINE
  5
174A
  8
250
 10
-189.37166666666661
 20
13.77000000000017
 30
0.0
 11
-189.0
 21
16.000000000000171
 31
0.0
  0
LINE
  5
174B
  8
250
 10
-188.6283333333333
 20
13.77000000000017
 30
0.0
 11
-189.0
 21
16.000000000000171
 31
0.0
  0
LINE
  5
174C
  8
250
 10
-189.0
 20
16.000000000000171
 30
0.0
 11
-189.0
 21
13.77000000000017
 31
0.0
  0
TEXT
  5
174D
  8
250
 10
-86.699999999999577
 20
43.0
 30
0.0
 40
2.799999999999998
  1
195
  0
LINE
  5
174E
  8
250
 10
12.77000000000085
 20
42.371666666666663
 30
0.0
 11
15.000000000000851
 21
42.0
 31
0.0
  0
LINE
  5
174F
  8
250
 10
12.77000000000085
 20
41.62833333333333
 30
0.0
 11
15.000000000000851
 21
42.0
 31
0.0
  0
LINE
  5
1750
  8
250
 10
15.000000000000851
 20
42.0
 30
0.0
 11
12.77000000000085
 21
42.0
 31
0.0
  0
LINE
  5
1751
  8
250
 10
-177.77000000000001
 20
41.62833333333333
 30
0.0
 11
-180.0
 21
42.0
 31
0.0
  0
LINE
  5
1752
  8
250
 10
-177.77000000000001
 20
42.371666666666663
 30
0.0
 11
-180.0
 21
42.0
 31
0.0
  0
LINE
  5
1753
  8
250
 10
-180.0
 20
42.0
 30
0.0
 11
-177.77000000000001
 21
42.0
 31
0.0
  0
TEXT
  5
1754
  8
250
 10
-37.66666666666687
 20
36.0
 30
0.0
 40
2.799999999999998
  1
70
  0
LINE
  5
1755
  8
250
 10
-2.2299999999999991
 20
35.37166666666667
 30
0.0
 11
0.0000000000000011
 21
35.0
 31
0.0
  0
LINE
  5
1756
  8
250
 10
-2.2299999999999991
 20
34.62833333333333
 30
0.0
 11
0.0000000000000011
 21
35.0
 31
0.0
  0
LINE
  5
1757
  8
250
 10
0.0000000000000011
 20
35.0
 30
0.0
 11
-2.2299999999999991
 21
35.0
 31
0.0
  0
LINE
  5
1758
  8
250
 10
-67.770000000000394
 20
34.62833333333333
 30
0.0
 11
-70.000000000000384
 21
35.0
 31
0.0
  0
LINE
  5
1759
  8
250
 10
-67.770000000000394
 20
35.37166666666667
 30
0.0
 11
-70.000000000000384
 21
35.0
 31
0.0
  0
LINE
  5
175A
  8
250
 10
-70.000000000000384
 20
35.0
 30
0.0
 11
-67.770000000000394
 21
35.0
 31
0.0
  0
VIEWPORT
  5
22
 67
     1
  8
0
 10
261.51769911504419
 20
148.5
 30
0.0
 40
523.0353982300885
 41
297.0
 68
     1
 69
     1
1001
ACAD
1000
MVIEW
1002
{
1070
    16
1010
0.0
1020
0.0
1030
0.0
1010
0.0
1020
0.0
1030
1.0
1040
0.0
1040
297.0
1040
261.51769911504419
1040
148.5
1040
50.0
1040
0.0
1040
0.0
1070
     0
1070
   100
1070
     1
1070
     1
1070
     0
1070
     0
1070
     0
1070
     0
1040
0.0
1040
0.0
1040
0.0
1040
1.0
1040
1.0
1040
10.0
1040
10.0
1070
     0
1002
{
1002
}
1002
}
1001
GENIUS_GENODEF_13
1002
{
1000
HIER
1070
     0
1002
}
1002
{
1000
MANEDIT
1070
     0
1002
}
1002
{
1000
NOSEL
1070
     0
1002
}
1002
{
1000
BEHIND
1070
     0
1002
}
1002
{
1000
OTHER
1070
     0
1002
}
1002
{
1000
REACTOR
1002
}
1001
GENIUS_GENOBJ-N-SDF_13
1002
{
1000
OWNER
1000
GEN
1002
}
1001
GENIUS_GENSCREG_15
1000
PF
1040
1.0
1000
DF
1040
1.0
1000
MIN
1011
0.0
1021
0.0
1031
0.0
1021
0.0
1031
0.0
1000
MAX
1011
523.0353982300885
1021
0.0
1031
0.0
1021
297.0
1031
0.0
1000
FLAGS
1070
     2
  0
ENDSEC
  0
EOF
