  0
SECTION
  2
HEADER
  9
$ACADVER
  1
AC1009
  9
$INSBASE
 10
0.0
 20
0.0
 30
0.0
  9
$EXTMIN
 10
-185.80000000000001
 20
-16.414213562372979
 30
0.0
  9
$EXTMAX
 10
29.0
 20
60.761904761904908
 30
0.0
  9
$LIMMIN
 10
0.0
 20
0.0
  9
$LIMMAX
 10
297.0
 20
210.0
  9
$ORTHOMODE
 70
     1
  9
$REGENMODE
 70
     1
  9
$FILLMODE
 70
     1
  9
$QTEXTMODE
 70
     0
  9
$MIRRTEXT
 70
     1
  9
$DRAGMODE
 70
     2
  9
$LTSCALE
 40
10.0
  9
$OSMODE
 70
    39
  9
$ATTMODE
 70
     1
  9
$TEXTSIZE
 40
3.0
  9
$TRACEWID
 40
1.0
  9
$TEXTSTYLE
  7
YOKO
  9
$CLAYER
  8
240
  9
$CELTYPE
  6
BYLAYER
  9
$CECOLOR
 62
   256
  9
$DIMSCALE
 40
1.0
  9
$DIMASZ
 40
2.2299999999999991
  9
$DIMEXO
 40
0.5
  9
$DIMDLI
 40
7.0
  9
$DIMRND
 40
0.0
  9
$DIMDLE
 40
0.0
  9
$DIMEXE
 40
1.0
  9
$DIMTP
 40
0.0
  9
$DIMTM
 40
0.01
  9
$DIMTXT
 40
2.799999999999998
  9
$DIMCEN
 40
0.0
  9
$DIMTSZ
 40
0.0
  9
$DIMTOL
 70
     0
  9
$DIMLIM
 70
     0
  9
$DIMTIH
 70
     0
  9
$DIMTOH
 70
     0
  9
$DIMSE1
 70
     0
  9
$DIMSE2
 70
     0
  9
$DIMTAD
 70
     3
  9
$DIMZIN
 70
     9
  9
$DIMBLK
  1
OPEN
  9
$DIMASO
 70
     1
  9
$DIMSHO
 70
     1
  9
$DIMPOST
  1

  9
$DIMAPOST
  1

  9
$DIMALT
 70
     0
  9
$DIMALTD
 70
     2
  9
$DIMALTF
 40
25.399999999999999
  9
$DIMLFAC
 40
1.0
  9
$DIMTOFL
 70
     1
  9
$DIMTVP
 40
0.0
  9
$DIMTIX
 70
     1
  9
$DIMSOXD
 70
     0
  9
$DIMSAH
 70
     0
  9
$DIMBLK1
  1

  9
$DIMBLK2
  1

  9
$DIMSTYLE
  2
BIGT
  9
$DIMCLRD
 70
   256
  9
$DIMCLRE
 70
   256
  9
$DIMCLRT
 70
    40
  9
$DIMTFAC
 40
1.0
  9
$DIMGAP
 40
1.0
  9
$LUNITS
 70
     2
  9
$LUPREC
 70
     3
  9
$SKETCHINC
 40
1.0
  9
$FILLETRAD
 40
0.0
  9
$AUNITS
 70
     0
  9
$AUPREC
 70
     3
  9
$MENU
  1
.
  9
$ELEVATION
 40
0.0
  9
$PELEVATION
 40
0.0
  9
$THICKNESS
 40
0.0
  9
$LIMCHECK
 70
     0
  9
$BLIPMODE
 70
     0
  9
$CHAMFERA
 40
0.25
  9
$CHAMFERB
 40
0.25
  9
$SKPOLY
 70
     0
  9
$TDCREATE
 40
2456598.660071041
  9
$TDUPDATE
 40
2456598.7130289348
  9
$TDINDWG
 40
0.0064549653
  9
$TDUSRTIMER
 40
0.0064549653
  9
$USRTIMER
 70
     1
  9
$ANGBASE
 50
0.0
  9
$ANGDIR
 70
     0
  9
$PDMODE
 70
     1
  9
$PDSIZE
 40
0.0
  9
$PLINEWID
 40
0.0
  9
$COORDS
 70
     2
  9
$SPLFRAME
 70
     0
  9
$SPLINETYPE
 70
     6
  9
$SPLINESEGS
 70
     4
  9
$ATTDIA
 70
     1
  9
$ATTREQ
 70
     1
  9
$HANDLING
 70
     1
  9
$HANDSEED
  5
1A5D
  9
$SURFTAB1
 70
     6
  9
$SURFTAB2
 70
     6
  9
$SURFTYPE
 70
     6
  9
$SURFU
 70
     6
  9
$SURFV
 70
     6
  9
$UCSNAME
  2

  9
$UCSORG
 10
0.0
 20
0.0
 30
0.0
  9
$UCSXDIR
 10
1.0
 20
0.0
 30
0.0
  9
$UCSYDIR
 10
0.0
 20
1.0
 30
0.0
  9
$PUCSNAME
  2

  9
$PUCSORG
 10
0.0
 20
0.0
 30
0.0
  9
$PUCSXDIR
 10
1.0
 20
0.0
 30
0.0
  9
$PUCSYDIR
 10
0.0
 20
1.0
 30
0.0
  9
$USERI1
 70
     1
  9
$USERI2
 70
     0
  9
$USERI3
 70
     0
  9
$USERI4
 70
     0
  9
$USERI5
 70
     0
  9
$USERR1
 40
0.0
  9
$USERR2
 40
0.0
  9
$USERR3
 40
0.0
  9
$USERR4
 40
0.0
  9
$USERR5
 40
0.0
  9
$WORLDVIEW
 70
     1
  9
$SHADEDGE
 70
     3
  9
$SHADEDIF
 70
    70
  9
$TILEMODE
 70
     1
  9
$MAXACTVP
 70
    16
  9
$PLIMCHECK
 70
     0
  9
$PEXTMIN
 10
1.0000000000000000E+020
 20
1.0000000000000000E+020
 30
1.0000000000000000E+020
  9
$PEXTMAX
 10
-1.0000000000000000E+020
 20
-1.0000000000000000E+020
 30
-1.0000000000000000E+020
  9
$PLIMMIN
 10
0.0
 20
0.0
  9
$PLIMMAX
 10
420.0
 20
297.0
  9
$UNITMODE
 70
     0
  9
$VISRETAIN
 70
     1
  9
$PLINEGEN
 70
     0
  9
$PSLTSCALE
 70
     1
  0
ENDSEC
  0
SECTION
  2
TABLES
  0
TABLE
  2
VPORT
 70
     3
  0
VPORT
  2
*ACTIVE
 70
     0
 10
0.0
 20
0.0
 11
1.0
 21
1.0
 12
-78.398917724493472
 22
22.167663966733581
 13
0.0
 23
0.0
 14
7.0
 24
7.0
 15
7.0
 25
7.0
 16
0.0
 26
0.0
 36
1.0
 17
0.0
 27
0.0
 37
0.0
 40
157.6706828456156
 41
1.369318181818181
 42
50.0
 43
0.0
 44
0.0
 50
0.0
 51
0.0
 71
     0
 72
  2000
 73
     1
 74
     0
 75
     0
 76
     0
 77
     0
 78
     0
  0
ENDTAB
  0
TABLE
  2
LTYPE
 70
    21
  0
LTYPE
  2
CONTINUOUS
 70
     0
  3
Solid line
 72
    65
 73
     0
 40
0.0
  0
LTYPE
  2
CENTER2
 70
     0
  3
___ _ ___ _ ___ _ ___ _ ___ _ ___ _ ___ _ ___ _
 72
    65
 73
     4
 40
1.125
 49
0.75
 49
-0.125
 49
0.125
 49
-0.125
  0
LTYPE
  2
HIDDEN2
 70
     0
  3
_ _ _ _ _ _ _ _ _ _ _ _ _ _ _ _ _ _ _ _ _ _ _ _
 72
    65
 73
     2
 40
0.1875
 49
0.125
 49
-0.0625
  0
LTYPE
  2
PHANTOM2
 70
     0
  3
___ _ _ ___ _ _ ___ _ _ ___ _ _ ___ _ _ ___ _ _
 72
    65
 73
     6
 40
1.25
 49
0.625
 49
-0.125
 49
0.125
 49
-0.125
 49
0.125
 49
-0.125
  0
LTYPE
  2
CENTER
 70
     0
  3
____ _ ____ _ ____ _ ____ _ ____ _ ____ _ ____ 
 72
    65
 73
     4
 40
2.0
 49
1.25
 49
-0.25
 49
0.25
 49
-0.25
  0
LTYPE
  2
AMCONSTR
 70
     0
  3
_______________________
 72
    65
 73
     2
 40
9999.0
 49
9999.0
 49
0.0
  0
LTYPE
  2
HIDDEN
 70
     0
  3
Hidden __ __ __ __ __ __ __ __ __ __ __ __ __ _
 72
    65
 73
     2
 40
9.5249999999999986
 49
6.3499999999999979
 49
-3.174999999999998
  0
LTYPE
  2
AMZIGZAG2
 70
     0
  3
/\/-/\/-/\/-/\/-/\/-/\/
 72
    65
 73
     2
 40
0.4401
 49
0.0001
 49
-0.4400000000000001
  0
LTYPE
  2
ACANSTGB
 70
     0
  3
__ . . __ . .
 72
    65
 73
     6
 40
0.35433070866
 49
0.15748031496
 49
-0.03937007874
 49
0.03937007874
 49
-0.03937007874
 49
0.03937007874
 49
-0.03937007874
  0
LTYPE
  2
ACANSTGL
 70
     0
  3
_ _ _ _ _
 72
    65
 73
     2
 40
0.11811023622
 49
0.07874015748
 49
-0.03937007874
  0
ENDTAB
  0
TABLE
  2
LAYER
 70
    10
  0
LAYER
  2
0
 70
     0
 62
     7
  6
CONTINUOUS
  0
LAYER
  2
240
 70
     0
 62
     4
  6
CONTINUOUS
  0
LAYER
  2
DEFPOINTS
 70
     0
 62
     7
  6
CONTINUOUS
  0
LAYER
  2
245
 70
     0
 62
     2
  6
CENTER2
  0
LAYER
  2
241
 70
     0
 62
   211
  6
CONTINUOUS
  0
LAYER
  2
242
 70
     0
 62
     3
  6
CONTINUOUS
  0
LAYER
  2
243
 70
     0
 62
   211
  6
HIDDEN2
  0
LAYER
  2
246
 70
     0
 62
     3
  6
PHANTOM2
  0
LAYER
  2
247
 70
     0
 62
    60
  6
CONTINUOUS
  0
LAYER
  2
250
 70
     0
 62
     3
  6
CONTINUOUS
  0
ENDTAB
  0
TABLE
  2
STYLE
 70
     9
  0
STYLE
  2
STANDARD
 70
     0
 40
0.0
 41
1.0
 50
0.0
 71
     0
 42
3.0
  3
romans.shx
  4
extfont.shx
  0
STYLE
  2
YOKO
 70
     0
 40
0.0
 41
1.0
 50
0.0
 71
     0
 42
3.0
  3
romans.shx
  4
extfont.shx
  0
STYLE
  2

 70
     1
 40
0.0
 41
1.0
 50
0.0
 71
     0
 42
3.0
  3
ltypeshp.shx
  4

  0
STYLE
  2
ACANSTS
 70
     0
 40
1.0
 41
1.0
 50
0.0
 71
     0
 42
3.0
  3
romans.shx
  4
extfont.shx
  0
STYLE
  2
ACANSGDT
 70
     0
 40
0.0
 41
1.0
 50
0.0
 71
     0
 42
3.0
  3
amgdtans.shx
  4

  0
ENDTAB
  0
TABLE
  2
VIEW
 70
     0
  0
ENDTAB
  0
TABLE
  2
UCS
 70
     0
  0
ENDTAB
  0
TABLE
  2
APPID
 70
    35
  0
APPID
  2
ACAD
 70
     0
  0
APPID
  2
GLOBAL
 70
     0
  0
APPID
  2
DETAIL
 70
     0
  0
APPID
  2
GRPNAME
 70
     0
  0
APPID
  2
GPARA
 70
     0
  0
APPID
  2
MCAD_NO_VIS
 70
     0
  0
APPID
  2
ACAD_TEMP_GRAPHIC
 70
     0
  0
APPID
  2
ACATTRIBSERVICES
 70
     0
  0
APPID
  2
GENIUS_GENSCREG_15
 70
     0
  0
APPID
  2
GENIUS_GENODEF_13
 70
     0
  0
APPID
  2
GENIUS_GENOBJ-N-SDF_13
 70
     0
  0
APPID
  2
GENIUS_GENREC_14
 70
     0
  0
APPID
  2
GENIUS_GENOBJ-N-REC_13
 70
     0
  0
APPID
  2
GENIUS_GENDIMSH_14
 70
     0
  0
APPID
  2
GENIUS_GENOBJ-N-DIM_13
 70
     0
  0
APPID
  2
GENIUS_GENDIM_13
 70
     0
  0
APPID
  2
GENIUS_GENDTOL_13
 70
     0
  0
APPID
  2
GENIUS_GENOLIS_13
 70
     0
  0
APPID
  2
GENIUS_GENOENT_13
 70
     0
  0
APPID
  2
GENIUS_GENOBJ-F-FEM_13
 70
     0
  0
APPID
  2
GENIUS_GENOREF_13
 70
     0
  0
APPID
  2
GENIUS_GEFFEM_13
 70
     0
  0
APPID
  2
GENIUS_GEFFEMP_13
 70
     0
  0
APPID
  2
AD_DRAW
 70
     0
  0
APPID
  2
DESIGNERASSEMBLIES
 70
     0
  0
APPID
  2
ACADM_DIM_EDIT
 70
     0
  0
APPID
  2
AMDT_DM_ADJ
 70
     0
  0
APPID
  2
GENIUS_GENOBJ-N-FIL_13
 70
     0
  0
APPID
  2
GENIUS_GENFIL_13
 70
     0
  0
APPID
  2
GENIUS_GENOBJ-N-CHA_13
 70
     0
  0
APPID
  2
ACAD_PSEXT
 70
     0
  0
APPID
  2
ACAD_DSTYLE_DIMINSPECT
 70
     0
  0
APPID
  2
HATCH_TYPE
 70
     0
  0
APPID
  2
HATCH_DISPLAY
 70
     0
  0
APPID
  2
HATCH_DISTANCE
 70
     0
  0
ENDTAB
  0
TABLE
  2
DIMSTYLE
 70
    29
  0
DIMSTYLE
  2
BIGT
 70
     0
  3

  4

  5

  6

  7

 40
1.0
 41
2.2299999999999991
 42
0.5
 43
7.0
 44
1.0
 45
0.0
 46
0.0
 47
0.0
 48
0.01
140
2.799999999999998
141
0.0
142
0.0
143
25.399999999999999
144
1.0
145
0.0
146
1.0
147
1.0
 71
     0
 72
     0
 73
     0
 74
     0
 75
     0
 76
     0
 77
     3
 78
     9
170
     0
171
     2
172
     1
173
     0
174
     1
175
     0
176
   256
177
   256
178
    40
  0
DIMSTYLE
  2
AM_ANSI
 70
     0
  3

  4
mm
  5

  6

  7

 40
1.0
 41
0.1
 42
0.05
 43
0.5
 44
0.1
 45
0.0
 46
0.0
 47
0.1
 48
0.1
140
0.12
141
0.0
142
0.0
143
25.399999999999999
144
1.0
145
0.0
146
0.71
147
0.06
 71
     0
 72
     0
 73
     1
 74
     1
 75
     0
 76
     0
 77
     0
 78
     7
170
     0
171
     2
172
     0
173
     0
174
     0
175
     0
176
   256
177
   256
178
     2
  0
DIMSTYLE
  2
AM_ANSI$3
 70
     0
  3

  4
mm
  5

  6

  7

 40
1.0
 41
0.1
 42
0.05
 43
0.5
 44
0.1
 45
0.0
 46
0.0
 47
0.1
 48
0.1
140
0.12
141
0.0
142
0.0
143
25.399999999999999
144
1.0
145
0.0
146
0.71
147
0.06
 71
     0
 72
     0
 73
     1
 74
     1
 75
     0
 76
     0
 77
     0
 78
     7
170
     0
171
     2
172
     0
173
     0
174
     0
175
     0
176
   256
177
   256
178
     2
  0
DIMSTYLE
  2
AM_ANSI$4
 70
     0
  3

  4
mm
  5

  6

  7

 40
1.0
 41
0.1
 42
0.05
 43
0.5
 44
0.1
 45
0.0
 46
0.0
 47
0.1
 48
0.1
140
0.12
141
0.0
142
0.0
143
25.399999999999999
144
1.0
145
0.0
146
0.71
147
0.06
 71
     0
 72
     0
 73
     1
 74
     1
 75
     0
 76
     0
 77
     0
 78
     7
170
     0
171
     2
172
     0
173
     0
174
     0
175
     0
176
   256
177
   256
178
     2
  0
DIMSTYLE
  2
AM_ANSI$7
 70
     0
  3

  4
mm
  5

  6

  7

 40
1.0
 41
0.1
 42
0.05
 43
0.5
 44
0.1
 45
0.0
 46
0.0
 47
0.1
 48
0.1
140
0.24
141
0.0
142
0.0
143
25.399999999999999
144
1.0
145
0.0
146
0.71
147
0.06
 71
     0
 72
     0
 73
     1
 74
     1
 75
     0
 76
     0
 77
     0
 78
     7
170
     0
171
     2
172
     0
173
     0
174
     0
175
     0
176
   256
177
   256
178
     2
  0
DIMSTYLE
  2
AM_ANSI$SF
 70
     0
  3

  4
mm
  5

  6

  7

 40
1.0
 41
0.1
 42
0.05
 43
0.5
 44
0.1
 45
0.0
 46
0.0
 47
0.1
 48
0.1
140
0.12
141
0.0
142
0.0
143
25.399999999999999
144
1.0
145
0.0
146
0.71
147
0.06
 71
     0
 72
     0
 73
     1
 74
     1
 75
     1
 76
     1
 77
     0
 78
     7
170
     0
171
     2
172
     0
173
     0
174
     0
175
     0
176
   256
177
   256
178
     2
  0
DIMSTYLE
  2
AM_ANSI$SH
 70
     0
  3

  4
mm
  5

  6
GENAXEH
  7

 40
1.0
 41
0.1
 42
0.05
 43
0.5
 44
0.1
 45
0.0
 46
0.0
 47
0.1
 48
0.1
140
0.12
141
0.0
142
0.0
143
25.399999999999999
144
1.0
145
0.0
146
0.71
147
0.06
 71
     0
 72
     0
 73
     1
 74
     1
 75
     1
 76
     1
 77
     0
 78
     7
170
     0
171
     2
172
     0
173
     1
174
     0
175
     0
176
   256
177
   256
178
     2
  0
ENDTAB
  0
ENDSEC
  0
SECTION
  2
BLOCKS
  0
BLOCK
  8
0
  2
$MODEL_SPACE
 70
     0
 10
0.0
 20
0.0
 30
0.0
  3
$MODEL_SPACE
  1

  0
ENDBLK
  5
195B
  8
0
  0
BLOCK
 67
     1
  8
0
  2
$PAPER_SPACE
 70
     0
 10
0.0
 20
0.0
 30
0.0
  3
$PAPER_SPACE
  1

  0
ENDBLK
  5
1957
 67
     1
  8
0
  0
BLOCK
  8
0
  2
_OPEN
 70
     0
 10
0.0
 20
0.0
 30
0.0
  3
_OPEN
  1

  0
LINE
  5
18CE
  8
0
  6
BYBLOCK
 62
     0
 10
-1.0
 20
0.1666666666666666
 30
0.0
 11
0.0
 21
0.0
 31
0.0
  0
LINE
  5
18CF
  8
0
  6
BYBLOCK
 62
     0
 10
-1.0
 20
-0.1666666666666666
 30
0.0
 11
0.0
 21
0.0
 31
0.0
  0
LINE
  5
18D0
  8
0
  6
BYBLOCK
 62
     0
 10
0.0
 20
0.0
 30
0.0
 11
-1.0
 21
0.0
 31
0.0
  0
ENDBLK
  5
18D1
  8
0
  0
BLOCK
  8
0
  2
GENAXEH
 70
     0
 10
0.0
 20
0.0
 30
0.0
  3
GENAXEH
  1

  0
LINE
  5
18F9
  8
0
 10
-1.0
 20
0.0
 30
0.0
 11
1.0
 21
0.0
 31
0.0
  0
ENDBLK
  5
18FA
  8
0
  0
ENDSEC
  0
SECTION
  2
ENTITIES
  0
LINE
  5
142B
  8
245
 10
-0.0000000000001137
 20
0.5000000000001137
 30
0.0
 11
-0.0000000000001137
 21
4.5000000000001119
 31
0.0
  0
LINE
  5
142C
  8
243
 10
-1.250000000000113
 20
1.5000000000001039
 30
0.0
 11
-1.250000000000113
 21
4.1928108611693906
 31
0.0
  0
LINE
  5
142D
  8
243
 10
1.2499999999998861
 20
-1.4999999999998921
 30
0.0
 11
1.2499999999998861
 21
3.5000000000001119
 31
0.0
  0
LINE
  5
142E
  8
243
 10
-80.000000000000099
 20
-6.0
 30
0.0
 11
-80.000000000000099
 21
6.0
 31
0.0
  0
LINE
  5
142F
  8
243
 10
-77.401923788646741
 20
-1.5
 30
0.0
 11
-77.401923788646741
 21
1.5
 31
0.0
  0
LINE
  5
1430
  8
243
 10
-80.000000000000099
 20
-6.0
 30
0.0
 11
-77.401923788646741
 21
-1.4999999999998861
 31
0.0
  0
LINE
  5
1434
  8
241
 10
-88.000000000000114
 20
5.567764362829676
 30
0.0
 11
-83.000000000000085
 21
5.567764362829676
 31
0.0
  0
LINE
  5
1435
  8
241
 10
-83.000000000000085
 20
-5.567764362829676
 30
0.0
 11
-88.000000000000114
 21
-5.567764362829676
 31
0.0
  0
LINE
  5
1436
  8
241
 10
0.1000000000000227
 20
2.799009900990256
 30
0.0
 11
-63.000000000000568
 21
2.799009900990256
 31
0.0
  0
ARC
  5
1437
  8
241
 10
0.1000000000000227
 20
3.199009900990232
 30
0.0
 40
0.4
 50
270.0
 51
0.0
1001
GENIUS_GENODEF_13
1002
{
1000
HIER
1070
     0
1002
}
1002
{
1000
MANEDIT
1070
     0
1002
}
1002
{
1000
NOSEL
1070
     0
1002
}
1002
{
1000
BEHIND
1070
     0
1002
}
1002
{
1000
OTHER
1070
     0
1002
}
1002
{
1000
REACTOR
1002
}
1001
GENIUS_GENOBJ-N-FIL_13
1002
{
1000
OWNER
1000
GEN
1002
}
  0
LINE
  5
1438
  8
241
 10
0.4999999999998864
 20
3.199009900990232
 30
0.0
 11
0.4999999999998864
 21
3.5000000000001119
 31
0.0
  0
LINE
  5
1439
  8
240
 10
-63.000000000000568
 20
-4.0999999999999091
 30
0.0
 11
14.50000000000057
 21
-4.0999999999999091
 31
0.0
  0
LINE
  5
143A
  8
240
 10
-76.300000000000054
 20
9.3000000000000664
 30
0.0
 11
0.0000000000003411
 21
9.3000000000000664
 31
0.0
  0
LINE
  5
143B
  8
243
 10
-1.250000000000113
 20
1.5000000000001039
 30
0.0
 11
-77.401923788646741
 21
1.5
 31
0.0
  0
LINE
  5
143C
  8
243
 10
1.2499999999998861
 20
-1.4999999999998921
 30
0.0
 11
-77.401923788646741
 21
-1.5000000000000551
 31
0.0
  0
LINE
  5
1443
  8
240
 10
-173.00000000000011
 20
0.0
 30
0.0
 11
-173.00000000000011
 21
14.0
 31
0.0
  0
LINE
  5
1444
  8
240
 10
-76.300000000000296
 20
9.3000000000000664
 30
0.0
 11
-83.000000000000085
 21
16.0
 31
0.0
  0
LINE
  5
1445
  8
241
 10
-168.00000000000011
 20
0.0
 30
0.0
 11
-168.00000000000011
 21
16.0
 31
0.0
  0
LINE
  5
1446
  8
241
 10
-83.000000000000085
 20
5.567764362829676
 30
0.0
 11
-83.000000000000085
 21
16.0
 31
0.0
  0
LINE
  5
1447
  8
240
 10
-83.000000000000085
 20
16.0
 30
0.0
 11
-171.00000000000011
 21
16.0
 31
0.0
  0
ARC
  5
1448
  8
240
 10
-171.00000000000011
 20
14.0
 30
0.0
 40
2.0
 50
90.0
 51
180.0
  0
LINE
  5
1449
  8
240
 10
-171.00000000000011
 20
-15.999999999999879
 30
0.0
 11
-83.000000000000085
 21
-15.999999999999879
 31
0.0
  0
LINE
  5
144A
  8
245
 10
-176.00000000000011
 20
0.0
 30
0.0
 11
18.000000000000568
 21
0.0
 31
0.0
  0
LINE
  5
144B
  8
243
 10
-172.00000000000011
 20
-6.0
 30
0.0
 11
-80.000000000000099
 21
-6.0
 31
0.0
  0
LINE
  5
144C
  8
240
 10
-173.00000000000011
 20
0.0000000000001137
 30
0.0
 11
-173.00000000000011
 21
-13.99999999999989
 31
0.0
  0
ARC
  5
144D
  8
243
 10
-172.00000000000011
 20
-7.0
 30
0.0
 40
1.0
 50
90.0
 51
180.0
1001
GENIUS_GENODEF_13
1002
{
1000
HIER
1070
     0
1002
}
1002
{
1000
MANEDIT
1070
     0
1002
}
1002
{
1000
NOSEL
1070
     0
1002
}
1002
{
1000
BEHIND
1070
     0
1002
}
1002
{
1000
OTHER
1070
     0
1002
}
1002
{
1000
REACTOR
1002
}
1001
GENIUS_GENOBJ-N-FIL_13
1002
{
1000
OWNER
1000
GEN
1002
}
  0
LINE
  5
144E
  8
241
 10
-168.00000000000011
 20
0.0000000000001137
 30
0.0
 11
-168.00000000000011
 21
-15.999999999999879
 31
0.0
  0
ARC
  5
144F
  8
240
 10
-171.00000000000011
 20
-13.99999999999989
 30
0.0
 40
2.0
 50
180.0
 51
270.0
  0
LINE
  5
1450
  8
240
 10
-76.299999999999841
 20
-9.2999999999998941
 30
0.0
 11
-65.299999999999613
 21
-9.3000000000001251
 31
0.0
  0
LINE
  5
1451
  8
240
 10
-76.299999999999841
 20
-9.2999999999998941
 30
0.0
 11
-83.000000000000085
 21
-15.999999999999879
 31
0.0
  0
LINE
  5
1452
  8
241
 10
-83.000000000000085
 20
-5.567764362829676
 30
0.0
 11
-83.000000000000085
 21
-15.999999999999879
 31
0.0
  0
LINE
  5
1453
  8
241
 10
-88.000000000000114
 20
5.567764362829676
 30
0.0
 11
-88.000000000000114
 21
-5.567764362829676
 31
0.0
  0
LINE
  5
1454
  8
241
 10
-76.299999999999841
 20
-9.2999999999998941
 30
0.0
 11
-76.300000000000054
 21
9.3000000000000664
 31
0.0
  0
LINE
  5
1455
  8
241
 10
-65.000000000000554
 20
-6.0999999999999091
 30
0.0
 11
-65.000000000000554
 21
0.7990099009902565
 31
0.0
  0
LINE
  5
1456
  8
240
 10
-64.999999999999659
 20
-9.0000000000000568
 30
0.0
 11
-65.000000000000099
 21
-6.100000000000362
 31
0.0
  0
ARC
  5
1457
  8
240
 10
-63.000000000000568
 20
-6.0999999999999091
 30
0.0
 40
2.0
 50
90.0
 51
180.00000000001299
  0
LINE
  5
1458
  8
240
 10
-64.999999999999659
 20
-9.0000000000000568
 30
0.0
 11
-65.299999999999613
 21
-9.3000000000001251
 31
0.0
  0
LINE
  5
1459
  8
240
 10
15.00000000000079
 20
13.70000000000004
 30
0.0
 11
15.00000000000057
 21
-3.5999999999999082
 31
0.0
  0
LINE
  5
145C
  8
240
 10
14.50000000000057
 20
-4.0999999999999091
 30
0.0
 11
15.00000000000057
 21
-3.5999999999999082
 31
0.0
1001
GENIUS_GENFIL_13
1070
     0
1040
0.5
1040
0.5
1040
0.2
1040
45.0
1002
{
1002
}
1001
GENIUS_GENODEF_13
1002
{
1000
HIER
1070
     0
1002
}
1002
{
1000
MANEDIT
1070
     0
1002
}
1002
{
1000
NOSEL
1070
     0
1002
}
1002
{
1000
BEHIND
1070
     0
1002
}
1002
{
1000
OTHER
1070
     0
1002
}
1002
{
1000
REACTOR
1002
}
1001
GENIUS_GENOBJ-N-CHA_13
1002
{
1000
OWNER
1000
GEN
1002
}
  0
LINE
  5
1460
  8
240
 10
14.50000000000079
 20
14.20000000000004
 30
0.0
 11
2.087475108734111
 21
14.200000000000159
 31
0.0
  0
LINE
  5
1461
  8
240
 10
15.00000000000079
 20
13.70000000000004
 30
0.0
 11
14.50000000000079
 21
14.20000000000004
 31
0.0
1001
GENIUS_GENFIL_13
1070
     0
1040
0.5
1040
0.5
1040
0.2
1040
45.0
1002
{
1002
}
1001
GENIUS_GENODEF_13
1002
{
1000
HIER
1070
     0
1002
}
1002
{
1000
MANEDIT
1070
     0
1002
}
1002
{
1000
NOSEL
1070
     0
1002
}
1002
{
1000
BEHIND
1070
     0
1002
}
1002
{
1000
OTHER
1070
     0
1002
}
1002
{
1000
REACTOR
1002
}
1001
GENIUS_GENOBJ-N-CHA_13
1002
{
1000
OWNER
1000
GEN
1002
}
  0
LINE
  5
1462
  8
241
 10
14.50000000000057
 20
-4.0999999999999091
 30
0.0
 11
14.50000000000057
 21
-0.5798822815243057
 31
0.0
  0
LINE
  5
1463
  8
241
 10
7.937999999999759
 20
5.5846396022520244
 30
0.0
 11
7.938000000000442
 21
14.200000000000159
 31
0.0
  0
ARC
  5
1464
  8
241
 10
7.5380000000003502
 20
12.8327547578923
 30
0.0
 40
0.4
 50
0.0
 51
80.000000000001407
1001
GENIUS_GENODEF_13
1002
{
1000
HIER
1070
     0
1002
}
1002
{
1000
MANEDIT
1070
     0
1002
}
1002
{
1000
NOSEL
1070
     0
1002
}
1002
{
1000
BEHIND
1070
     0
1002
}
1002
{
1000
OTHER
1070
     0
1002
}
1002
{
1000
REACTOR
1002
}
1001
GENIUS_GENOBJ-N-FIL_13
1002
{
1000
OWNER
1000
GEN
1002
}
  0
LINE
  5
1465
  8
241
 10
7.6074592710668858
 20
13.226677859097149
 30
0.0
 11
0.4694592710667395
 21
14.48529984739451
 31
0.0
  0
LINE
  5
1466
  8
241
 10
-0.0000000000001137
 20
14.091376746189489
 30
0.0
 11
-0.0000000000001137
 21
6.84326159054865
 31
0.0
  0
ARC
  5
1467
  8
241
 10
0.3999999999999772
 20
6.84326159054865
 30
0.0
 40
0.4
 50
180.00000000000659
 51
260.00000000000148
1001
GENIUS_GENOBJ-N-FIL_13
1002
{
1000
OWNER
1000
GEN
1002
}
1001
GENIUS_GENODEF_13
1002
{
1000
HIER
1070
     0
1002
}
1002
{
1000
MANEDIT
1070
     0
1002
}
1002
{
1000
NOSEL
1070
     0
1002
}
1002
{
1000
BEHIND
1070
     0
1002
}
1002
{
1000
OTHER
1070
     0
1002
}
1002
{
1000
REACTOR
1002
}
  0
ARC
  5
1468
  8
241
 10
0.3999999999999772
 20
14.091376746189489
 30
0.0
 40
0.4
 50
80.000017600094296
 51
180.0
  0
LINE
  5
1469
  8
241
 10
0.9999999999998864
 20
3.5000000000001119
 30
0.0
 11
15.00000000000079
 21
3.5000000000001119
 31
0.0
  0
ARC
  5
146A
  8
241
 10
0.9999999999998864
 20
7.500000000000111
 30
0.0
 40
4.0
 50
180.00000000000659
 51
270.0
  0
LINE
  5
146B
  8
241
 10
-3.0000000000001119
 20
7.500000000000111
 30
0.0
 11
-3.0000000000001119
 21
9.3000000000001251
 31
0.0
  0
LINE
  5
146C
  8
241
 10
0.3305407289332152
 20
6.4493384893438011
 30
0.0
 11
7.468540728932906
 21
5.1907165010470626
 31
0.0
  0
CIRCLE
  5
146D
  8
246
 10
3.9689999999999359
 20
9.8380081742207608
 30
0.0
 40
3.968999999999999
  0
ARC
  5
146E
  8
241
 10
0.9048222275238234
 20
7.2668577354746162
 30
0.0
 40
1.5
 50
127.1005082895842
 51
312.8995093104943
  0
ARC
  5
146F
  8
241
 10
7.086519906979559
 20
6.1226926250938041
 30
0.0
 40
1.5
 50
204.5867514478538
 51
55.413266152265109
  0
ARC
  5
1470
  8
241
 10
7.5379999999998972
 20
5.5846396022520244
 30
0.0
 40
0.4
 50
260.00001760009428
 51
0.0
  0
ARC
  5
1471
  8
241
 10
-63.000000000000568
 20
0.7990099009902565
 30
0.0
 40
2.0
 50
90.0
 51
180.0
1001
GENIUS_GENOBJ-N-FIL_13
1002
{
1000
OWNER
1000
GEN
1002
}
1001
GENIUS_GENODEF_13
1002
{
1000
HIER
1070
     0
1002
}
1002
{
1000
MANEDIT
1070
     0
1002
}
1002
{
1000
NOSEL
1070
     0
1002
}
1002
{
1000
BEHIND
1070
     0
1002
}
1002
{
1000
OTHER
1070
     0
1002
}
1002
{
1000
REACTOR
1002
}
  0
ARC
  5
1472
  8
241
 10
-97.999999999999446
 20
0.0
 30
0.0
 40
15.99999999999924
 50
339.63586519368351
 51
20.364134806316461
  0
LINE
  5
1475
  8
243
 10
-80.000000000000099
 20
6.0000000000001119
 30
0.0
 11
-77.401923788646741
 21
1.5
 31
0.0
  0
LINE
  5
1476
  8
243
 10
-172.00000000000011
 20
6.0
 30
0.0
 11
-80.000000000000099
 21
6.0000000000001119
 31
0.0
  0
ARC
  5
1477
  8
243
 10
-172.00000000000011
 20
7.0000000000002274
 30
0.0
 40
1.0
 50
180.0
 51
270.0
1001
GENIUS_GENODEF_13
1002
{
1000
HIER
1070
     0
1002
}
1002
{
1000
MANEDIT
1070
     0
1002
}
1002
{
1000
NOSEL
1070
     0
1002
}
1002
{
1000
BEHIND
1070
     0
1002
}
1002
{
1000
OTHER
1070
     0
1002
}
1002
{
1000
REACTOR
1002
}
1001
GENIUS_GENOBJ-N-FIL_13
1002
{
1000
OWNER
1000
GEN
1002
}
  0
LINE
  5
15FE
  8
247
 10
-159.16633344518959
 20
13.72284769077249
 30
0.0
 11
-159.16633344518959
 21
13.72284769077249
 31
0.0
1001
HATCH_DISTANCE
1040
1.0
1001
HATCH_DISPLAY
1070
     0
1001
HATCH_TYPE
1070
     7
  0
LINE
  5
15FF
  8
247
 10
-159.25762296545329
 20
14.012348880958021
 30
0.0
 11
-159.16633344518959
 21
13.72284769077249
 31
0.0
1001
HATCH_DISTANCE
1040
1.0
1001
HATCH_DISPLAY
1070
     0
1001
HATCH_TYPE
1070
     7
  0
LINE
  5
1600
  8
247
 10
-159.25762296545329
 20
14.012348880958021
 30
0.0
 11
-159.25762296545329
 21
14.012348880958021
 31
0.0
1001
HATCH_DISTANCE
1040
1.0
1001
HATCH_DISPLAY
1070
     0
1001
HATCH_TYPE
1070
     7
  0
LINE
  5
1601
  8
247
 10
-159.16633344518959
 20
13.72284769077249
 30
0.0
 11
-159.25762296545329
 21
14.012348880958021
 31
0.0
1001
HATCH_DISTANCE
1040
1.0
1001
HATCH_DISPLAY
1070
     0
1001
HATCH_TYPE
1070
     7
  0
LINE
  5
1602
  8
247
 10
-159.16633344518959
 20
13.72284769077249
 30
0.0
 11
-159.16633344518959
 21
13.72284769077249
 31
0.0
  0
LINE
  5
1603
  8
247
 10
-159.25762296545329
 20
14.012348880958021
 30
0.0
 11
-159.16633344518959
 21
13.72284769077249
 31
0.0
  0
LINE
  5
1604
  8
247
 10
-159.25762296545329
 20
14.012348880958021
 30
0.0
 11
-159.25762296545329
 21
14.012348880958021
 31
0.0
  0
LINE
  5
1605
  8
247
 10
-159.16633344518959
 20
13.72284769077249
 30
0.0
 11
-159.25762296545329
 21
14.012348880958021
 31
0.0
  0
LINE
  5
1606
  8
247
 10
-159.16633344518959
 20
13.72284769077249
 30
0.0
 11
-159.16633344518959
 21
13.72284769077249
 31
0.0
1001
HATCH_DISTANCE
1040
1.0
1001
HATCH_DISPLAY
1070
     0
1001
HATCH_TYPE
1070
     7
  0
LINE
  5
1607
  8
247
 10
-159.25762296545329
 20
14.012348880958021
 30
0.0
 11
-159.16633344518959
 21
13.72284769077249
 31
0.0
1001
HATCH_DISTANCE
1040
1.0
1001
HATCH_DISPLAY
1070
     0
1001
HATCH_TYPE
1070
     7
  0
LINE
  5
1608
  8
247
 10
-159.25762296545329
 20
14.012348880958021
 30
0.0
 11
-159.25762296545329
 21
14.012348880958021
 31
0.0
1001
HATCH_DISTANCE
1040
1.0
1001
HATCH_DISPLAY
1070
     0
1001
HATCH_TYPE
1070
     7
  0
LINE
  5
1609
  8
247
 10
-159.16633344518959
 20
13.72284769077249
 30
0.0
 11
-159.25762296545329
 21
14.012348880958021
 31
0.0
1001
HATCH_DISTANCE
1040
1.0
1001
HATCH_DISPLAY
1070
     0
1001
HATCH_TYPE
1070
     7
  0
LINE
  5
160A
  8
247
 10
-159.16633344518959
 20
13.72284769077249
 30
0.0
 11
-159.16633344518959
 21
13.72284769077249
 31
0.0
  0
LINE
  5
160B
  8
247
 10
-159.25762296545329
 20
14.012348880958021
 30
0.0
 11
-159.16633344518959
 21
13.72284769077249
 31
0.0
  0
LINE
  5
160C
  8
247
 10
-159.25762296545329
 20
14.012348880958021
 30
0.0
 11
-159.25762296545329
 21
14.012348880958021
 31
0.0
  0
LINE
  5
160D
  8
247
 10
-159.16633344518959
 20
13.72284769077249
 30
0.0
 11
-159.25762296545329
 21
14.012348880958021
 31
0.0
  0
LINE
  5
160E
  8
247
 10
-161.21019101965251
 20
14.06493448276467
 30
0.0
 11
-161.99855161535569
 21
14.06493448276467
 31
0.0
1001
HATCH_DISTANCE
1040
1.0
1001
HATCH_DISPLAY
1070
     0
1001
HATCH_TYPE
1070
     7
  0
LINE
  5
160F
  8
247
 10
-161.9924748026115
 20
11.33677708167977
 30
0.0
 11
-161.21019101965251
 21
14.06493448276467
 31
0.0
1001
HATCH_DISTANCE
1040
1.0
1001
HATCH_DISPLAY
1070
     0
1001
HATCH_TYPE
1070
     7
  0
LINE
  5
1610
  8
247
 10
-162.6704685770255
 20
11.33677708167977
 30
0.0
 11
-161.9924748026115
 21
11.33677708167977
 31
0.0
1001
HATCH_DISTANCE
1040
1.0
1001
HATCH_DISPLAY
1070
     0
1001
HATCH_TYPE
1070
     7
  0
LINE
  5
1611
  8
247
 10
-161.98378873693761
 20
13.73149942417092
 30
0.0
 11
-162.6704685770255
 21
11.33677708167977
 31
0.0
1001
HATCH_DISTANCE
1040
1.0
1001
HATCH_DISPLAY
1070
     0
1001
HATCH_TYPE
1070
     7
  0
LINE
  5
1612
  8
247
 10
-162.0941670023185
 20
13.73149942417092
 30
0.0
 11
-161.98378873693761
 21
13.73149942417092
 31
0.0
1001
HATCH_DISTANCE
1040
1.0
1001
HATCH_DISPLAY
1070
     0
1001
HATCH_TYPE
1070
     7
  0
LINE
  5
1613
  8
247
 10
-161.99855161535569
 20
14.06493448276467
 30
0.0
 11
-162.0941670023185
 21
13.73149942417092
 31
0.0
1001
HATCH_DISTANCE
1040
1.0
1001
HATCH_DISPLAY
1070
     0
1001
HATCH_TYPE
1070
     7
  0
LINE
  5
1614
  8
247
 10
-161.21019101965251
 20
14.06493448276467
 30
0.0
 11
-161.99855161535569
 21
14.06493448276467
 31
0.0
  0
LINE
  5
1615
  8
247
 10
-161.9924748026115
 20
11.33677708167977
 30
0.0
 11
-161.21019101965251
 21
14.06493448276467
 31
0.0
  0
LINE
  5
1616
  8
247
 10
-162.6704685770255
 20
11.33677708167977
 30
0.0
 11
-161.9924748026115
 21
11.33677708167977
 31
0.0
  0
LINE
  5
1617
  8
247
 10
-161.98378873693761
 20
13.73149942417092
 30
0.0
 11
-162.6704685770255
 21
11.33677708167977
 31
0.0
  0
LINE
  5
1618
  8
247
 10
-162.0941670023185
 20
13.73149942417092
 30
0.0
 11
-161.98378873693761
 21
13.73149942417092
 31
0.0
  0
LINE
  5
1619
  8
247
 10
-161.99855161535569
 20
14.06493448276467
 30
0.0
 11
-162.0941670023185
 21
13.73149942417092
 31
0.0
  0
LINE
  5
161A
  8
247
 10
-162.01029080925591
 20
11.33677708167977
 30
0.0
 11
-161.98531237800941
 21
11.361755512926299
 31
0.0
  0
LINE
  5
1658
  8
247
 10
-159.34775668527951
 20
13.662551601116039
 30
0.0
 11
-159.31619600969799
 21
13.69411227669759
 31
0.0
  0
TEXT
  5
1660
  8
247
 10
-156.2531580099791
 20
11.31427597778625
 30
0.0
 40
2.5
  1
ST32-BFM18/29-63
  7
YOKO
 11
-156.2531580099791
 21
11.31427597778625
 31
0.0
 73
     1
  0
LINE
  5
1661
  8
247
 10
-159.31088376867589
 20
13.677265873145521
 30
0.0
 11
-159.40217328893959
 21
13.966767063331069
 31
0.0
  0
ARC
  5
1662
  8
247
 10
-158.8518841348868
 20
12.473507633399439
 30
0.0
 40
1.288299322128293
 50
110.8721834020771
 51
132.54194893738571
  0
ARC
  5
1663
  8
247
 10
-160.0410854898673
 20
13.413204899024439
 30
0.0
 40
0.3182875066995621
 50
1.7101213820643351
 51
163.99839835444811
  0
LINE
  5
1664
  8
247
 10
-160.75557447302171
 20
12.076237430762729
 30
0.0
 11
-160.34704328405681
 21
13.500946750831091
 31
0.0
  0
ARC
  5
1665
  8
247
 10
-160.4496166788322
 20
11.98850702304787
 30
0.0
 40
0.3182872831821442
 50
164.00027305718319
 51
344.00027305718322
  0
LINE
  5
1666
  8
247
 10
-160.14365888464269
 20
11.90077661533304
 30
0.0
 11
-159.9490063272697
 21
12.579605808448269
 31
0.0
  0
LINE
  5
1667
  8
247
 10
-160.20127988684001
 20
12.579605808448269
 30
0.0
 11
-159.9490063272697
 21
12.579605808448269
 31
0.0
  0
LINE
  5
1668
  8
247
 10
-160.20127988684001
 20
12.579605808448269
 30
0.0
 11
-160.11436200964269
 21
12.882736911963899
 31
0.0
  0
LINE
  5
1669
  8
247
 10
-160.11436200964269
 20
12.882736911963899
 30
0.0
 11
-159.2313931070548
 21
12.882736911963891
 31
0.0
  0
LINE
  5
166A
  8
247
 10
-159.67469144689841
 20
11.336777081679781
 30
0.0
 11
-159.2313931070548
 21
12.882736911963891
 31
0.0
  0
LINE
  5
166B
  8
247
 10
-159.85250974523851
 20
11.514583935927829
 30
0.0
 11
-159.67469144689841
 21
11.336777081679781
 31
0.0
  0
ARC
  5
166C
  8
247
 10
-160.4170696817618
 20
12.32194208164163
 30
0.0
 40
0.9851760864257813
 50
163.99975070172741
 51
304.96387329163082
  0
ARC
  5
166D
  8
247
 10
-158.806359537719
 20
12.27014612216897
 30
0.0
 40
2.5780792236328121
 50
155.20517736984181
 51
172.7948259620504
  0
ARC
  5
166E
  8
247
 10
-160.1997692667228
 20
13.07976984043068
 30
0.0
 40
0.9851660728454588
 50
53.444012197055507
 51
164.0001843876849
  0
ARC
  5
166F
  8
247
 10
-158.8518841348868
 20
12.473507633399439
 30
0.0
 40
1.591427564620969
 50
110.22964506332001
 51
118.57168892371681
  0
LINE
  5
1670
  8
247
 10
-164.37940336096099
 20
14.064934482764681
 30
0.0
 11
-164.46632123815829
 21
13.761803379249059
 31
0.0
  0
LINE
  5
1671
  8
247
 10
-165.00540662634191
 20
14.064934482764681
 30
0.0
 11
-164.37940336096099
 21
14.064934482764681
 31
0.0
  0
LINE
  5
1672
  8
247
 10
-165.00540662634191
 20
13.761803379249059
 30
0.0
 11
-164.46632123815829
 21
13.761803379249059
 31
0.0
  0
ARC
  5
1673
  8
247
 10
-165.00540662634191
 20
12.473507633399439
 30
0.0
 40
1.288295745849606
 50
90.0
 51
270.0
  0
ARC
  5
1674
  8
247
 10
-165.00540662634191
 20
12.473507633399439
 30
0.0
 40
1.591426849365233
 50
90.0
 51
270.0
  0
LINE
  5
1675
  8
247
 10
-165.00540662634191
 20
10.88208043420776
 30
0.0
 11
-158.8518841348868
 21
10.882080434207751
 31
0.0
  0
LINE
  5
1676
  8
247
 10
-165.00540662634191
 20
11.18521152992197
 30
0.0
 11
-158.8518841348868
 21
11.185211529921951
 31
0.0
  0
ARC
  5
1677
  8
247
 10
-158.8518841348868
 20
12.473507633399439
 30
0.0
 40
1.591426849365233
 50
270.0
 51
104.7707939660941
  0
ARC
  5
1678
  8
247
 10
-158.8518841348868
 20
12.473507633399439
 30
0.0
 40
1.288295745849606
 50
270.0
 51
104.1274364964119
  0
LINE
  5
1679
  8
247
 10
-159.16633344518959
 20
13.722847690772481
 30
0.0
 11
-159.25762296545329
 21
14.012348880958021
 31
0.0
  0
LINE
  5
167A
  8
247
 10
-161.9924748026115
 20
11.336777081679781
 30
0.0
 11
-161.21019101965251
 21
14.064934482764681
 31
0.0
  0
LINE
  5
167B
  8
247
 10
-164.8463451944572
 20
11.336777081679781
 30
0.0
 11
-164.15097928869579
 21
13.761803379248169
 31
0.0
  0
ARC
  5
167E
  8
247
 10
-163.57891202795329
 20
13.337422123145529
 30
0.0
 40
0.4546839594841006
 50
261.6626016879294
 51
66.338155095189762
  0
ARC
  5
1680
  8
247
 10
-163.2407276712639
 20
13.30711816806741
 30
0.0
 40
0.7578227519989014
 50
287.66957754739798
 51
90.236159842671626
  0
LINE
  5
1682
  8
247
 10
-163.3964289023852
 20
13.7538802985906
 30
0.0
 11
-163.64484143390021
 21
12.887543454565201
 31
0.0
  0
LINE
  5
1683
  8
247
 10
-162.6704685770255
 20
11.336777081679781
 30
0.0
 11
-161.98378873693761
 21
13.731499424170931
 31
0.0
  0
LINE
  5
1684
  8
247
 10
-161.99855161535569
 20
14.064934482764681
 30
0.0
 11
-161.21019101965251
 21
14.064934482764681
 31
0.0
  0
LINE
  5
1687
  8
247
 10
-164.2217381082753
 20
14.064934482764681
 30
0.0
 11
-163.24385123109079
 21
14.064934482764571
 31
0.0
  0
LINE
  5
1689
  8
247
 10
-164.30865598547311
 20
13.761803379249059
 30
0.0
 11
-164.15097928869579
 21
13.761803379248169
 31
0.0
  0
LINE
  5
168A
  8
247
 10
-164.2217381082753
 20
14.064934482764681
 30
0.0
 11
-164.30865598547311
 21
13.761803379249059
 31
0.0
  0
LINE
  5
168E
  8
247
 10
-162.0941670023185
 20
13.731499424170931
 30
0.0
 11
-161.98378873693761
 21
13.731499424170931
 31
0.0
  0
LINE
  5
168F
  8
247
 10
-162.0941670023185
 20
13.731499424170931
 30
0.0
 11
-161.99855161535569
 21
14.064934482764681
 31
0.0
  0
ARC
  5
1691
  8
247
 10
-163.5884106241447
 20
12.09459375400491
 30
0.0
 40
0.7578163146972659
 50
270.0
 51
40.329840654169217
  0
ARC
  5
1694
  8
247
 10
-163.92659498083421
 20
12.12490915317483
 30
0.0
 40
0.4546969681978227
 50
261.6628542111489
 51
66.338192159110051
  0
LINE
  5
1695
  8
247
 10
-163.7441082373409
 20
12.54137994607331
 30
0.0
 11
-163.9925248555559
 21
11.67501740563166
 31
0.0
  0
LINE
  5
1698
  8
247
 10
-164.8463451944572
 20
11.336777081679781
 30
0.0
 11
-163.5884106241447
 21
11.336777081679781
 31
0.0
  0
LINE
  5
169A
  8
247
 10
-162.6704685770255
 20
11.336777081679781
 30
0.0
 11
-161.9924748026115
 21
11.336777081679781
 31
0.0
  0
LINE
  5
1711
  8
242
 10
-88.000000000000114
 20
-5.567764362829676
 30
0.0
 11
-83.000000000000014
 21
5.5677643628294051
 31
0.0
  0
LINE
  5
1712
  8
242
 10
-88.000000000000114
 20
5.567764362829676
 30
0.0
 11
-83.000000000000085
 21
-5.567764362829676
 31
0.0
  0
TEXT
  5
171D
  8
241
 10
-174.0000000000002
 20
56.000000000000121
 30
0.0
 40
4.0
  1
ST32-BFM18/29-63
  7
YOKO
  0
LINE
  5
1720
  8
250
 10
-0.0000000000001137
 20
14.591376746189489
 30
0.0
 11
-0.0000000000001124
 21
36.0
 31
0.0
  0
LINE
  5
1721
  8
250
 10
-63.000000000000021
 20
9.8000000000000664
 30
0.0
 11
-63.000000000000021
 21
36.0
 31
0.0
  0
LINE
  5
1722
  8
250
 10
-2.230000000000111
 20
35.0
 30
0.0
 11
-60.77000000000001
 21
35.0
 31
0.0
  0
LINE
  5
1726
  8
250
 10
0.899999999999977
 20
14.49137674618947
 30
0.0
 11
29.0
 21
14.491376746189459
 31
0.0
  0
LINE
  5
1727
  8
250
 10
28.000000000000011
 20
12.261376746189461
 30
0.0
 11
28.0
 21
-5.3816707909949368
 31
0.0
  0
LINE
  5
172A
  8
250
 10
-0.0000000000001137
 20
14.59137674618961
 30
0.0
 11
-0.0000000000001123
 21
36.0
 31
0.0
  0
LINE
  5
172B
  8
250
 10
15.00000000000051
 20
20.300000000000239
 30
0.0
 11
15.00000000000051
 21
36.0
 31
0.0
  0
LINE
  5
172C
  8
250
 10
2.2299999999998872
 20
35.0
 30
0.0
 11
12.770000000000501
 21
35.0
 31
0.0
  0
LINE
  5
1730
  8
250
 10
-171.50000000000011
 20
-15.999999999999879
 30
0.0
 11
-183.0
 21
-15.999999999999879
 31
0.0
  0
LINE
  5
1731
  8
250
 10
-171.50000000000011
 20
16.0
 30
0.0
 11
-183.0
 21
16.0
 31
0.0
  0
LINE
  5
1732
  8
250
 10
-182.0
 20
-13.769999999999881
 30
0.0
 11
-182.0
 21
13.77
 31
0.0
  0
LINE
  5
1736
  8
250
 10
-173.00000000000011
 20
14.50000000000011
 30
0.0
 11
-173.00000000000011
 21
43.0
 31
0.0
  0
LINE
  5
1737
  8
250
 10
15.00000000000068
 20
14.200000000000159
 30
0.0
 11
15.00000000000068
 21
43.0
 31
0.0
  0
LINE
  5
1738
  8
250
 10
-170.7700000000001
 20
42.0
 30
0.0
 11
12.77000000000068
 21
42.0
 31
0.0
  0
TEXT
  5
173C
  8
250
 10
-34.233333333333398
 20
36.0
 30
0.0
 40
2.799999999999998
  1
63
  0
LINE
  5
173D
  8
250
 10
-60.77000000000001
 20
34.62833333333333
 30
0.0
 11
-63.000000000000021
 21
35.0
 31
0.0
  0
LINE
  5
173E
  8
250
 10
-60.77000000000001
 20
35.37166666666667
 30
0.0
 11
-63.000000000000021
 21
35.0
 31
0.0
  0
LINE
  5
173F
  8
250
 10
-63.000000000000021
 20
35.0
 30
0.0
 11
-60.77000000000001
 21
35.0
 31
0.0
  0
LINE
  5
1740
  8
250
 10
-2.230000000000111
 20
35.37166666666667
 30
0.0
 11
-0.0000000000001125
 21
35.0
 31
0.0
  0
LINE
  5
1741
  8
250
 10
-2.230000000000111
 20
34.62833333333333
 30
0.0
 11
-0.0000000000001125
 21
35.0
 31
0.0
  0
LINE
  5
1742
  8
250
 10
-0.0000000000001125
 20
35.0
 30
0.0
 11
-2.230000000000111
 21
35.0
 31
0.0
  0
TEXT
  5
1743
  8
250
 10
27.0
 20
-4.648337457661599
 30
0.0
 40
2.799999999999998
  1
\U+220529
 50
90.0
  0
LINE
  5
1744
  8
250
 10
27.628333333333341
 20
12.261376746189461
 30
0.0
 11
28.000000000000011
 21
14.49137674618947
 31
0.0
  0
LINE
  5
1745
  8
250
 10
28.37166666666667
 20
12.261376746189461
 30
0.0
 11
28.000000000000011
 21
14.49137674618947
 31
0.0
  0
LINE
  5
1746
  8
250
 10
28.000000000000011
 20
14.49137674618947
 30
0.0
 11
28.000000000000011
 21
12.261376746189461
 31
0.0
  0
TEXT
  5
1747
  8
250
 10
4.6333333333335327
 20
36.0
 30
0.0
 40
2.799999999999998
  1
15
  0
LINE
  5
1748
  8
250
 10
12.770000000000501
 20
35.37166666666667
 30
0.0
 11
15.00000000000051
 21
35.0
 31
0.0
  0
LINE
  5
1749
  8
250
 10
12.770000000000501
 20
34.62833333333333
 30
0.0
 11
15.00000000000051
 21
35.0
 31
0.0
  0
LINE
  5
174A
  8
250
 10
15.00000000000051
 20
35.0
 30
0.0
 11
12.770000000000501
 21
35.0
 31
0.0
  0
LINE
  5
174B
  8
250
 10
2.2299999999998872
 20
34.62833333333333
 30
0.0
 11
-0.0000000000001124
 21
35.0
 31
0.0
  0
LINE
  5
174C
  8
250
 10
2.2299999999998872
 20
35.37166666666667
 30
0.0
 11
-0.0000000000001124
 21
35.0
 31
0.0
  0
LINE
  5
174D
  8
250
 10
-0.0000000000001124
 20
35.0
 30
0.0
 11
2.2299999999998872
 21
35.0
 31
0.0
  0
TEXT
  5
174E
  8
250
 10
-183.0
 20
-3.7999999999999661
 30
0.0
 40
2.799999999999998
  1
\U+220532
 50
90.0
  0
LINE
  5
174F
  8
250
 10
-182.37166666666661
 20
13.77
 30
0.0
 11
-182.0
 21
16.0
 31
0.0
  0
LINE
  5
1750
  8
250
 10
-181.6283333333333
 20
13.77
 30
0.0
 11
-182.0
 21
16.0
 31
0.0
  0
LINE
  5
1751
  8
250
 10
-182.0
 20
16.0
 30
0.0
 11
-182.0
 21
13.77
 31
0.0
  0
LINE
  5
1752
  8
250
 10
-181.6283333333333
 20
-13.769999999999881
 30
0.0
 11
-182.0
 21
-15.999999999999879
 31
0.0
  0
LINE
  5
1753
  8
250
 10
-182.37166666666661
 20
-13.769999999999881
 30
0.0
 11
-182.0
 21
-15.999999999999879
 31
0.0
  0
LINE
  5
1754
  8
250
 10
-182.0
 20
-15.999999999999879
 30
0.0
 11
-182.0
 21
-13.769999999999881
 31
0.0
  0
TEXT
  5
1755
  8
250
 10
-83.199999999999704
 20
43.0
 30
0.0
 40
2.799999999999998
  1
188
  0
LINE
  5
1756
  8
250
 10
12.77000000000068
 20
42.371666666666663
 30
0.0
 11
15.00000000000068
 21
42.0
 31
0.0
  0
LINE
  5
1757
  8
250
 10
12.77000000000068
 20
41.62833333333333
 30
0.0
 11
15.00000000000068
 21
42.0
 31
0.0
  0
LINE
  5
1758
  8
250
 10
15.00000000000068
 20
42.0
 30
0.0
 11
12.77000000000068
 21
42.0
 31
0.0
  0
LINE
  5
1759
  8
250
 10
-170.7700000000001
 20
41.62833333333333
 30
0.0
 11
-173.00000000000011
 21
42.0
 31
0.0
  0
LINE
  5
175A
  8
250
 10
-170.7700000000001
 20
42.371666666666663
 30
0.0
 11
-173.00000000000011
 21
42.0
 31
0.0
  0
LINE
  5
175B
  8
250
 10
-173.00000000000011
 20
42.0
 30
0.0
 11
-170.7700000000001
 21
42.0
 31
0.0
  0
VIEWPORT
  5
22
 67
     1
  8
0
 10
261.51769911504419
 20
148.5
 30
0.0
 40
523.0353982300885
 41
297.0
 68
     1
 69
     1
1001
ACAD
1000
MVIEW
1002
{
1070
    16
1010
0.0
1020
0.0
1030
0.0
1010
0.0
1020
0.0
1030
1.0
1040
0.0
1040
297.0
1040
261.51769911504419
1040
148.5
1040
50.0
1040
0.0
1040
0.0
1070
     0
1070
   100
1070
     1
1070
     1
1070
     0
1070
     0
1070
     0
1070
     0
1040
0.0
1040
0.0
1040
0.0
1040
1.0
1040
1.0
1040
10.0
1040
10.0
1070
     0
1002
{
1002
}
1002
}
1001
GENIUS_GENODEF_13
1002
{
1000
HIER
1070
     0
1002
}
1002
{
1000
MANEDIT
1070
     0
1002
}
1002
{
1000
NOSEL
1070
     0
1002
}
1002
{
1000
BEHIND
1070
     0
1002
}
1002
{
1000
OTHER
1070
     0
1002
}
1002
{
1000
REACTOR
1002
}
1001
GENIUS_GENOBJ-N-SDF_13
1002
{
1000
OWNER
1000
GEN
1002
}
1001
GENIUS_GENSCREG_15
1000
PF
1040
1.0
1000
DF
1040
1.0
1000
MIN
1011
0.0
1021
0.0
1031
1.5279652567599381E+141
1021
0.0
1031
0.0
1000
MAX
1011
523.0353982300885
1021
0.0
1031
1.5279652567599381E+141
1021
297.0
1031
0.0
1000
FLAGS
1070
     2
  0
ENDSEC
  0
EOF
