  0
SECTION
  2
HEADER
  9
$ACADVER
  1
AC1009
  9
$INSBASE
 10
0.0
 20
0.0
 30
0.0
  9
$EXTMIN
 10
-170.6857142857144
 20
-12.550000000000111
 30
0.0
  9
$EXTMAX
 10
10.823778847020719
 20
54.000000000000021
 30
0.0
  9
$LIMMIN
 10
0.0
 20
0.0
  9
$LIMMAX
 10
297.0
 20
210.0
  9
$ORTHOMODE
 70
     0
  9
$REGENMODE
 70
     1
  9
$FILLMODE
 70
     1
  9
$QTEXTMODE
 70
     0
  9
$MIRRTEXT
 70
     1
  9
$DRAGMODE
 70
     2
  9
$LTSCALE
 40
10.0
  9
$OSMODE
 70
    39
  9
$ATTMODE
 70
     1
  9
$TEXTSIZE
 40
3.0
  9
$TRACEWID
 40
1.0
  9
$TEXTSTYLE
  7
YOKO
  9
$CLAYER
  8
240
  9
$CELTYPE
  6
BYLAYER
  9
$CECOLOR
 62
   256
  9
$DIMSCALE
 40
1.0
  9
$DIMASZ
 40
2.2299999999999991
  9
$DIMEXO
 40
0.5
  9
$DIMDLI
 40
7.0
  9
$DIMRND
 40
0.0
  9
$DIMDLE
 40
0.0
  9
$DIMEXE
 40
1.0
  9
$DIMTP
 40
0.0
  9
$DIMTM
 40
0.01
  9
$DIMTXT
 40
2.7999999999999989
  9
$DIMCEN
 40
0.0
  9
$DIMTSZ
 40
0.0
  9
$DIMTOL
 70
     0
  9
$DIMLIM
 70
     0
  9
$DIMTIH
 70
     0
  9
$DIMTOH
 70
     0
  9
$DIMSE1
 70
     0
  9
$DIMSE2
 70
     0
  9
$DIMTAD
 70
     3
  9
$DIMZIN
 70
     9
  9
$DIMBLK
  1
OPEN
  9
$DIMASO
 70
     1
  9
$DIMSHO
 70
     1
  9
$DIMPOST
  1

  9
$DIMAPOST
  1

  9
$DIMALT
 70
     0
  9
$DIMALTD
 70
     2
  9
$DIMALTF
 40
25.399999999999999
  9
$DIMLFAC
 40
1.0
  9
$DIMTOFL
 70
     1
  9
$DIMTVP
 40
0.0
  9
$DIMTIX
 70
     1
  9
$DIMSOXD
 70
     0
  9
$DIMSAH
 70
     0
  9
$DIMBLK1
  1

  9
$DIMBLK2
  1

  9
$DIMSTYLE
  2
BIGT
  9
$DIMCLRD
 70
   256
  9
$DIMCLRE
 70
   256
  9
$DIMCLRT
 70
    40
  9
$DIMTFAC
 40
1.0
  9
$DIMGAP
 40
1.0
  9
$LUNITS
 70
     2
  9
$LUPREC
 70
     3
  9
$SKETCHINC
 40
1.0
  9
$FILLETRAD
 40
0.0
  9
$AUNITS
 70
     0
  9
$AUPREC
 70
     3
  9
$MENU
  1
.
  9
$ELEVATION
 40
0.0
  9
$PELEVATION
 40
0.0
  9
$THICKNESS
 40
0.0
  9
$LIMCHECK
 70
     0
  9
$BLIPMODE
 70
     0
  9
$CHAMFERA
 40
0.25
  9
$CHAMFERB
 40
0.25
  9
$SKPOLY
 70
     0
  9
$TDCREATE
 40
2456114.6881430899
  9
$TDUPDATE
 40
2456115.3958832412
  9
$TDINDWG
 40
0.0224908565
  9
$TDUSRTIMER
 40
0.0224908565
  9
$USRTIMER
 70
     1
  9
$ANGBASE
 50
0.0
  9
$ANGDIR
 70
     0
  9
$PDMODE
 70
     1
  9
$PDSIZE
 40
0.0
  9
$PLINEWID
 40
0.0
  9
$COORDS
 70
     0
  9
$SPLFRAME
 70
     0
  9
$SPLINETYPE
 70
     6
  9
$SPLINESEGS
 70
     4
  9
$ATTDIA
 70
     1
  9
$ATTREQ
 70
     1
  9
$HANDLING
 70
     1
  9
$HANDSEED
  5
190E
  9
$SURFTAB1
 70
     6
  9
$SURFTAB2
 70
     6
  9
$SURFTYPE
 70
     6
  9
$SURFU
 70
     6
  9
$SURFV
 70
     6
  9
$UCSNAME
  2

  9
$UCSORG
 10
0.0
 20
0.0
 30
0.0
  9
$UCSXDIR
 10
1.0
 20
0.0
 30
0.0
  9
$UCSYDIR
 10
0.0
 20
1.0
 30
0.0
  9
$PUCSNAME
  2

  9
$PUCSORG
 10
0.0
 20
0.0
 30
0.0
  9
$PUCSXDIR
 10
1.0
 20
0.0
 30
0.0
  9
$PUCSYDIR
 10
0.0
 20
1.0
 30
0.0
  9
$USERI1
 70
     1
  9
$USERI2
 70
     0
  9
$USERI3
 70
     0
  9
$USERI4
 70
     0
  9
$USERI5
 70
     0
  9
$USERR1
 40
0.0
  9
$USERR2
 40
0.0
  9
$USERR3
 40
0.0
  9
$USERR4
 40
0.0
  9
$USERR5
 40
0.0
  9
$WORLDVIEW
 70
     1
  9
$SHADEDGE
 70
     3
  9
$SHADEDIF
 70
    70
  9
$TILEMODE
 70
     1
  9
$MAXACTVP
 70
    16
  9
$PLIMCHECK
 70
     0
  9
$PEXTMIN
 10
1.0000000000000000E+020
 20
1.0000000000000000E+020
 30
1.0000000000000000E+020
  9
$PEXTMAX
 10
-1.0000000000000000E+020
 20
-1.0000000000000000E+020
 30
-1.0000000000000000E+020
  9
$PLIMMIN
 10
0.0
 20
0.0
  9
$PLIMMAX
 10
420.0
 20
297.0
  9
$UNITMODE
 70
     0
  9
$VISRETAIN
 70
     1
  9
$PLINEGEN
 70
     0
  9
$PSLTSCALE
 70
     1
  0
ENDSEC
  0
SECTION
  2
TABLES
  0
TABLE
  2
VPORT
 70
     3
  0
VPORT
  2
*ACTIVE
 70
     0
 10
0.0
 20
0.0
 11
1.0
 21
1.0
 12
-79.803794435113446
 22
20.725708398648688
 13
0.0
 23
0.0
 14
7.0
 24
7.0
 15
7.0
 25
7.0
 16
0.0
 26
0.0
 36
1.0
 17
0.0
 27
0.0
 37
0.0
 40
117.7942094411523
 41
1.5459518599562361
 42
50.0
 43
0.0
 44
0.0
 50
0.0
 51
0.0
 71
     0
 72
  2000
 73
     1
 74
     0
 75
     0
 76
     0
 77
     0
 78
     0
  0
ENDTAB
  0
TABLE
  2
LTYPE
 70
    15
  0
LTYPE
  2
CONTINUOUS
 70
     0
  3
Solid line
 72
    65
 73
     0
 40
0.0
  0
LTYPE
  2
CENTER2
 70
     0
  3
___ _ ___ _ ___ _ ___ _ ___ _ ___ _ ___ _ ___ _
 72
    65
 73
     4
 40
1.125
 49
0.75
 49
-0.125
 49
0.125
 49
-0.125
  0
LTYPE
  2
HIDDEN2
 70
     0
  3
_ _ _ _ _ _ _ _ _ _ _ _ _ _ _ _ _ _ _ _ _ _ _ _
 72
    65
 73
     2
 40
0.1875
 49
0.125
 49
-0.0625
  0
LTYPE
  2
PHANTOM2
 70
     0
  3
___ _ _ ___ _ _ ___ _ _ ___ _ _ ___ _ _ ___ _ _
 72
    65
 73
     6
 40
1.25
 49
0.625
 49
-0.125
 49
0.125
 49
-0.125
 49
0.125
 49
-0.125
  0
LTYPE
  2
CENTER
 70
     0
  3
____ _ ____ _ ____ _ ____ _ ____ _ ____ _ ____ 
 72
    65
 73
     4
 40
2.0
 49
1.25
 49
-0.25
 49
0.25
 49
-0.25
  0
LTYPE
  2
AM_ISO02W050
 70
     0
  3
__ __ __ __ __ __ __ __ __ __ __ __ __ __ __
 72
    65
 73
     2
 40
7.5
 49
6.0
 49
-1.5
  0
LTYPE
  2
AMCONSTR
 70
     0
  3
_______________________
 72
    65
 73
     2
 40
9999.0
 49
9999.0
 49
0.0
  0
LTYPE
  2
ACISOWELD
 70
     0
  3
_ _ _ _ _
 72
    65
 73
     2
 40
2.0
 49
2.0
 49
-1.0
  0
LTYPE
  2
ACISOTGB
 70
     0
  3
__ . . __ . .
 72
    65
 73
     6
 40
9.0
 49
4.0
 49
-1.0
 49
1.0
 49
-1.0
 49
1.0
 49
-1.0
  0
LTYPE
  2
ACISOTGL
 70
     0
  3
_ _ _ _ _
 72
    65
 73
     2
 40
3.0
 49
2.0
 49
-1.0
  0
LTYPE
  2
ACJISTGB
 70
     0
  3
__ . . __ . .
 72
    65
 73
     6
 40
9.0
 49
4.0
 49
-1.0
 49
1.0
 49
-1.0
 49
1.0
 49
-1.0
  0
LTYPE
  2
ACJISTGL
 70
     0
  3
_ _ _ _ _
 72
    65
 73
     2
 40
3.0
 49
2.0
 49
-1.0
  0
LTYPE
  2
HIDDEN
 70
     0
  3
Hidden __ __ __ __ __ __ __ __ __ __ __ __ __ _
 72
    65
 73
     2
 40
9.5249999999999986
 49
6.3499999999999988
 49
-3.1749999999999989
  0
ENDTAB
  0
TABLE
  2
LAYER
 70
     7
  0
LAYER
  2
0
 70
     0
 62
     7
  6
CONTINUOUS
  0
LAYER
  2
DEFPOINTS
 70
     0
 62
     7
  6
CONTINUOUS
  0
LAYER
  2
245
 70
     0
 62
     2
  6
CENTER2
  0
LAYER
  2
240
 70
     0
 62
     4
  6
CONTINUOUS
  0
LAYER
  2
241
 70
     0
 62
   211
  6
CONTINUOUS
  0
LAYER
  2
242
 70
     0
 62
     3
  6
CONTINUOUS
  0
LAYER
  2
250
 70
     0
 62
     3
  6
CONTINUOUS
  0
ENDTAB
  0
TABLE
  2
STYLE
 70
     8
  0
STYLE
  2
STANDARD
 70
     0
 40
0.0
 41
1.0
 50
0.0
 71
     0
 42
3.0
  3
romans.shx
  4
extfont.shx
  0
STYLE
  2
ACISOTS
 70
     0
 40
1.0
 41
1.0
 50
0.0
 71
     0
 42
3.0
  3
amgdt.shx
  4
extfont.shx
  0
STYLE
  2
ACISOGDT
 70
     0
 40
0.0
 41
1.0
 50
0.0
 71
     0
 42
3.0
  3
amgdt.shx
  4
extfont.shx
  0
STYLE
  2
ACJISTS
 70
     0
 40
1.0
 41
1.0
 50
0.0
 71
     0
 42
3.0
  3
amgdt.shx
  4
extfont.shx
  0
STYLE
  2
ACJISGDT
 70
     0
 40
0.0
 41
1.0
 50
0.0
 71
     0
 42
3.0
  3
amgdt.shx
  4
extfont.shx
  0
STYLE
  2
YOKO
 70
     0
 40
0.0
 41
1.0
 50
0.0
 71
     0
 42
3.0
  3
romans.shx
  4
extfont.shx
  0
ENDTAB
  0
TABLE
  2
VIEW
 70
     0
  0
ENDTAB
  0
TABLE
  2
UCS
 70
     0
  0
ENDTAB
  0
TABLE
  2
APPID
 70
    28
  0
APPID
  2
ACAD
 70
     0
  0
APPID
  2
GLOBAL
 70
     0
  0
APPID
  2
DETAIL
 70
     0
  0
APPID
  2
GRPNAME
 70
     0
  0
APPID
  2
GPARA
 70
     0
  0
APPID
  2
MCAD_NO_VIS
 70
     0
  0
APPID
  2
ACAD_TEMP_GRAPHIC
 70
     0
  0
APPID
  2
ACATTRIBSERVICES
 70
     0
  0
APPID
  2
GENIUS_GENSCREG_15
 70
     0
  0
APPID
  2
GENIUS_GENODEF_13
 70
     0
  0
APPID
  2
GENIUS_GENOBJ-N-SDF_13
 70
     0
  0
APPID
  2
GENIUS_GENREC_14
 70
     0
  0
APPID
  2
GENIUS_GENOBJ-N-REC_13
 70
     0
  0
APPID
  2
GENIUS_GENDIMSH_14
 70
     0
  0
APPID
  2
GENIUS_GENOBJ-N-DIM_13
 70
     0
  0
APPID
  2
GENIUS_GENDIM_13
 70
     0
  0
APPID
  2
GENIUS_GENDTOL_13
 70
     0
  0
APPID
  2
GENIUS_GENOLIS_13
 70
     0
  0
APPID
  2
GENIUS_GENOENT_13
 70
     0
  0
APPID
  2
GENIUS_GENOBJ-F-FEM_13
 70
     0
  0
APPID
  2
GENIUS_GENOREF_13
 70
     0
  0
APPID
  2
GENIUS_GEFFEM_13
 70
     0
  0
APPID
  2
GENIUS_GEFFEMP_13
 70
     0
  0
APPID
  2
AD_DRAW
 70
     0
  0
APPID
  2
DESIGNERASSEMBLIES
 70
     0
  0
APPID
  2
ACADM_DIM_EDIT
 70
     0
  0
APPID
  2
AMDT_DM_ADJ
 70
     0
  0
APPID
  2
GENIUS_GENOBJ-N-FIL_13
 70
     0
  0
ENDTAB
  0
TABLE
  2
DIMSTYLE
 70
    29
  0
DIMSTYLE
  2
BIGT
 70
     0
  3

  4

  5
OPEN
  6

  7

 40
1.0
 41
2.2299999999999991
 42
0.5
 43
7.0
 44
1.0
 45
0.0
 46
0.0
 47
0.0
 48
0.01
140
2.7999999999999989
141
0.0
142
0.0
143
25.399999999999999
144
1.0
145
0.0
146
1.0
147
1.0
 71
     0
 72
     0
 73
     0
 74
     0
 75
     0
 76
     0
 77
     3
 78
     9
170
     0
171
     2
172
     1
173
     0
174
     1
175
     0
176
   256
177
   256
178
    40
  0
DIMSTYLE
  2
AM_ISO
 70
     0
  3

  4
"
  5

  6

  7

 40
1.0
 41
2.5
 42
1.0
 43
10.0
 44
1.0
 45
0.0
 46
0.0
 47
0.1
 48
0.1
140
3.5
141
0.0
142
0.0
143
0.0393701
144
1.0
145
0.0
146
0.71
147
1.5
 71
     0
 72
     0
 73
     0
 74
     0
 75
     0
 76
     0
 77
     1
 78
     8
170
     0
171
     2
172
     1
173
     0
174
     0
175
     0
176
   256
177
   256
178
     2
  0
DIMSTYLE
  2
AM_ISO$3
 70
     0
  3

  4
"
  5

  6

  7

 40
1.0
 41
2.5
 42
1.0
 43
10.0
 44
1.0
 45
0.0
 46
0.0
 47
0.1
 48
0.1
140
3.5
141
0.0
142
0.0
143
0.0393701
144
1.0
145
0.0
146
0.71
147
1.5
 71
     0
 72
     0
 73
     0
 74
     1
 75
     0
 76
     0
 77
     1
 78
     8
170
     0
171
     2
172
     0
173
     0
174
     0
175
     0
176
   256
177
   256
178
     2
  0
DIMSTYLE
  2
AM_ISO$4
 70
     0
  3

  4
"
  5

  6

  7

 40
1.0
 41
2.5
 42
1.0
 43
10.0
 44
1.0
 45
0.0
 46
0.0
 47
0.1
 48
0.1
140
3.5
141
0.0
142
0.0
143
0.0393701
144
1.0
145
0.0
146
0.71
147
1.5
 71
     0
 72
     0
 73
     0
 74
     1
 75
     0
 76
     0
 77
     1
 78
     8
170
     0
171
     2
172
     0
173
     0
174
     0
175
     0
176
   256
177
   256
178
     2
  0
DIMSTYLE
  2
AM_ISO$6
 70
     0
  3

  4
"
  5

  6

  7

 40
1.0
 41
2.5
 42
1.0
 43
10.0
 44
1.0
 45
0.0
 46
0.0
 47
0.1
 48
0.1
140
3.5
141
0.0
142
0.0
143
0.0393701
144
1.0
145
0.0
146
0.71
147
1.5
 71
     0
 72
     0
 73
     0
 74
     0
 75
     0
 76
     0
 77
     0
 78
     8
170
     0
171
     2
172
     1
173
     0
174
     0
175
     0
176
   256
177
   256
178
     2
  0
DIMSTYLE
  2
AM_ISO$7
 70
     0
  3

  4
"
  5

  6

  7

 40
1.0
 41
2.5
 42
1.0
 43
10.0
 44
1.0
 45
0.0
 46
0.0
 47
0.1
 48
0.1
140
5.0
141
0.0
142
0.0
143
0.0393701
144
1.0
145
0.0
146
0.71
147
1.5
 71
     0
 72
     0
 73
     0
 74
     0
 75
     0
 76
     0
 77
     1
 78
     8
170
     0
171
     2
172
     1
173
     0
174
     0
175
     0
176
   256
177
   256
178
     2
  0
DIMSTYLE
  2
AM_ISO$SF
 70
     0
  3

  4
"
  5

  6

  7

 40
1.0
 41
2.5
 42
1.0
 43
10.0
 44
1.0
 45
0.0
 46
0.0
 47
0.1
 48
0.1
140
3.5
141
0.0
142
0.0
143
0.0393701
144
1.0
145
0.0
146
0.71
147
1.5
 71
     0
 72
     0
 73
     0
 74
     0
 75
     1
 76
     1
 77
     1
 78
     8
170
     0
171
     2
172
     1
173
     0
174
     0
175
     0
176
   256
177
   256
178
     2
  0
DIMSTYLE
  2
AM_ISO$SH
 70
     0
  3

  4
"
  5

  6
GENAXEH
  7

 40
1.0
 41
2.5
 42
1.0
 43
10.0
 44
1.0
 45
0.0
 46
0.0
 47
0.1
 48
0.1
140
3.5
141
0.0
142
0.0
143
0.0393701
144
2.0
145
0.0
146
0.71
147
1.5
 71
     0
 72
     0
 73
     0
 74
     0
 75
     1
 76
     1
 77
     1
 78
     8
170
     0
171
     2
172
     1
173
     1
174
     0
175
     0
176
   256
177
   256
178
     2
  0
DIMSTYLE
  2
BIGT$2
 70
     0
  3

  4

  5
OPEN
  6

  7

 40
1.0
 41
2.2299999999999991
 42
0.5
 43
7.0
 44
1.0
 45
0.0
 46
0.0
 47
0.0
 48
0.01
140
2.7999999999999989
141
0.0
142
0.0
143
25.399999999999999
144
1.0
145
0.0
146
1.0
147
1.0
 71
     0
 72
     0
 73
     0
 74
     0
 75
     0
 76
     0
 77
     3
 78
     9
170
     0
171
     2
172
     1
173
     0
174
     0
175
     0
176
   256
177
   256
178
    40
  0
DIMSTYLE
  2
BIGT$3
 70
     0
  3

  4

  5
OPEN
  6

  7

 40
1.0
 41
2.2299999999999991
 42
0.5
 43
2.5
 44
1.0
 45
0.0
 46
0.0
 47
0.0
 48
0.01
140
2.7999999999999989
141
0.0
142
0.0
143
25.399999999999999
144
1.0
145
0.0
146
1.0
147
1.0
 71
     0
 72
     0
 73
     0
 74
     0
 75
     0
 76
     0
 77
     3
 78
     9
170
     0
171
     2
172
     1
173
     0
174
     0
175
     0
176
   256
177
   256
178
    40
  0
DIMSTYLE
  2
BIGT$7
 70
     0
  3

  4

  5
OPEN
  6

  7

 40
0.0
 41
2.2299999999999991
 42
0.5
 43
7.0
 44
1.0
 45
0.0
 46
0.0
 47
0.0
 48
0.01
140
2.7999999999999989
141
0.0
142
0.0
143
25.399999999999999
144
1.0
145
0.0
146
1.0
147
1.0
 71
     0
 72
     0
 73
     0
 74
     0
 75
     0
 76
     0
 77
     3
 78
     9
170
     0
171
     2
172
     0
173
     0
174
     0
175
     0
176
   256
177
   256
178
    40
  0
DIMSTYLE
  2
BIGT$6
 70
     0
  3

  4

  5
OPEN
  6

  7

 40
1.0
 41
2.2299999999999991
 42
0.5
 43
2.5
 44
1.0
 45
0.0
 46
0.0
 47
0.0
 48
0.01
140
2.7999999999999989
141
0.0
142
0.0
143
25.399999999999999
144
1.0
145
0.0
146
1.0
147
1.0
 71
     0
 72
     0
 73
     0
 74
     0
 75
     0
 76
     0
 77
     3
 78
     9
170
     0
171
     2
172
     1
173
     0
174
     0
175
     0
176
   256
177
   256
178
    40
  0
DIMSTYLE
  2
BIGT$0
 70
     0
  3

  4

  5
OPEN
  6

  7

 40
1.0
 41
2.2299999999999991
 42
0.5
 43
7.0
 44
1.0
 45
0.0
 46
0.0
 47
0.0
 48
0.01
140
2.7999999999999989
141
0.0
142
0.0
143
25.399999999999999
144
1.0
145
0.0
146
1.0
147
1.0
 71
     0
 72
     0
 73
     0
 74
     0
 75
     0
 76
     0
 77
     3
 78
     9
170
     0
171
     2
172
     1
173
     0
174
     0
175
     0
176
   256
177
   256
178
    40
  0
DIMSTYLE
  2
BIGT$4
 70
     0
  3

  4

  5
OPEN
  6

  7

 40
1.0
 41
2.2299999999999991
 42
0.5
 43
2.5
 44
1.0
 45
0.0
 46
0.0
 47
0.0
 48
0.01
140
2.7999999999999989
141
0.0
142
0.0
143
25.399999999999999
144
1.0
145
0.0
146
1.0
147
1.0
 71
     0
 72
     0
 73
     0
 74
     0
 75
     0
 76
     0
 77
     3
 78
     9
170
     0
171
     2
172
     1
173
     0
174
     0
175
     0
176
   256
177
   256
178
    40
  0
DIMSTYLE
  2
BIGT$SH
 70
     0
  3

  4

  5
OPEN
  6

  7

 40
1.0
 41
2.2299999999999991
 42
0.5
 43
7.0
 44
1.0
 45
0.0
 46
0.0
 47
0.0
 48
0.0
140
2.7999999999999989
141
0.0
142
0.0
143
25.399999999999999
144
1.0
145
0.0
146
1.0
147
1.0
 71
     0
 72
     0
 73
     0
 74
     0
 75
     0
 76
     0
 77
     3
 78
     9
170
     0
171
     2
172
     1
173
     0
174
     0
175
     0
176
   256
177
   256
178
    40
  0
DIMSTYLE
  2
BIGT$SF
 70
     0
  3

  4

  5
OPEN
  6

  7

 40
1.0
 41
2.2299999999999991
 42
0.5
 43
7.0
 44
1.0
 45
0.0
 46
0.0
 47
0.0
 48
0.0
140
2.7999999999999989
141
0.0
142
0.0
143
25.399999999999999
144
1.0
145
0.0
146
1.0
147
1.0
 71
     0
 72
     0
 73
     0
 74
     0
 75
     0
 76
     0
 77
     3
 78
     9
170
     0
171
     2
172
     1
173
     0
174
     0
175
     0
176
   256
177
   256
178
    40
  0
DIMSTYLE
  2
TECHNICAL_OSAKA
 70
     0
  3

  4
"
  5
OPEN30
  6

  7

 40
1.0
 41
2.5
 42
1.0
 43
10.0
 44
1.0
 45
0.0
 46
0.0
 47
0.1
 48
0.1
140
2.7999999999999989
141
0.0
142
0.0
143
0.0393701
144
1.0
145
0.0
146
0.71
147
1.5
 71
     0
 72
     0
 73
     0
 74
     0
 75
     0
 76
     0
 77
     3
 78
     8
170
     0
171
     2
172
     1
173
     0
174
     0
175
     0
176
   256
177
   256
178
    40
  0
DIMSTYLE
  2
TECHNICAL_OSAKA$3
 70
     0
  3

  4
"
  5
OPEN30
  6

  7

 40
1.0
 41
2.5
 42
1.0
 43
10.0
 44
1.0
 45
0.0
 46
0.0
 47
0.1
 48
0.1
140
2.7999999999999989
141
0.0
142
0.0
143
0.0393701
144
1.0
145
0.0
146
0.71
147
1.5
 71
     0
 72
     0
 73
     0
 74
     1
 75
     0
 76
     0
 77
     3
 78
     8
170
     0
171
     2
172
     0
173
     0
174
     0
175
     0
176
   256
177
   256
178
    40
  0
DIMSTYLE
  2
TECHNICAL_OSAKA$4
 70
     0
  3

  4
"
  5
OPEN30
  6

  7

 40
1.0
 41
2.5
 42
1.0
 43
10.0
 44
1.0
 45
0.0
 46
0.0
 47
0.1
 48
0.1
140
2.7999999999999989
141
0.0
142
0.0
143
0.0393701
144
1.0
145
0.0
146
0.71
147
1.5
 71
     0
 72
     0
 73
     0
 74
     1
 75
     0
 76
     0
 77
     3
 78
     8
170
     0
171
     2
172
     0
173
     0
174
     0
175
     0
176
   256
177
   256
178
    40
  0
DIMSTYLE
  2
TECHNICAL_OSAKA$6
 70
     0
  3

  4
"
  5
OPEN30
  6

  7

 40
1.0
 41
2.5
 42
1.0
 43
10.0
 44
1.0
 45
0.0
 46
0.0
 47
0.1
 48
0.1
140
2.7999999999999989
141
0.0
142
0.0
143
0.0393701
144
1.0
145
0.0
146
0.71
147
1.5
 71
     0
 72
     0
 73
     0
 74
     0
 75
     0
 76
     0
 77
     0
 78
     8
170
     0
171
     2
172
     1
173
     0
174
     0
175
     0
176
   256
177
   256
178
    40
  0
DIMSTYLE
  2
TECHNICAL_OSAKA$7
 70
     0
  3

  4
"
  5
OPEN30
  6

  7

 40
1.0
 41
2.5
 42
1.0
 43
10.0
 44
1.0
 45
0.0
 46
0.0
 47
0.1
 48
0.1
140
2.7999999999999989
141
0.0
142
0.0
143
0.0393701
144
1.0
145
0.0
146
0.71
147
1.5
 71
     0
 72
     0
 73
     0
 74
     0
 75
     0
 76
     0
 77
     3
 78
     8
170
     0
171
     2
172
     1
173
     0
174
     0
175
     0
176
   256
177
   256
178
    40
  0
DIMSTYLE
  2
TECHNICAL_OSAKA$SF
 70
     0
  3

  4
"
  5
OPEN30
  6
OPEN30
  7
OPEN30
 40
1.0
 41
2.5
 42
1.0
 43
10.0
 44
1.0
 45
0.0
 46
0.0
 47
0.1
 48
0.1
140
3.5
141
0.0
142
0.0
143
0.0393701
144
1.0
145
0.0
146
0.71
147
1.5
 71
     0
 72
     0
 73
     0
 74
     0
 75
     1
 76
     1
 77
     3
 78
     8
170
     0
171
     2
172
     1
173
     0
174
     0
175
     0
176
   256
177
   256
178
    40
  0
DIMSTYLE
  2
TECHNICAL_OSAKA$SH
 70
     0
  3

  4
"
  5
OPEN30
  6
GENAXEH
  7
OPEN30
 40
1.0
 41
2.5
 42
1.0
 43
10.0
 44
1.0
 45
0.0
 46
0.0
 47
0.1
 48
0.1
140
3.5
141
0.0
142
0.0
143
0.0393701
144
2.0
145
0.0
146
0.71
147
1.5
 71
     0
 72
     0
 73
     0
 74
     0
 75
     1
 76
     1
 77
     3
 78
     8
170
     0
171
     2
172
     1
173
     1
174
     0
175
     0
176
   256
177
   256
178
    40
  0
ENDTAB
  0
ENDSEC
  0
SECTION
  2
BLOCKS
  0
BLOCK
  8
0
  2
$MODEL_SPACE
 70
     0
 10
0.0
 20
0.0
 30
0.0
  3
$MODEL_SPACE
  1

  0
ENDBLK
  5
1C
  8
0
  0
BLOCK
 67
     1
  8
0
  2
$PAPER_SPACE
 70
     0
 10
0.0
 20
0.0
 30
0.0
  3
$PAPER_SPACE
  1

  0
ENDBLK
  5
19
 67
     1
  8
0
  0
BLOCK
  8
0
  2
_OPEN
 70
     0
 10
0.0
 20
0.0
 30
0.0
  3
_OPEN
  1

  0
LINE
  5
18A4
  8
0
  6
BYBLOCK
 62
     0
 10
-1.0
 20
0.1666666666666666
 30
0.0
 11
0.0
 21
0.0
 31
0.0
  0
LINE
  5
18A5
  8
0
  6
BYBLOCK
 62
     0
 10
-1.0
 20
-0.1666666666666666
 30
0.0
 11
0.0
 21
0.0
 31
0.0
  0
LINE
  5
18A6
  8
0
  6
BYBLOCK
 62
     0
 10
0.0
 20
0.0
 30
0.0
 11
-1.0
 21
0.0
 31
0.0
  0
ENDBLK
  5
18A7
  8
0
  0
BLOCK
  8
0
  2
GENAXEH
 70
     0
 10
0.0
 20
0.0
 30
0.0
  3
GENAXEH
  1

  0
LINE
  5
18CF
  8
0
 10
-1.0
 20
0.0
 30
0.0
 11
1.0
 21
0.0
 31
0.0
  0
ENDBLK
  5
18D0
  8
0
  0
BLOCK
  8
0
  2
_OPEN30
 70
     0
 10
0.0
 20
0.0
 30
0.0
  3
_OPEN30
  1

  0
LINE
  5
18F4
  8
0
  6
BYBLOCK
 62
     0
 10
-1.0
 20
0.26794919
 30
0.0
 11
0.0
 21
0.0
 31
0.0
  0
LINE
  5
18F5
  8
0
  6
BYBLOCK
 62
     0
 10
0.0
 20
0.0
 30
0.0
 11
-1.0
 21
-0.26794919
 31
0.0
  0
LINE
  5
18F6
  8
0
  6
BYBLOCK
 62
     0
 10
0.0
 20
0.0
 30
0.0
 11
-1.0
 21
0.0
 31
0.0
  0
ENDBLK
  5
18F7
  8
0
  0
ENDSEC
  0
SECTION
  2
ENTITIES
  0
LINE
  5
1443
  8
245
 10
2.9999999999999138
 20
0.0
 30
0.0
 11
-153.0000000000002
 21
-0.0000000000000142
 31
0.0
  0
LINE
  5
147E
  8
241
 10
-36.000000000000078
 20
-12.23171652200098
 30
0.0
 11
-36.000000000000078
 21
12.23171652200103
 31
0.0
  0
LINE
  5
1481
  8
241
  6
CONTINUOUS
 10
-38.000000000000028
 20
12.417468270048269
 30
0.0
 11
-38.000000000000028
 21
-12.48171652200115
 31
0.0
  0
LINE
  5
1482
  8
241
  6
CONTINUOUS
 10
-148.0
 20
-12.361252527834189
 30
0.0
 11
-148.0
 21
12.32701264715798
 31
0.0
  0
ARC
  5
1483
  8
240
  6
CONTINUOUS
 10
-149.5
 20
11.056624327026
 30
0.0
 40
0.5
 50
120.0000000000001
 51
180.0
  0
LINE
  5
1486
  8
240
  6
CONTINUOUS
 10
-37.999999999999432
 20
-12.49999999999998
 30
0.0
 11
-147.73205080756881
 21
-12.49999999999998
 31
0.0
  0
LINE
  5
148A
  8
240
 10
-37.30717967697538
 20
-12.10000000000001
 30
0.0
 11
-36.259807621134797
 21
-12.100000000000129
 31
0.0
  0
LINE
  5
148B
  8
240
 10
-36.259807621134797
 20
-12.100000000000129
 30
0.0
 11
-36.000000000000227
 21
-12.24999999999987
 31
0.0
  0
LINE
  5
148E
  8
240
  6
CONTINUOUS
 10
-37.999999999999432
 20
-12.49999999999998
 30
0.0
 11
-37.30717967697538
 21
-12.10000000000001
 31
0.0
  0
LINE
  5
1494
  8
240
  6
CONTINUOUS
 10
-148.23205080756881
 20
-12.36602540378443
 30
0.0
 11
-149.75
 21
-11.48963702891815
 31
0.0
  0
ARC
  5
1495
  8
240
  6
CONTINUOUS
 10
-147.73205080756881
 20
-11.49999999999998
 30
0.0
 40
1.0
 50
239.99999999999989
 51
270.0
  0
LINE
  5
1497
  8
240
  6
CONTINUOUS
 10
-150.0
 20
-11.05662432702591
 30
0.0
 11
-150.0
 21
11.056624327026
 31
0.0
  0
ARC
  5
1499
  8
240
  6
CONTINUOUS
 10
-149.5
 20
-11.05662432702591
 30
0.0
 40
0.499999999999998
 50
180.0
 51
239.99999999999989
  0
LINE
  5
149E
  8
240
 10
-37.30717967697538
 20
12.10000000000003
 30
0.0
 11
-36.259807621134797
 21
12.100000000000151
 31
0.0
  0
LINE
  5
14A0
  8
240
 10
-36.259807621134797
 20
12.100000000000151
 30
0.0
 11
-35.999999999999687
 21
12.25000000000021
 31
0.0
  0
LINE
  5
14A1
  8
240
  6
CONTINUOUS
 10
-37.999999999999538
 20
12.500000000000041
 30
0.0
 11
-37.30717967697538
 21
12.10000000000003
 31
0.0
  0
LINE
  5
14A3
  8
240
  6
CONTINUOUS
 10
-37.999999999999538
 20
12.500000000000041
 30
0.0
 11
-147.7320508075689
 21
12.500000000000011
 31
0.0
  0
ARC
  5
14A4
  8
240
  6
CONTINUOUS
 10
-147.7320508075689
 20
11.500000000000011
 30
0.0
 40
0.9999999999999959
 50
90.0
 51
120.0000000000001
  0
LINE
  5
14A5
  8
240
  6
CONTINUOUS
 10
-149.75
 20
11.48963702891821
 30
0.0
 11
-148.2320508075689
 21
12.366025403784461
 31
0.0
  0
ARC
  5
150F
  8
240
 10
-18.75
 20
12.749999999999959
 30
0.0
 40
1.0
 50
209.99999999999969
 51
330.00000000000102
  0
LINE
  5
1511
  8
241
 10
-19.616025403784391
 20
10.5093266830642
 30
0.0
 11
-19.61602540378448
 21
-5.2887353474658161
 31
0.0
  0
LINE
  5
1514
  8
241
 10
-17.883974596215548
 20
-12.249999999999959
 30
0.0
 11
-17.883974596215548
 21
-11.210799872194981
 31
0.0
  0
ARC
  5
1516
  8
240
 10
-18.75
 20
-12.74999999999994
 30
0.0
 40
1.0
 50
29.999999999999751
 51
150.0000000000002
  0
LINE
  5
1518
  8
240
 10
-19.61602540378442
 20
12.250000000000069
 30
0.0
 11
-35.999999999999687
 21
12.25000000000021
 31
0.0
  0
LINE
  5
1520
  8
240
 10
-19.616025403784452
 20
-12.24999999999997
 30
0.0
 11
-36.000000000000227
 21
-12.24999999999987
 31
0.0
  0
LINE
  5
1545
  8
240
 10
-0.7500000000002274
 20
-1.0840249106069839
 30
0.0
 11
-0.7500000000002558
 21
-5.1356963524964661
 31
0.0
  0
LINE
  5
1547
  8
240
 10
-1.322215351401268
 20
-12.36031037885172
 30
0.0
 11
-10.010000000003281
 21
-12.550000000000111
 31
0.0
  0
LINE
  5
1548
  8
240
 10
-0.7500000000002274
 20
-9.4999999999924682
 30
0.0
 11
-0.8334372837857131
 21
-11.877962587878841
 31
0.0
  0
ARC
  5
1549
  8
240
 10
-1.333129780681616
 20
-11.860429517812319
 30
0.0
 40
0.5
 50
271.25080081476523
 51
357.99044618697923
  0
LINE
  5
154A
  8
240
 10
-11.12961524224931
 20
-12.25000000000011
 30
0.0
 11
-10.010000000003281
 21
-12.550000000000111
 31
0.0
  0
ARC
  5
154B
  8
241
 10
-19.249999999999599
 20
11.96404123288241
 30
0.0
 40
1.5
 50
179.99999999999841
 51
255.3802193710095
  0
LINE
  5
154E
  8
240
 10
-1.7499999999999141
 20
6.5000000000000142
 30
0.0
 11
-1.749999999999772
 21
5.4727727038956848
 31
0.0
  0
LINE
  5
154F
  8
240
 10
-1.2788996997904569
 20
4.2848350810271247
 30
0.0
 11
-1.0472590695088959
 21
-0.135131447808277
 31
0.0
  0
ARC
  5
1550
  8
240
 10
0.9500000000002444
 20
-0.0304595353224784
 30
0.0
 40
2.0
 50
182.9999999999975
 51
211.78833061704299
  0
ARC
  5
1551
  8
240
 10
-3.2761587692995979
 20
4.1801631685412408
 30
0.0
 40
2.0
 50
2.9999999999973701
 51
40.263573099456657
  0
LINE
  5
1557
  8
240
 10
-11.23011931593186
 20
12.249999999999771
 30
0.0
 11
-10.24738685606758
 21
12.51332236899626
 31
0.0
  0
LINE
  5
1558
  8
241
 10
-20.749844909921709
 20
11.964041232882581
 30
0.0
 11
-20.749844909921681
 21
12.25000000000025
 31
0.0
  0
LINE
  5
1559
  8
240
 10
-11.12961524224931
 20
-12.25000000000011
 30
0.0
 11
-17.883974596215779
 21
-12.25000000000003
 31
0.0
  0
LINE
  5
155A
  8
241
 10
-2.7713519046473891
 20
6.1154073467781691
 30
0.0
 11
-19.628605148488791
 21
10.512608099204741
 31
0.0
  0
LINE
  5
155B
  8
240
 10
-11.23011931593186
 20
12.249999999999771
 30
0.0
 11
-17.883974596215491
 21
12.249999999999909
 31
0.0
  0
LINE
  5
1605
  8
241
  6
CONTINUOUS
 10
-10.32944099127945
 20
-3.2851738212175969
 30
0.0
 11
-0.7499999999998295
 21
-4.9742877280848168
 31
0.0
  0
LINE
  5
1606
  8
241
 10
-11.400537342434969
 20
-5.4812467846940791
 30
0.0
 11
-0.7499999999998295
 21
-9.2557175704597796
 31
0.0
  0
LINE
  5
1607
  8
241
 10
-18.52029511976491
 20
-10.998818173602739
 30
0.0
 11
-14.764533749251481
 21
-12.24999999999998
 31
0.0
  0
LINE
  5
1608
  8
241
 10
-11.418624536462399
 20
-5.5183310280926463
 30
0.0
 11
-16.888003579129641
 21
-4.55393193514898
 31
0.0
  0
ARC
  5
1609
  8
241
 10
-17.466806547898379
 20
-7.8364866890680807
 30
0.0
 40
3.3331934521015221
 50
79.999982399907623
 51
251.5751930922215
  0
LINE
  5
160A
  8
241
  6
CONTINUOUS
 10
-10.32944099127945
 20
-3.2851738212175969
 30
0.0
 11
-11.418624536462399
 21
-5.5183310280926463
 31
0.0
  0
LINE
  5
160B
  8
241
 10
-0.7784599660225809
 20
-4.9692694682049838
 30
0.0
 11
-0.7499999999998295
 21
-5.1356963524984698
 31
0.0
  0
LINE
  5
160D
  8
245
 10
-8.6608726289466063
 20
9.6519999999999868
 30
0.0
 11
-2.8583593713705109
 21
9.6519999999999868
 31
0.0
  0
LINE
  5
1610
  8
245
 10
-5.7639999999997249
 20
7.2409085428008799
 30
0.0
 11
-5.7639999999996681
 21
11.972329033957759
 31
0.0
  0
LINE
  5
161B
  8
240
 10
-10.036782638814771
 20
13.00000000000003
 30
0.0
 11
0.0
 21
13.0
 31
0.0
1001
GRPNAME
1000
PASTMD05
  0
LINE
  5
161C
  8
240
 10
0.0
 20
9.75
 30
0.0
 11
0.0000000000001137
 21
13.000000000000011
 31
0.0
1001
GRPNAME
1000
PASTMD05
  0
LINE
  5
161D
  8
241
 10
-1.749999999999829
 20
6.5000000000000142
 30
0.0
 11
-4.2457389331455033
 21
6.5000000000000142
 31
0.0
  0
LINE
  5
161E
  8
240
 10
-1.406400587304119
 20
6.5000000000000142
 30
0.0
 11
0.0
 21
9.7499999999999858
 31
0.0
  0
LINE
  5
161F
  8
241
 10
-11.52799999999945
 20
9.5539999999999878
 30
0.0
 11
-11.52799999999945
 21
8.3995718566565927
 31
0.0
1001
GRPNAME
1000
PASTMD05
  0
LINE
  5
1620
  8
241
 10
-10.24738685606758
 20
12.51332236899626
 30
0.0
 11
-11.52799999999945
 21
9.5539999999999878
 31
0.0
  0
CIRCLE
  5
1621
  8
241
 10
-5.7639999999997249
 20
9.6519999999999868
 30
0.0
 40
1.8999999999999999
  0
LINE
  5
1622
  8
242
 10
-9.2481927459400595
 20
12.849950225681511
 30
0.0
 11
-2.0150496084088441
 21
11.47365627973242
 31
0.0
  0
LINE
  5
1623
  8
242
 10
-1.203298124001605
 20
10.439798472599289
 30
0.0
 11
-1.365073108540684
 21
7.301673869735211
 31
0.0
  0
LINE
  5
1624
  8
242
 10
-2.1949904801788298
 20
6.650049774318517
 30
0.0
 11
-9.4281336177100457
 21
8.0263437202676045
 31
0.0
  0
LINE
  5
1625
  8
242
 10
-10.239885102117279
 20
9.0602015274007481
 30
0.0
 11
-10.0781101175782
 21
12.19832613026483
 31
0.0
  0
LINE
  5
1626
  8
240
 10
-0.7499999999998295
 20
-9.2557175704597796
 30
0.0
 11
0.0000000000001137
 21
-9.5215119617009378
 31
0.0
  0
LINE
  5
1627
  8
240
 10
-0.7499999999998295
 20
-5.1356963524985551
 30
0.0
 11
0.0000000000001137
 21
-9.5215119617009378
 31
0.0
  0
LINE
  5
1629
  8
240
 10
-10.24738685606758
 20
12.51332236899626
 30
0.0
 11
-10.036782638814771
 21
13.00000000000003
 31
0.0
  0
LINE
  5
162B
  8
240
 10
-1.7499999999999141
 20
6.5000000000000142
 30
0.0
 11
-1.406400587304119
 21
6.5000000000000142
 31
0.0
  0
ARC
  5
162C
  8
242
 10
-9.2412112373149853
 20
9.0087184062746672
 30
0.0
 40
1.0
 50
177.04892982193681
 51
259.22676795557811
1001
GENIUS_GENOBJ-N-FIL_13
1002
{
1000
OWNER
1000
GEN
1002
}
1001
GENIUS_GENODEF_13
1002
{
1000
HIER
1070
     0
1002
}
1002
{
1000
MANEDIT
1070
     0
1002
}
1002
{
1000
NOSEL
1070
     0
1002
}
1002
{
1000
BEHIND
1070
     0
1002
}
1002
{
1000
OTHER
1070
     0
1002
}
1002
{
1000
REACTOR
1002
}
  0
ARC
  5
162D
  8
242
 10
-2.201971988803848
 20
10.49128159372537
 30
0.0
 40
1.0
 50
357.04892982193689
 51
79.226767955578183
1001
GENIUS_GENOBJ-N-FIL_13
1002
{
1000
OWNER
1000
GEN
1002
}
1001
GENIUS_GENODEF_13
1002
{
1000
HIER
1070
     0
1002
}
1002
{
1000
MANEDIT
1070
     0
1002
}
1002
{
1000
NOSEL
1070
     0
1002
}
1002
{
1000
BEHIND
1070
     0
1002
}
1002
{
1000
OTHER
1070
     0
1002
}
1002
{
1000
REACTOR
1002
}
  0
ARC
  5
162E
  8
242
 10
-9.3790384122165733
 20
12.16228794547658
 30
0.0
 40
0.7
 50
79.226767955578183
 51
177.04892982193681
1001
GENIUS_GENODEF_13
1002
{
1000
HIER
1070
     0
1002
}
1002
{
1000
MANEDIT
1070
     0
1002
}
1002
{
1000
NOSEL
1070
     0
1002
}
1002
{
1000
BEHIND
1070
     0
1002
}
1002
{
1000
OTHER
1070
     0
1002
}
1002
{
1000
REACTOR
1002
}
1001
GENIUS_GENOBJ-N-FIL_13
1002
{
1000
OWNER
1000
GEN
1002
}
  0
ARC
  5
162F
  8
242
 10
-2.06414481390226
 20
7.3377120545234638
 30
0.0
 40
0.7
 50
259.22676795557811
 51
357.04892982193689
1001
GENIUS_GENOBJ-N-FIL_13
1002
{
1000
OWNER
1000
GEN
1002
}
1001
GENIUS_GENODEF_13
1002
{
1000
HIER
1070
     0
1002
}
1002
{
1000
MANEDIT
1070
     0
1002
}
1002
{
1000
NOSEL
1070
     0
1002
}
1002
{
1000
BEHIND
1070
     0
1002
}
1002
{
1000
OTHER
1070
     0
1002
}
1002
{
1000
REACTOR
1002
}
  0
LINE
  5
1632
  8
241
 10
-19.616025403784501
 20
-10.38423803067033
 30
0.0
 11
-19.616025403784501
 21
-12.24999999999994
 31
0.0
  0
LINE
  5
1633
  8
241
 10
-17.88397459621552
 20
-4.5295017467685588
 30
0.0
 11
-17.883974596215548
 21
10.05752264333635
 31
0.0
  0
LINE
  5
1634
  8
240
 10
-0.750000000000199
 20
-9.2557175704596375
 30
0.0
 11
-0.7500000000002274
 21
-9.4999999999924682
 31
0.0
  0
ARC
  5
1637
  8
241
 10
-3.2761587692995979
 20
4.1801631685412408
 30
0.0
 40
2.0
 50
40.263573099456657
 51
75.380219371009503
  0
TEXT
  5
1785
  8
241
 10
-171.40000000000001
 20
48.999999999999979
 30
0.0
 40
5.0
  1
ST25-FCR26083-150
  7
YOKO
 11
-171.40000000000001
 21
48.999999999999979
 31
0.0
 73
     1
  0
LINE
  5
17CD
  8
250
 10
0.0
 20
13.5
 30
0.0
 11
0.0000000000000005
 21
21.431956341122131
 31
0.0
  0
LINE
  5
17CE
  8
250
 10
-7.9999999999998863
 20
13.50000000000003
 30
0.0
 11
-7.9999999999998854
 21
21.431956341122131
 31
0.0
  0
LINE
  5
17CF
  8
250
 10
-2.2299999999999991
 20
20.431956341122131
 30
0.0
 11
-5.769999999999885
 21
20.431956341122131
 31
0.0
  0
LINE
  5
17D3
  8
250
 10
-37.999999999999538
 20
13.000000000000041
 30
0.0
 11
-37.999999999999538
 21
28.431956341122131
 31
0.0
  0
LINE
  5
17D4
  8
250
 10
0.0000000000001137
 20
13.5
 30
0.0
 11
0.0000000000001146
 21
28.431956341122131
 31
0.0
  0
LINE
  5
17D5
  8
250
 10
-35.769999999999548
 20
27.431956341122131
 30
0.0
 11
-2.229999999999885
 21
27.431956341122131
 31
0.0
  0
LINE
  5
17D9
  8
250
 10
-150.0
 20
11.556624327026
 30
0.0
 11
-150.0
 21
28.431956341122131
 31
0.0
  0
LINE
  5
17DA
  8
250
 10
-38.000000000000028
 20
12.917468270048269
 30
0.0
 11
-38.000000000000028
 21
28.431956341122131
 31
0.0
  0
LINE
  5
17DB
  8
250
 10
-147.77000000000001
 20
27.431956341122131
 30
0.0
 11
-40.230000000000018
 21
27.431956341122131
 31
0.0
  0
LINE
  5
17DF
  8
250
 10
-150.0
 20
11.556624327026
 30
0.0
 11
-150.0
 21
35.431956341122131
 31
0.0
  0
LINE
  5
17E0
  8
250
 10
0.0000000000001137
 20
13.5
 30
0.0
 11
0.0000000000001151
 21
35.431956341122131
 31
0.0
  0
LINE
  5
17E1
  8
250
 10
-147.77000000000001
 20
34.431956341122131
 30
0.0
 11
-2.2299999999998841
 21
34.431956341122131
 31
0.0
  0
LINE
  5
17E5
  8
250
 10
-148.2320508075689
 20
12.5
 30
0.0
 11
-161.8713392251104
 21
12.5
 31
0.0
  0
LINE
  5
17E6
  8
250
 10
-148.23205080756881
 20
-12.49999999999998
 30
0.0
 11
-161.8713392251104
 21
-12.49999999999998
 31
0.0
  0
LINE
  5
17E7
  8
250
 10
-160.8713392251104
 20
10.27
 30
0.0
 11
-160.8713392251104
 21
-10.26999999999998
 31
0.0
  0
LINE
  5
17EB
  8
250
 10
0.5
 20
13.0
 30
0.0
 11
10.823778847020719
 21
13.0
 31
0.0
  0
LINE
  5
17EC
  8
250
 10
9.8237788470207175
 20
10.769999999999991
 30
0.0
 11
9.8237788470207121
 21
-4.5333333333333341
 31
0.0
  0
TEXT
  5
17EF
  8
250
 10
-5.3333333333332753
 20
21.431956341122131
 30
0.0
 40
2.7999999999999989
  1
8
  0
LINE
  5
17F0
  8
250
 10
-5.769999999999885
 20
20.060289674455461
 30
0.0
 11
-7.9999999999998854
 21
20.431956341122131
 31
0.0
  0
LINE
  5
17F1
  8
250
 10
-5.769999999999885
 20
20.803623007788801
 30
0.0
 11
-7.9999999999998854
 21
20.431956341122131
 31
0.0
  0
LINE
  5
17F2
  8
250
 10
-7.9999999999998854
 20
20.431956341122131
 30
0.0
 11
-5.769999999999885
 21
20.431956341122131
 31
0.0
  0
LINE
  5
17F3
  8
250
 10
-2.2299999999999991
 20
20.803623007788801
 30
0.0
 11
0.0000000000000005
 21
20.431956341122131
 31
0.0
  0
LINE
  5
17F4
  8
250
 10
-2.2299999999999991
 20
20.060289674455461
 30
0.0
 11
0.0000000000000005
 21
20.431956341122131
 31
0.0
  0
LINE
  5
17F5
  8
250
 10
0.0000000000000005
 20
20.431956341122131
 30
0.0
 11
-2.2299999999999991
 21
20.431956341122131
 31
0.0
  0
TEXT
  5
17F6
  8
250
 10
-21.66666666666638
 20
28.431956341122131
 30
0.0
 40
2.7999999999999989
  1
38
  0
LINE
  5
17F7
  8
250
 10
-2.229999999999885
 20
27.803623007788801
 30
0.0
 11
0.0000000000001146
 21
27.431956341122131
 31
0.0
  0
LINE
  5
17F8
  8
250
 10
-2.229999999999885
 20
27.060289674455468
 30
0.0
 11
0.0000000000001146
 21
27.431956341122131
 31
0.0
  0
LINE
  5
17F9
  8
250
 10
0.0000000000001146
 20
27.431956341122131
 30
0.0
 11
-2.229999999999885
 21
27.431956341122131
 31
0.0
  0
LINE
  5
17FA
  8
250
 10
-35.769999999999548
 20
27.060289674455468
 30
0.0
 11
-37.999999999999538
 21
27.431956341122131
 31
0.0
  0
LINE
  5
17FB
  8
250
 10
-35.769999999999548
 20
27.803623007788801
 30
0.0
 11
-37.999999999999538
 21
27.431956341122131
 31
0.0
  0
LINE
  5
17FC
  8
250
 10
-37.999999999999538
 20
27.431956341122131
 30
0.0
 11
-35.769999999999548
 21
27.431956341122131
 31
0.0
  0
TEXT
  5
17FD
  8
250
 10
-98.200000000000017
 20
28.431956341122131
 30
0.0
 40
2.7999999999999989
  1
112
  0
LINE
  5
17FE
  8
250
 10
-40.230000000000018
 20
27.803623007788801
 30
0.0
 11
-38.000000000000028
 21
27.431956341122131
 31
0.0
  0
LINE
  5
17FF
  8
250
 10
-40.230000000000018
 20
27.060289674455468
 30
0.0
 11
-38.000000000000028
 21
27.431956341122131
 31
0.0
  0
LINE
  5
1800
  8
250
 10
-38.000000000000028
 20
27.431956341122131
 30
0.0
 11
-40.230000000000018
 21
27.431956341122131
 31
0.0
  0
LINE
  5
1801
  8
250
 10
-147.77000000000001
 20
27.060289674455468
 30
0.0
 11
-150.0
 21
27.431956341122131
 31
0.0
  0
LINE
  5
1802
  8
250
 10
-147.77000000000001
 20
27.803623007788801
 30
0.0
 11
-150.0
 21
27.431956341122131
 31
0.0
  0
LINE
  5
1803
  8
250
 10
-150.0
 20
27.431956341122131
 30
0.0
 11
-147.77000000000001
 21
27.431956341122131
 31
0.0
  0
TEXT
  5
1804
  8
250
 10
-79.199999999999946
 20
35.431956341122131
 30
0.0
 40
2.7999999999999989
  1
150
  0
LINE
  5
1805
  8
250
 10
-2.2299999999998841
 20
34.803623007788801
 30
0.0
 11
0.000000000000115
 21
34.431956341122131
 31
0.0
  0
LINE
  5
1806
  8
250
 10
-2.2299999999998841
 20
34.060289674455461
 30
0.0
 11
0.000000000000115
 21
34.431956341122131
 31
0.0
  0
LINE
  5
1807
  8
250
 10
0.000000000000115
 20
34.431956341122131
 30
0.0
 11
-2.2299999999998841
 21
34.431956341122131
 31
0.0
  0
LINE
  5
1808
  8
250
 10
-147.77000000000001
 20
34.060289674455461
 30
0.0
 11
-150.0
 21
34.431956341122131
 31
0.0
  0
LINE
  5
1809
  8
250
 10
-147.77000000000001
 20
34.803623007788801
 30
0.0
 11
-150.0
 21
34.431956341122131
 31
0.0
  0
LINE
  5
180A
  8
250
 10
-150.0
 20
34.431956341122131
 30
0.0
 11
-147.77000000000001
 21
34.431956341122131
 31
0.0
  0
TEXT
  5
180B
  8
250
 10
-161.8713392251104
 20
-3.8000000000000131
 30
0.0
 40
2.7999999999999989
  1
\U+220525
 50
90.0
  0
LINE
  5
180C
  8
250
 10
-160.49967255844379
 20
-10.26999999999998
 30
0.0
 11
-160.8713392251104
 21
-12.49999999999998
 31
0.0
  0
LINE
  5
180D
  8
250
 10
-161.2430058917771
 20
-10.26999999999998
 30
0.0
 11
-160.8713392251104
 21
-12.49999999999998
 31
0.0
  0
LINE
  5
180E
  8
250
 10
-160.8713392251104
 20
-12.49999999999998
 30
0.0
 11
-160.8713392251104
 21
-10.26999999999998
 31
0.0
  0
LINE
  5
180F
  8
250
 10
-161.2430058917771
 20
10.27
 30
0.0
 11
-160.8713392251104
 21
12.5
 31
0.0
  0
LINE
  5
1810
  8
250
 10
-160.49967255844379
 20
10.27
 30
0.0
 11
-160.8713392251104
 21
12.5
 31
0.0
  0
LINE
  5
1811
  8
250
 10
-160.8713392251104
 20
12.5
 30
0.0
 11
-160.8713392251104
 21
10.27
 31
0.0
  0
TEXT
  5
1812
  8
250
 10
8.8237788470207121
 20
-3.7999999999999989
 30
0.0
 40
2.7999999999999989
  1
\U+220526
 50
90.0
  0
LINE
  5
1813
  8
250
 10
9.4521121803540531
 20
10.769999999999991
 30
0.0
 11
9.8237788470207192
 21
13.0
 31
0.0
  0
LINE
  5
1814
  8
250
 10
10.19544551368738
 20
10.769999999999991
 30
0.0
 11
9.8237788470207192
 21
13.0
 31
0.0
  0
LINE
  5
1815
  8
250
 10
9.8237788470207192
 20
13.0
 30
0.0
 11
9.8237788470207192
 21
10.769999999999991
 31
0.0
  0
VIEWPORT
  5
22
 67
     1
  8
0
 10
261.51769911504419
 20
148.5
 30
0.0
 40
523.0353982300885
 41
297.0
 68
     1
 69
     1
1001
ACAD
1000
MVIEW
1002
{
1070
    16
1010
0.0
1020
0.0
1030
0.0
1010
0.0
1020
0.0
1030
1.0
1040
0.0
1040
297.0
1040
261.51769911504419
1040
148.5
1040
50.0
1040
0.0
1040
0.0
1070
     0
1070
   100
1070
     1
1070
     1
1070
     0
1070
     0
1070
     0
1070
     0
1040
0.0
1040
0.0
1040
0.0
1040
1.0
1040
1.0
1040
10.0
1040
10.0
1070
     0
1002
{
1002
}
1002
}
1001
GENIUS_GENODEF_13
1002
{
1000
HIER
1070
     0
1002
}
1002
{
1000
MANEDIT
1070
     0
1002
}
1002
{
1000
NOSEL
1070
     0
1002
}
1002
{
1000
BEHIND
1070
     0
1002
}
1002
{
1000
OTHER
1070
     0
1002
}
1002
{
1000
REACTOR
1002
}
1001
GENIUS_GENOBJ-N-SDF_13
1002
{
1000
OWNER
1000
GEN
1002
}
1001
GENIUS_GENSCREG_15
1000
PF
1040
1.0
1000
DF
1040
1.0
1000
MIN
1011
0.0
1021
0.0
1031
0.0
1021
0.0
1031
0.0
1000
MAX
1011
523.0353982300885
1021
0.0
1031
0.0
1021
297.0
1031
0.0
1000
FLAGS
1070
     2
  0
ENDSEC
  0
EOF
