  0
SECTION
  2
HEADER
  9
$ACADVER
  1
AC1009
  9
$INSBASE
 10
0.0
 20
0.0
 30
0.0
  9
$EXTMIN
 10
-185.68571428571431
 20
-13.00000000000435
 30
0.0
  9
$EXTMAX
 10
13.500000000001171
 20
54.000000000001137
 30
0.0
  9
$LIMMIN
 10
0.0
 20
0.0
  9
$LIMMAX
 10
297.0
 20
210.0
  9
$ORTHOMODE
 70
     1
  9
$REGENMODE
 70
     1
  9
$FILLMODE
 70
     1
  9
$QTEXTMODE
 70
     0
  9
$MIRRTEXT
 70
     1
  9
$DRAGMODE
 70
     2
  9
$LTSCALE
 40
10.0
  9
$OSMODE
 70
    39
  9
$ATTMODE
 70
     1
  9
$TEXTSIZE
 40
3.0
  9
$TRACEWID
 40
1.0
  9
$TEXTSTYLE
  7
YOKO
  9
$CLAYER
  8
240
  9
$CELTYPE
  6
BYLAYER
  9
$CECOLOR
 62
   256
  9
$DIMSCALE
 40
1.0
  9
$DIMASZ
 40
2.2299999999999991
  9
$DIMEXO
 40
0.5
  9
$DIMDLI
 40
7.0
  9
$DIMRND
 40
0.0
  9
$DIMDLE
 40
0.0
  9
$DIMEXE
 40
1.0
  9
$DIMTP
 40
0.0
  9
$DIMTM
 40
0.01
  9
$DIMTXT
 40
2.7999999999999989
  9
$DIMCEN
 40
0.0
  9
$DIMTSZ
 40
0.0
  9
$DIMTOL
 70
     0
  9
$DIMLIM
 70
     0
  9
$DIMTIH
 70
     0
  9
$DIMTOH
 70
     0
  9
$DIMSE1
 70
     0
  9
$DIMSE2
 70
     0
  9
$DIMTAD
 70
     3
  9
$DIMZIN
 70
     9
  9
$DIMBLK
  1
OPEN
  9
$DIMASO
 70
     1
  9
$DIMSHO
 70
     1
  9
$DIMPOST
  1

  9
$DIMAPOST
  1

  9
$DIMALT
 70
     0
  9
$DIMALTD
 70
     2
  9
$DIMALTF
 40
25.399999999999999
  9
$DIMLFAC
 40
1.0
  9
$DIMTOFL
 70
     1
  9
$DIMTVP
 40
0.0
  9
$DIMTIX
 70
     1
  9
$DIMSOXD
 70
     0
  9
$DIMSAH
 70
     0
  9
$DIMBLK1
  1

  9
$DIMBLK2
  1

  9
$DIMSTYLE
  2
BIGT
  9
$DIMCLRD
 70
   256
  9
$DIMCLRE
 70
   256
  9
$DIMCLRT
 70
    40
  9
$DIMTFAC
 40
1.0
  9
$DIMGAP
 40
1.0
  9
$LUNITS
 70
     2
  9
$LUPREC
 70
     3
  9
$SKETCHINC
 40
1.0
  9
$FILLETRAD
 40
0.0
  9
$AUNITS
 70
     0
  9
$AUPREC
 70
     3
  9
$MENU
  1
.
  9
$ELEVATION
 40
0.0
  9
$PELEVATION
 40
0.0
  9
$THICKNESS
 40
0.0
  9
$LIMCHECK
 70
     0
  9
$BLIPMODE
 70
     0
  9
$CHAMFERA
 40
0.25
  9
$CHAMFERB
 40
0.25
  9
$SKPOLY
 70
     0
  9
$TDCREATE
 40
2456114.6693186811
  9
$TDUPDATE
 40
2456115.396102523
  9
$TDINDWG
 40
0.0190603472
  9
$TDUSRTIMER
 40
0.0190603472
  9
$USRTIMER
 70
     1
  9
$ANGBASE
 50
0.0
  9
$ANGDIR
 70
     0
  9
$PDMODE
 70
     1
  9
$PDSIZE
 40
0.0
  9
$PLINEWID
 40
0.0
  9
$COORDS
 70
     0
  9
$SPLFRAME
 70
     0
  9
$SPLINETYPE
 70
     6
  9
$SPLINESEGS
 70
     4
  9
$ATTDIA
 70
     1
  9
$ATTREQ
 70
     1
  9
$HANDLING
 70
     1
  9
$HANDSEED
  5
18FF
  9
$SURFTAB1
 70
     6
  9
$SURFTAB2
 70
     6
  9
$SURFTYPE
 70
     6
  9
$SURFU
 70
     6
  9
$SURFV
 70
     6
  9
$UCSNAME
  2

  9
$UCSORG
 10
0.0
 20
0.0
 30
0.0
  9
$UCSXDIR
 10
1.0
 20
0.0
 30
0.0
  9
$UCSYDIR
 10
0.0
 20
1.0
 30
0.0
  9
$PUCSNAME
  2

  9
$PUCSORG
 10
0.0
 20
0.0
 30
0.0
  9
$PUCSXDIR
 10
1.0
 20
0.0
 30
0.0
  9
$PUCSYDIR
 10
0.0
 20
1.0
 30
0.0
  9
$USERI1
 70
     1
  9
$USERI2
 70
     0
  9
$USERI3
 70
     0
  9
$USERI4
 70
     0
  9
$USERI5
 70
     0
  9
$USERR1
 40
0.0
  9
$USERR2
 40
0.0
  9
$USERR3
 40
0.0
  9
$USERR4
 40
0.0
  9
$USERR5
 40
0.0
  9
$WORLDVIEW
 70
     1
  9
$SHADEDGE
 70
     3
  9
$SHADEDIF
 70
    70
  9
$TILEMODE
 70
     1
  9
$MAXACTVP
 70
    16
  9
$PLIMCHECK
 70
     0
  9
$PEXTMIN
 10
1.0000000000000000E+020
 20
1.0000000000000000E+020
 30
1.0000000000000000E+020
  9
$PEXTMAX
 10
-1.0000000000000000E+020
 20
-1.0000000000000000E+020
 30
-1.0000000000000000E+020
  9
$PLIMMIN
 10
0.0
 20
0.0
  9
$PLIMMAX
 10
420.0
 20
297.0
  9
$UNITMODE
 70
     0
  9
$VISRETAIN
 70
     1
  9
$PLINEGEN
 70
     0
  9
$PSLTSCALE
 70
     1
  0
ENDSEC
  0
SECTION
  2
TABLES
  0
TABLE
  2
VPORT
 70
     3
  0
VPORT
  2
*ACTIVE
 70
     0
 10
0.0
 20
0.0
 11
1.0
 21
1.0
 12
-86.091750680226539
 22
20.501404199168832
 13
0.0
 23
0.0
 14
7.0
 24
7.0
 15
7.0
 25
7.0
 16
0.0
 26
0.0
 36
1.0
 17
0.0
 27
0.0
 37
0.0
 40
129.43455619842101
 41
1.5459518599562361
 42
50.0
 43
0.0
 44
0.0
 50
0.0
 51
0.0
 71
     0
 72
  2000
 73
     1
 74
     0
 75
     0
 76
     1
 77
     0
 78
     0
  0
ENDTAB
  0
TABLE
  2
LTYPE
 70
    15
  0
LTYPE
  2
CONTINUOUS
 70
     0
  3
Solid line
 72
    65
 73
     0
 40
0.0
  0
LTYPE
  2
CENTER2
 70
     0
  3
___ _ ___ _ ___ _ ___ _ ___ _ ___ _ ___ _ ___ _
 72
    65
 73
     4
 40
1.125
 49
0.75
 49
-0.125
 49
0.125
 49
-0.125
  0
LTYPE
  2
HIDDEN2
 70
     0
  3
_ _ _ _ _ _ _ _ _ _ _ _ _ _ _ _ _ _ _ _ _ _ _ _
 72
    65
 73
     2
 40
0.1875
 49
0.125
 49
-0.0625
  0
LTYPE
  2
PHANTOM2
 70
     0
  3
___ _ _ ___ _ _ ___ _ _ ___ _ _ ___ _ _ ___ _ _
 72
    65
 73
     6
 40
1.25
 49
0.625
 49
-0.125
 49
0.125
 49
-0.125
 49
0.125
 49
-0.125
  0
LTYPE
  2
CENTER
 70
     0
  3
____ _ ____ _ ____ _ ____ _ ____ _ ____ _ ____ 
 72
    65
 73
     4
 40
2.0
 49
1.25
 49
-0.25
 49
0.25
 49
-0.25
  0
LTYPE
  2
AM_ISO02W050
 70
     0
  3
__ __ __ __ __ __ __ __ __ __ __ __ __ __ __
 72
    65
 73
     2
 40
7.5
 49
6.0
 49
-1.5
  0
LTYPE
  2
AMCONSTR
 70
     0
  3
_______________________
 72
    65
 73
     2
 40
9999.0
 49
9999.0
 49
0.0
  0
LTYPE
  2
ACISOWELD
 70
     0
  3
_ _ _ _ _
 72
    65
 73
     2
 40
2.0
 49
2.0
 49
-1.0
  0
LTYPE
  2
ACISOTGB
 70
     0
  3
__ . . __ . .
 72
    65
 73
     6
 40
9.0
 49
4.0
 49
-1.0
 49
1.0
 49
-1.0
 49
1.0
 49
-1.0
  0
LTYPE
  2
ACISOTGL
 70
     0
  3
_ _ _ _ _
 72
    65
 73
     2
 40
3.0
 49
2.0
 49
-1.0
  0
LTYPE
  2
ACJISTGB
 70
     0
  3
__ . . __ . .
 72
    65
 73
     6
 40
9.0
 49
4.0
 49
-1.0
 49
1.0
 49
-1.0
 49
1.0
 49
-1.0
  0
LTYPE
  2
ACJISTGL
 70
     0
  3
_ _ _ _ _
 72
    65
 73
     2
 40
3.0
 49
2.0
 49
-1.0
  0
LTYPE
  2
HIDDEN
 70
     0
  3
Hidden __ __ __ __ __ __ __ __ __ __ __ __ __ _
 72
    65
 73
     2
 40
9.5249999999999986
 49
6.3499999999999988
 49
-3.1749999999999989
  0
ENDTAB
  0
TABLE
  2
LAYER
 70
     7
  0
LAYER
  2
0
 70
     0
 62
     7
  6
CONTINUOUS
  0
LAYER
  2
DEFPOINTS
 70
     0
 62
     7
  6
CONTINUOUS
  0
LAYER
  2
245
 70
     0
 62
     2
  6
CENTER2
  0
LAYER
  2
240
 70
     0
 62
     4
  6
CONTINUOUS
  0
LAYER
  2
241
 70
     0
 62
   211
  6
CONTINUOUS
  0
LAYER
  2
242
 70
     0
 62
     3
  6
CONTINUOUS
  0
LAYER
  2
250
 70
     0
 62
     3
  6
CONTINUOUS
  0
ENDTAB
  0
TABLE
  2
STYLE
 70
     8
  0
STYLE
  2
STANDARD
 70
     0
 40
0.0
 41
1.0
 50
0.0
 71
     0
 42
3.0
  3
romans.shx
  4
extfont.shx
  0
STYLE
  2
ACISOTS
 70
     0
 40
1.0
 41
1.0
 50
0.0
 71
     0
 42
3.0
  3
amgdt.shx
  4
extfont.shx
  0
STYLE
  2
ACISOGDT
 70
     0
 40
0.0
 41
1.0
 50
0.0
 71
     0
 42
3.0
  3
amgdt.shx
  4
extfont.shx
  0
STYLE
  2
ACJISTS
 70
     0
 40
1.0
 41
1.0
 50
0.0
 71
     0
 42
3.0
  3
amgdt.shx
  4
extfont.shx
  0
STYLE
  2
ACJISGDT
 70
     0
 40
0.0
 41
1.0
 50
0.0
 71
     0
 42
3.0
  3
amgdt.shx
  4
extfont.shx
  0
STYLE
  2
YOKO
 70
     0
 40
0.0
 41
1.0
 50
0.0
 71
     0
 42
3.0
  3
romans.shx
  4
extfont.shx
  0
ENDTAB
  0
TABLE
  2
VIEW
 70
     0
  0
ENDTAB
  0
TABLE
  2
UCS
 70
     0
  0
ENDTAB
  0
TABLE
  2
APPID
 70
    28
  0
APPID
  2
ACAD
 70
     0
  0
APPID
  2
GLOBAL
 70
     0
  0
APPID
  2
DETAIL
 70
     0
  0
APPID
  2
GRPNAME
 70
     0
  0
APPID
  2
GPARA
 70
     0
  0
APPID
  2
MCAD_NO_VIS
 70
     0
  0
APPID
  2
ACAD_TEMP_GRAPHIC
 70
     0
  0
APPID
  2
ACATTRIBSERVICES
 70
     0
  0
APPID
  2
GENIUS_GENSCREG_15
 70
     0
  0
APPID
  2
GENIUS_GENODEF_13
 70
     0
  0
APPID
  2
GENIUS_GENOBJ-N-SDF_13
 70
     0
  0
APPID
  2
GENIUS_GENREC_14
 70
     0
  0
APPID
  2
GENIUS_GENOBJ-N-REC_13
 70
     0
  0
APPID
  2
GENIUS_GENDIMSH_14
 70
     0
  0
APPID
  2
GENIUS_GENOBJ-N-DIM_13
 70
     0
  0
APPID
  2
GENIUS_GENDIM_13
 70
     0
  0
APPID
  2
GENIUS_GENDTOL_13
 70
     0
  0
APPID
  2
GENIUS_GENOLIS_13
 70
     0
  0
APPID
  2
GENIUS_GENOENT_13
 70
     0
  0
APPID
  2
GENIUS_GENOBJ-F-FEM_13
 70
     0
  0
APPID
  2
GENIUS_GENOREF_13
 70
     0
  0
APPID
  2
GENIUS_GEFFEM_13
 70
     0
  0
APPID
  2
GENIUS_GEFFEMP_13
 70
     0
  0
APPID
  2
AD_DRAW
 70
     0
  0
APPID
  2
DESIGNERASSEMBLIES
 70
     0
  0
APPID
  2
ACADM_DIM_EDIT
 70
     0
  0
APPID
  2
AMDT_DM_ADJ
 70
     0
  0
APPID
  2
GENIUS_GENOBJ-N-FIL_13
 70
     0
  0
ENDTAB
  0
TABLE
  2
DIMSTYLE
 70
    29
  0
DIMSTYLE
  2
BIGT
 70
     0
  3

  4

  5
OPEN
  6

  7

 40
1.0
 41
2.2299999999999991
 42
0.5
 43
7.0
 44
1.0
 45
0.0
 46
0.0
 47
0.0
 48
0.01
140
2.7999999999999989
141
0.0
142
0.0
143
25.399999999999999
144
1.0
145
0.0
146
1.0
147
1.0
 71
     0
 72
     0
 73
     0
 74
     0
 75
     0
 76
     0
 77
     3
 78
     9
170
     0
171
     2
172
     1
173
     0
174
     1
175
     0
176
   256
177
   256
178
    40
  0
DIMSTYLE
  2
AM_ISO
 70
     0
  3

  4
"
  5

  6

  7

 40
1.0
 41
2.5
 42
1.0
 43
10.0
 44
1.0
 45
0.0
 46
0.0
 47
0.1
 48
0.1
140
3.5
141
0.0
142
0.0
143
0.0393701
144
1.0
145
0.0
146
0.71
147
1.5
 71
     0
 72
     0
 73
     0
 74
     0
 75
     0
 76
     0
 77
     1
 78
     8
170
     0
171
     2
172
     1
173
     0
174
     0
175
     0
176
   256
177
   256
178
     2
  0
DIMSTYLE
  2
AM_ISO$3
 70
     0
  3

  4
"
  5

  6

  7

 40
1.0
 41
2.5
 42
1.0
 43
10.0
 44
1.0
 45
0.0
 46
0.0
 47
0.1
 48
0.1
140
3.5
141
0.0
142
0.0
143
0.0393701
144
1.0
145
0.0
146
0.71
147
1.5
 71
     0
 72
     0
 73
     0
 74
     1
 75
     0
 76
     0
 77
     1
 78
     8
170
     0
171
     2
172
     0
173
     0
174
     0
175
     0
176
   256
177
   256
178
     2
  0
DIMSTYLE
  2
AM_ISO$4
 70
     0
  3

  4
"
  5

  6

  7

 40
1.0
 41
2.5
 42
1.0
 43
10.0
 44
1.0
 45
0.0
 46
0.0
 47
0.1
 48
0.1
140
3.5
141
0.0
142
0.0
143
0.0393701
144
1.0
145
0.0
146
0.71
147
1.5
 71
     0
 72
     0
 73
     0
 74
     1
 75
     0
 76
     0
 77
     1
 78
     8
170
     0
171
     2
172
     0
173
     0
174
     0
175
     0
176
   256
177
   256
178
     2
  0
DIMSTYLE
  2
AM_ISO$6
 70
     0
  3

  4
"
  5

  6

  7

 40
1.0
 41
2.5
 42
1.0
 43
10.0
 44
1.0
 45
0.0
 46
0.0
 47
0.1
 48
0.1
140
3.5
141
0.0
142
0.0
143
0.0393701
144
1.0
145
0.0
146
0.71
147
1.5
 71
     0
 72
     0
 73
     0
 74
     0
 75
     0
 76
     0
 77
     0
 78
     8
170
     0
171
     2
172
     1
173
     0
174
     0
175
     0
176
   256
177
   256
178
     2
  0
DIMSTYLE
  2
AM_ISO$7
 70
     0
  3

  4
"
  5

  6

  7

 40
1.0
 41
2.5
 42
1.0
 43
10.0
 44
1.0
 45
0.0
 46
0.0
 47
0.1
 48
0.1
140
5.0
141
0.0
142
0.0
143
0.0393701
144
1.0
145
0.0
146
0.71
147
1.5
 71
     0
 72
     0
 73
     0
 74
     0
 75
     0
 76
     0
 77
     1
 78
     8
170
     0
171
     2
172
     1
173
     0
174
     0
175
     0
176
   256
177
   256
178
     2
  0
DIMSTYLE
  2
AM_ISO$SF
 70
     0
  3

  4
"
  5

  6

  7

 40
1.0
 41
2.5
 42
1.0
 43
10.0
 44
1.0
 45
0.0
 46
0.0
 47
0.1
 48
0.1
140
3.5
141
0.0
142
0.0
143
0.0393701
144
1.0
145
0.0
146
0.71
147
1.5
 71
     0
 72
     0
 73
     0
 74
     0
 75
     1
 76
     1
 77
     1
 78
     8
170
     0
171
     2
172
     1
173
     0
174
     0
175
     0
176
   256
177
   256
178
     2
  0
DIMSTYLE
  2
AM_ISO$SH
 70
     0
  3

  4
"
  5

  6
GENAXEH
  7

 40
1.0
 41
2.5
 42
1.0
 43
10.0
 44
1.0
 45
0.0
 46
0.0
 47
0.1
 48
0.1
140
3.5
141
0.0
142
0.0
143
0.0393701
144
2.0
145
0.0
146
0.71
147
1.5
 71
     0
 72
     0
 73
     0
 74
     0
 75
     1
 76
     1
 77
     1
 78
     8
170
     0
171
     2
172
     1
173
     1
174
     0
175
     0
176
   256
177
   256
178
     2
  0
DIMSTYLE
  2
BIGT$2
 70
     0
  3

  4

  5
OPEN
  6

  7

 40
1.0
 41
2.2299999999999991
 42
0.5
 43
7.0
 44
1.0
 45
0.0
 46
0.0
 47
0.0
 48
0.01
140
2.7999999999999989
141
0.0
142
0.0
143
25.399999999999999
144
1.0
145
0.0
146
1.0
147
1.0
 71
     0
 72
     0
 73
     0
 74
     0
 75
     0
 76
     0
 77
     3
 78
     9
170
     0
171
     2
172
     1
173
     0
174
     0
175
     0
176
   256
177
   256
178
    40
  0
DIMSTYLE
  2
BIGT$3
 70
     0
  3

  4

  5
OPEN
  6

  7

 40
1.0
 41
2.2299999999999991
 42
0.5
 43
2.5
 44
1.0
 45
0.0
 46
0.0
 47
0.0
 48
0.01
140
2.7999999999999989
141
0.0
142
0.0
143
25.399999999999999
144
1.0
145
0.0
146
1.0
147
1.0
 71
     0
 72
     0
 73
     0
 74
     0
 75
     0
 76
     0
 77
     3
 78
     9
170
     0
171
     2
172
     1
173
     0
174
     0
175
     0
176
   256
177
   256
178
    40
  0
DIMSTYLE
  2
BIGT$7
 70
     0
  3

  4

  5
OPEN
  6

  7

 40
0.0
 41
2.2299999999999991
 42
0.5
 43
7.0
 44
1.0
 45
0.0
 46
0.0
 47
0.0
 48
0.01
140
2.7999999999999989
141
0.0
142
0.0
143
25.399999999999999
144
1.0
145
0.0
146
1.0
147
1.0
 71
     0
 72
     0
 73
     0
 74
     0
 75
     0
 76
     0
 77
     3
 78
     9
170
     0
171
     2
172
     0
173
     0
174
     0
175
     0
176
   256
177
   256
178
    40
  0
DIMSTYLE
  2
BIGT$6
 70
     0
  3

  4

  5
OPEN
  6

  7

 40
1.0
 41
2.2299999999999991
 42
0.5
 43
2.5
 44
1.0
 45
0.0
 46
0.0
 47
0.0
 48
0.01
140
2.7999999999999989
141
0.0
142
0.0
143
25.399999999999999
144
1.0
145
0.0
146
1.0
147
1.0
 71
     0
 72
     0
 73
     0
 74
     0
 75
     0
 76
     0
 77
     3
 78
     9
170
     0
171
     2
172
     1
173
     0
174
     0
175
     0
176
   256
177
   256
178
    40
  0
DIMSTYLE
  2
BIGT$0
 70
     0
  3

  4

  5
OPEN
  6

  7

 40
1.0
 41
2.2299999999999991
 42
0.5
 43
7.0
 44
1.0
 45
0.0
 46
0.0
 47
0.0
 48
0.01
140
2.7999999999999989
141
0.0
142
0.0
143
25.399999999999999
144
1.0
145
0.0
146
1.0
147
1.0
 71
     0
 72
     0
 73
     0
 74
     0
 75
     0
 76
     0
 77
     3
 78
     9
170
     0
171
     2
172
     1
173
     0
174
     0
175
     0
176
   256
177
   256
178
    40
  0
DIMSTYLE
  2
BIGT$4
 70
     0
  3

  4

  5
OPEN
  6

  7

 40
1.0
 41
2.2299999999999991
 42
0.5
 43
2.5
 44
1.0
 45
0.0
 46
0.0
 47
0.0
 48
0.01
140
2.7999999999999989
141
0.0
142
0.0
143
25.399999999999999
144
1.0
145
0.0
146
1.0
147
1.0
 71
     0
 72
     0
 73
     0
 74
     0
 75
     0
 76
     0
 77
     3
 78
     9
170
     0
171
     2
172
     1
173
     0
174
     0
175
     0
176
   256
177
   256
178
    40
  0
DIMSTYLE
  2
BIGT$SH
 70
     0
  3

  4

  5
OPEN
  6

  7

 40
1.0
 41
2.2299999999999991
 42
0.5
 43
7.0
 44
1.0
 45
0.0
 46
0.0
 47
0.0
 48
0.0
140
2.7999999999999989
141
0.0
142
0.0
143
25.399999999999999
144
1.0
145
0.0
146
1.0
147
1.0
 71
     0
 72
     0
 73
     0
 74
     0
 75
     0
 76
     0
 77
     3
 78
     9
170
     0
171
     2
172
     1
173
     0
174
     0
175
     0
176
   256
177
   256
178
    40
  0
DIMSTYLE
  2
BIGT$SF
 70
     0
  3

  4

  5
OPEN
  6

  7

 40
1.0
 41
2.2299999999999991
 42
0.5
 43
7.0
 44
1.0
 45
0.0
 46
0.0
 47
0.0
 48
0.0
140
2.7999999999999989
141
0.0
142
0.0
143
25.399999999999999
144
1.0
145
0.0
146
1.0
147
1.0
 71
     0
 72
     0
 73
     0
 74
     0
 75
     0
 76
     0
 77
     3
 78
     9
170
     0
171
     2
172
     1
173
     0
174
     0
175
     0
176
   256
177
   256
178
    40
  0
DIMSTYLE
  2
TECHNICAL_OSAKA
 70
     0
  3

  4
"
  5
OPEN30
  6

  7

 40
1.0
 41
2.5
 42
1.0
 43
10.0
 44
1.0
 45
0.0
 46
0.0
 47
0.1
 48
0.1
140
2.7999999999999989
141
0.0
142
0.0
143
0.0393701
144
1.0
145
0.0
146
0.71
147
1.5
 71
     0
 72
     0
 73
     0
 74
     0
 75
     0
 76
     0
 77
     3
 78
     8
170
     0
171
     2
172
     1
173
     0
174
     0
175
     0
176
   256
177
   256
178
    40
  0
DIMSTYLE
  2
TECHNICAL_OSAKA$3
 70
     0
  3

  4
"
  5
OPEN30
  6

  7

 40
1.0
 41
2.5
 42
1.0
 43
10.0
 44
1.0
 45
0.0
 46
0.0
 47
0.1
 48
0.1
140
2.7999999999999989
141
0.0
142
0.0
143
0.0393701
144
1.0
145
0.0
146
0.71
147
1.5
 71
     0
 72
     0
 73
     0
 74
     1
 75
     0
 76
     0
 77
     3
 78
     8
170
     0
171
     2
172
     0
173
     0
174
     0
175
     0
176
   256
177
   256
178
    40
  0
DIMSTYLE
  2
TECHNICAL_OSAKA$4
 70
     0
  3

  4
"
  5
OPEN30
  6

  7

 40
1.0
 41
2.5
 42
1.0
 43
10.0
 44
1.0
 45
0.0
 46
0.0
 47
0.1
 48
0.1
140
2.7999999999999989
141
0.0
142
0.0
143
0.0393701
144
1.0
145
0.0
146
0.71
147
1.5
 71
     0
 72
     0
 73
     0
 74
     1
 75
     0
 76
     0
 77
     3
 78
     8
170
     0
171
     2
172
     0
173
     0
174
     0
175
     0
176
   256
177
   256
178
    40
  0
DIMSTYLE
  2
TECHNICAL_OSAKA$6
 70
     0
  3

  4
"
  5
OPEN30
  6

  7

 40
1.0
 41
2.5
 42
1.0
 43
10.0
 44
1.0
 45
0.0
 46
0.0
 47
0.1
 48
0.1
140
2.7999999999999989
141
0.0
142
0.0
143
0.0393701
144
1.0
145
0.0
146
0.71
147
1.5
 71
     0
 72
     0
 73
     0
 74
     0
 75
     0
 76
     0
 77
     0
 78
     8
170
     0
171
     2
172
     1
173
     0
174
     0
175
     0
176
   256
177
   256
178
    40
  0
DIMSTYLE
  2
TECHNICAL_OSAKA$7
 70
     0
  3

  4
"
  5
OPEN30
  6

  7

 40
1.0
 41
2.5
 42
1.0
 43
10.0
 44
1.0
 45
0.0
 46
0.0
 47
0.1
 48
0.1
140
2.7999999999999989
141
0.0
142
0.0
143
0.0393701
144
1.0
145
0.0
146
0.71
147
1.5
 71
     0
 72
     0
 73
     0
 74
     0
 75
     0
 76
     0
 77
     3
 78
     8
170
     0
171
     2
172
     1
173
     0
174
     0
175
     0
176
   256
177
   256
178
    40
  0
DIMSTYLE
  2
TECHNICAL_OSAKA$SF
 70
     0
  3

  4
"
  5
OPEN30
  6
OPEN30
  7
OPEN30
 40
1.0
 41
2.5
 42
1.0
 43
10.0
 44
1.0
 45
0.0
 46
0.0
 47
0.1
 48
0.1
140
3.5
141
0.0
142
0.0
143
0.0393701
144
1.0
145
0.0
146
0.71
147
1.5
 71
     0
 72
     0
 73
     0
 74
     0
 75
     1
 76
     1
 77
     3
 78
     8
170
     0
171
     2
172
     1
173
     0
174
     0
175
     0
176
   256
177
   256
178
    40
  0
DIMSTYLE
  2
TECHNICAL_OSAKA$SH
 70
     0
  3

  4
"
  5
OPEN30
  6
GENAXEH
  7
OPEN30
 40
1.0
 41
2.5
 42
1.0
 43
10.0
 44
1.0
 45
0.0
 46
0.0
 47
0.1
 48
0.1
140
3.5
141
0.0
142
0.0
143
0.0393701
144
2.0
145
0.0
146
0.71
147
1.5
 71
     0
 72
     0
 73
     0
 74
     0
 75
     1
 76
     1
 77
     3
 78
     8
170
     0
171
     2
172
     1
173
     1
174
     0
175
     0
176
   256
177
   256
178
    40
  0
ENDTAB
  0
ENDSEC
  0
SECTION
  2
BLOCKS
  0
BLOCK
  8
0
  2
$MODEL_SPACE
 70
     0
 10
0.0
 20
0.0
 30
0.0
  3
$MODEL_SPACE
  1

  0
ENDBLK
  5
1C
  8
0
  0
BLOCK
 67
     1
  8
0
  2
$PAPER_SPACE
 70
     0
 10
0.0
 20
0.0
 30
0.0
  3
$PAPER_SPACE
  1

  0
ENDBLK
  5
19
 67
     1
  8
0
  0
BLOCK
  8
0
  2
_OPEN
 70
     0
 10
0.0
 20
0.0
 30
0.0
  3
_OPEN
  1

  0
LINE
  5
1895
  8
0
  6
BYBLOCK
 62
     0
 10
-1.0
 20
0.1666666666666666
 30
0.0
 11
0.0
 21
0.0
 31
0.0
  0
LINE
  5
1896
  8
0
  6
BYBLOCK
 62
     0
 10
-1.0
 20
-0.1666666666666666
 30
0.0
 11
0.0
 21
0.0
 31
0.0
  0
LINE
  5
1897
  8
0
  6
BYBLOCK
 62
     0
 10
0.0
 20
0.0
 30
0.0
 11
-1.0
 21
0.0
 31
0.0
  0
ENDBLK
  5
1898
  8
0
  0
BLOCK
  8
0
  2
GENAXEH
 70
     0
 10
0.0
 20
0.0
 30
0.0
  3
GENAXEH
  1

  0
LINE
  5
18C0
  8
0
 10
-1.0
 20
0.0
 30
0.0
 11
1.0
 21
0.0
 31
0.0
  0
ENDBLK
  5
18C1
  8
0
  0
BLOCK
  8
0
  2
_OPEN30
 70
     0
 10
0.0
 20
0.0
 30
0.0
  3
_OPEN30
  1

  0
LINE
  5
18E5
  8
0
  6
BYBLOCK
 62
     0
 10
-1.0
 20
0.26794919
 30
0.0
 11
0.0
 21
0.0
 31
0.0
  0
LINE
  5
18E6
  8
0
  6
BYBLOCK
 62
     0
 10
0.0
 20
0.0
 30
0.0
 11
-1.0
 21
-0.26794919
 31
0.0
  0
LINE
  5
18E7
  8
0
  6
BYBLOCK
 62
     0
 10
0.0
 20
0.0
 30
0.0
 11
-1.0
 21
0.0
 31
0.0
  0
ENDBLK
  5
18E8
  8
0
  0
ENDSEC
  0
SECTION
  2
ENTITIES
  0
ARC
  5
147F
  8
240
  6
CONTINUOUS
 10
-164.49999999999989
 20
11.056624327027111
 30
0.0
 40
0.5
 50
119.9999999999997
 51
179.9999999999996
  0
LINE
  5
1480
  8
241
  6
CONTINUOUS
 10
-163.0
 20
-12.36125252783309
 30
0.0
 11
-162.99999999999989
 21
12.327012647159091
 31
0.0
  0
LINE
  5
1483
  8
241
  6
CONTINUOUS
 10
-37.999999999999893
 20
12.417468270048539
 30
0.0
 11
-38.000000000000057
 21
-12.481716522000889
 31
0.0
  0
LINE
  5
1484
  8
241
 10
-36.000000000000078
 20
-12.23171652200074
 30
0.0
 11
-35.999999999999943
 21
12.23171652200126
 31
0.0
  0
LINE
  5
1491
  8
245
 10
2.9999999999998859
 20
-0.0000000000000142
 30
0.0
 11
-167.77312474697479
 21
0.0000000000011369
 31
0.0
  0
LINE
  5
14B9
  8
240
 10
-37.307179676975352
 20
-12.099999999999749
 30
0.0
 11
-36.259807621134833
 21
-12.09999999999989
 31
0.0
  0
LINE
  5
14BB
  8
240
 10
-36.259807621134833
 20
-12.09999999999989
 30
0.0
 11
-36.000000000000199
 21
-12.2499999999996
 31
0.0
  0
LINE
  5
14BC
  8
240
  6
CONTINUOUS
 10
-37.999999999999432
 20
-12.49999999999973
 30
0.0
 11
-37.307179676975352
 21
-12.099999999999749
 31
0.0
  0
LINE
  5
14C9
  8
240
  6
CONTINUOUS
 10
-163.2320508075689
 20
-12.36602540378334
 30
0.0
 11
-164.75000000000011
 21
-11.489637028917031
 31
0.0
  0
LINE
  5
14CA
  8
240
  6
CONTINUOUS
 10
-37.999999999999432
 20
-12.49999999999973
 30
0.0
 11
-162.7320508075689
 21
-12.49999999999889
 31
0.0
  0
ARC
  5
14CB
  8
240
  6
CONTINUOUS
 10
-162.7320508075689
 20
-11.49999999999889
 30
0.0
 40
1.0
 50
239.99999999999949
 51
269.9999999999996
  0
LINE
  5
14CE
  8
240
  6
CONTINUOUS
 10
-165.00000000000011
 20
-11.056624327024799
 30
0.0
 11
-164.99999999999989
 21
11.056624327027119
 31
0.0
  0
ARC
  5
14D1
  8
240
  6
CONTINUOUS
 10
-164.50000000000011
 20
-11.056624327024821
 30
0.0
 40
0.499999999999998
 50
179.9999999999996
 51
239.99999999999949
  0
LINE
  5
14DB
  8
240
  6
CONTINUOUS
 10
-37.999999999999353
 20
12.500000000000311
 30
0.0
 11
-162.73205080756881
 21
12.500000000001121
 31
0.0
  0
LINE
  5
14DC
  8
240
  6
CONTINUOUS
 10
-164.74999999999989
 20
11.489637028919329
 30
0.0
 11
-163.23205080756881
 21
12.366025403785571
 31
0.0
  0
ARC
  5
14DD
  8
240
  6
CONTINUOUS
 10
-162.73205080756881
 20
11.500000000001121
 30
0.0
 40
0.9999999999999959
 50
89.999999999999616
 51
119.9999999999997
  0
LINE
  5
14E0
  8
240
 10
-37.30717967697521
 20
12.100000000000261
 30
0.0
 11
-36.259807621134676
 21
12.10000000000041
 31
0.0
  0
LINE
  5
14E1
  8
240
 10
-36.259807621134676
 20
12.10000000000041
 30
0.0
 11
-35.999999999999893
 21
12.25000000000024
 31
0.0
  0
LINE
  5
14E4
  8
240
  6
CONTINUOUS
 10
-37.999999999999353
 20
12.500000000000311
 30
0.0
 11
-37.30717967697521
 21
12.100000000000261
 31
0.0
  0
ARC
  5
14FF
  8
240
 10
-18.74999999999994
 20
12.75000000000008
 30
0.0
 40
1.0
 50
209.99999999999929
 51
330.00000000000063
  0
ARC
  5
1500
  8
240
 10
-18.750000000000139
 20
-12.74999999999981
 30
0.0
 40
1.0
 50
29.99999999999935
 51
149.99999999999989
  0
LINE
  5
1501
  8
240
 10
-19.61602540378453
 20
-12.249999999999771
 30
0.0
 11
-36.000000000000199
 21
-12.2499999999996
 31
0.0
  0
LINE
  5
1503
  8
240
 10
-19.61602540378448
 20
12.250000000000179
 30
0.0
 11
-35.999999999999893
 21
12.25000000000024
 31
0.0
  0
LINE
  5
1506
  8
241
 10
-19.616025403784391
 20
10.50932668306433
 30
0.0
 11
-19.61602540378453
 21
-12.249999999999799
 31
0.0
  0
LINE
  5
1507
  8
241
 10
-17.883974596215658
 20
-12.249999999999829
 30
0.0
 11
-17.883974596215548
 21
10.057522643336471
 31
0.0
  0
ARC
  5
1543
  8
241
 10
-19.249999999999631
 20
11.964041232882581
 30
0.0
 40
1.5
 50
179.9999999999996
 51
255.380219371008
  0
LINE
  5
1544
  8
240
 10
-1.278899699790486
 20
4.2848350810271683
 30
0.0
 11
-1.0472590695089821
 21
-0.1351314478082344
 31
0.0
  0
LINE
  5
1545
  8
241
 10
-11.129615242271001
 20
-12.249999999994539
 30
0.0
 11
-11.129615242274239
 21
8.2956535177030446
 31
0.0
  0
LINE
  5
1546
  8
241
 10
-10.010000000003121
 20
-1.0840249106071691
 30
0.0
 11
-0.7500000000005401
 21
-1.084024910607311
 31
0.0
  0
LINE
  5
1547
  8
241
 10
-1.3222153514014101
 20
-12.360310378851681
 30
0.0
 11
-10.0100000000034
 21
-12.55000000000001
 31
0.0
  0
LINE
  5
1548
  8
240
 10
-0.7500000000002843
 20
-1.0840249106069699
 30
0.0
 11
-0.7500000000003411
 21
-8.0168522595815972
 31
0.0
  0
LINE
  5
1549
  8
241
 10
-0.7500000000003695
 20
-9.499999999992454
 30
0.0
 11
-0.8334372837858268
 21
-11.87796258787882
 31
0.0
  0
ARC
  5
154A
  8
241
 10
-1.3331297806817299
 20
-11.86042951781228
 30
0.0
 40
0.5
 50
271.25080081476642
 51
357.99044618697877
  0
ARC
  5
154B
  8
240
 10
0.9500000000001875
 20
-0.0304595353224499
 30
0.0
 40
2.0
 50
182.99999999999699
 51
211.78833061704259
  0
LINE
  5
154C
  8
241
 10
-10.01000000000348
 20
-12.550000000000219
 30
0.0
 11
-10.010000000003121
 21
-1.0840249106071691
 31
0.0
  0
LINE
  5
154D
  8
240
 10
-11.129615242249431
 20
-12.25
 30
0.0
 11
-10.26056899652229
 21
-12.482860239733011
 31
0.0
  0
LINE
  5
154E
  8
241
 10
-10.010000000003121
 20
-1.0840249106071691
 30
0.0
 11
-11.12961524227307
 21
-0.1649928056085628
 31
0.0
  0
ARC
  5
1552
  8
240
 10
-3.2761587692997969
 20
4.180163168541255
 30
0.0
 40
2.0000000000001319
 50
2.9999999999980642
 51
40.263573099453822
  0
LINE
  5
1554
  8
240
 10
-1.7499999999999141
 20
6.5000000000000142
 30
0.0
 11
-1.749999999999772
 21
5.4727727038956848
 31
0.0
  0
LINE
  5
1556
  8
240
 10
-11.23011931593183
 20
12.249999999999879
 30
0.0
 11
-10.24738685606766
 21
12.51332236899631
 31
0.0
  0
LINE
  5
1557
  8
241
 10
-20.749844909921681
 20
11.964041232882719
 30
0.0
 11
-20.749844909921681
 21
12.2500000000004
 31
0.0
  0
LINE
  5
1558
  8
240
 10
-11.129615242249431
 20
-12.25
 30
0.0
 11
-17.883974596215921
 21
-12.24999999999984
 31
0.0
  0
LINE
  5
1559
  8
241
 10
-2.7713519046473891
 20
6.1154073467782259
 30
0.0
 11
-19.628605148488809
 21
10.51260809920487
 31
0.0
  0
LINE
  5
155A
  8
240
 10
-11.23011931593183
 20
12.249999999999879
 30
0.0
 11
-17.883974596215442
 21
12.250000000000041
 31
0.0
  0
LINE
  5
15F2
  8
245
 10
-8.6608726289467182
 20
9.6519999999999868
 30
0.0
 11
-2.858359371370625
 21
9.6519999999999868
 31
0.0
  0
LINE
  5
15F3
  8
245
 10
-5.7639999999997817
 20
7.2409085428008799
 30
0.0
 11
-5.7639999999997817
 21
11.972329033957759
 31
0.0
  0
LINE
  5
15F7
  8
240
 10
-10.036782638814881
 20
13.00000000000003
 30
0.0
 11
-0.0000000000002274
 21
13.0
 31
0.0
1001
GRPNAME
1000
PASTMD05
  0
LINE
  5
15F8
  8
240
 10
-0.0000000000002274
 20
9.75
 30
0.0
 11
0.0
 21
13.000000000000011
 31
0.0
1001
GRPNAME
1000
PASTMD05
  0
LINE
  5
15F9
  8
241
 10
-1.7499999999998861
 20
6.5000000000000142
 30
0.0
 11
-4.245738933145617
 21
6.5000000000000142
 31
0.0
  0
LINE
  5
15FA
  8
240
 10
-1.4064005873042329
 20
6.5000000000000142
 30
0.0
 11
-0.0000000000002274
 21
9.7499999999999858
 31
0.0
  0
LINE
  5
15FB
  8
241
 10
-11.52799999999956
 20
9.5539999999999878
 30
0.0
 11
-11.52799999999956
 21
8.3995718566565927
 31
0.0
1001
GRPNAME
1000
PASTMD05
  0
LINE
  5
15FC
  8
241
 10
-10.24738685606766
 20
12.51332236899631
 30
0.0
 11
-11.52799999999956
 21
9.5539999999999878
 31
0.0
  0
CIRCLE
  5
15FD
  8
241
 10
-5.7639999999997817
 20
9.6519999999999868
 30
0.0
 40
1.8999999999999999
  0
LINE
  5
15FE
  8
242
 10
-9.2481927459401732
 20
12.849950225681511
 30
0.0
 11
-2.015049608409015
 21
11.47365627973242
 31
0.0
  0
LINE
  5
15FF
  8
242
 10
-1.203298124001662
 20
10.439798472599289
 30
0.0
 11
-1.3650731085407981
 21
7.301673869735211
 31
0.0
  0
LINE
  5
1600
  8
242
 10
-2.1949904801788298
 20
6.650049774318517
 30
0.0
 11
-9.4281336177101025
 21
8.0263437202676045
 31
0.0
  0
LINE
  5
1601
  8
242
 10
-10.2398851021174
 20
9.0602015274007481
 30
0.0
 11
-10.078110117578261
 21
12.19832613026483
 31
0.0
  0
LINE
  5
1602
  8
240
 10
-10.24738685606766
 20
12.51332236899631
 30
0.0
 11
-10.036782638814881
 21
13.00000000000003
 31
0.0
  0
LINE
  5
1603
  8
240
 10
-1.7499999999999141
 20
6.5000000000000142
 30
0.0
 11
-1.4064005873042329
 21
6.5000000000000142
 31
0.0
  0
ARC
  5
1604
  8
242
 10
-9.2412112373150972
 20
9.0087184062746672
 30
0.0
 40
1.0
 50
177.04892982193681
 51
259.22676795557811
1001
GENIUS_GENOBJ-N-FIL_13
1002
{
1000
OWNER
1000
GEN
1002
}
1001
GENIUS_GENODEF_13
1002
{
1000
HIER
1070
     0
1002
}
1002
{
1000
MANEDIT
1070
     0
1002
}
1002
{
1000
NOSEL
1070
     0
1002
}
1002
{
1000
BEHIND
1070
     0
1002
}
1002
{
1000
OTHER
1070
     0
1002
}
1002
{
1000
REACTOR
1002
}
  0
ARC
  5
1605
  8
242
 10
-2.2019719888039608
 20
10.49128159372537
 30
0.0
 40
1.0
 50
357.04892982193689
 51
79.226767955578183
1001
GENIUS_GENOBJ-N-FIL_13
1002
{
1000
OWNER
1000
GEN
1002
}
1001
GENIUS_GENODEF_13
1002
{
1000
HIER
1070
     0
1002
}
1002
{
1000
MANEDIT
1070
     0
1002
}
1002
{
1000
NOSEL
1070
     0
1002
}
1002
{
1000
BEHIND
1070
     0
1002
}
1002
{
1000
OTHER
1070
     0
1002
}
1002
{
1000
REACTOR
1002
}
  0
ARC
  5
1606
  8
242
 10
-9.3790384122166852
 20
12.16228794547658
 30
0.0
 40
0.7
 50
79.226767955578183
 51
177.04892982193681
1001
GENIUS_GENODEF_13
1002
{
1000
HIER
1070
     0
1002
}
1002
{
1000
MANEDIT
1070
     0
1002
}
1002
{
1000
NOSEL
1070
     0
1002
}
1002
{
1000
BEHIND
1070
     0
1002
}
1002
{
1000
OTHER
1070
     0
1002
}
1002
{
1000
REACTOR
1002
}
1001
GENIUS_GENOBJ-N-FIL_13
1002
{
1000
OWNER
1000
GEN
1002
}
  0
ARC
  5
1607
  8
242
 10
-2.0641448139024301
 20
7.3377120545234638
 30
0.0
 40
0.7
 50
259.22676795557811
 51
357.04892982193689
1001
GENIUS_GENOBJ-N-FIL_13
1002
{
1000
OWNER
1000
GEN
1002
}
1001
GENIUS_GENODEF_13
1002
{
1000
HIER
1070
     0
1002
}
1002
{
1000
MANEDIT
1070
     0
1002
}
1002
{
1000
NOSEL
1070
     0
1002
}
1002
{
1000
BEHIND
1070
     0
1002
}
1002
{
1000
OTHER
1070
     0
1002
}
1002
{
1000
REACTOR
1002
}
  0
LINE
  5
1612
  8
240
 10
-10.03678263880999
 20
-13.00000000000435
 30
0.0
 11
0.0000000000046612
 21
-13.0000000000004
 31
0.0
1001
GRPNAME
1000
PASTMD05
  0
LINE
  5
1613
  8
240
 10
0.0000000000035243
 20
-9.7500000000003961
 30
0.0
 11
0.0000000000048885
 21
-13.0000000000004
 31
0.0
1001
GRPNAME
1000
PASTMD05
  0
LINE
  5
1614
  8
240
 10
-0.7500000000003411
 20
-8.0168522595815972
 30
0.0
 11
0.0000000000035243
 21
-9.7500000000003837
 31
0.0
  0
LINE
  5
1615
  8
240
 10
-10.26056899652229
 20
-12.482860239733011
 30
0.0
 11
-10.03678263880999
 21
-13.00000000000435
 31
0.0
  0
ARC
  5
1627
  8
241
 10
-3.2761587692996552
 20
4.1801631685412977
 30
0.0
 40
2.0
 50
40.263573099454369
 51
75.380219371009403
  0
LINE
  5
1630
  8
241
 10
-10.01000000000348
 20
-12.550000000000219
 30
0.0
 11
-10.26056899652229
 21
-12.482860239733011
 31
0.0
  0
LINE
  5
1631
  8
241
 10
-0.7500000000003695
 20
-9.499999999992454
 30
0.0
 11
-0.7500000000003411
 21
-8.0168522595815972
 31
0.0
  0
TEXT
  5
1776
  8
241
 10
-186.40000000000001
 20
49.000000000001108
 30
0.0
 40
5.0
  1
ST25-FCR26082-165
  7
YOKO
 11
-186.40000000000001
 21
49.000000000001108
 31
0.0
 73
     1
  0
LINE
  5
17B7
  8
250
 10
0.0
 20
13.5
 30
0.0
 11
0.0000000000000006
 21
22.000000000000249
 31
0.0
  0
LINE
  5
17B8
  8
250
 10
-8.0
 20
13.50000000000057
 30
0.0
 11
-7.9999999999999991
 21
22.000000000000249
 31
0.0
  0
LINE
  5
17B9
  8
250
 10
-2.2299999999999991
 20
21.000000000000259
 30
0.0
 11
-5.7699999999999987
 21
21.000000000000259
 31
0.0
  0
LINE
  5
17BD
  8
250
 10
-37.999999999999893
 20
12.917468270048539
 30
0.0
 11
-37.999999999999893
 21
29.000000000000259
 31
0.0
  0
LINE
  5
17BE
  8
250
 10
-0.0000000000002273
 20
13.5
 30
0.0
 11
-0.0000000000002264
 21
29.000000000000259
 31
0.0
  0
LINE
  5
17BF
  8
250
 10
-35.769999999999889
 20
28.000000000000249
 30
0.0
 11
-2.230000000000226
 21
28.000000000000249
 31
0.0
  0
LINE
  5
17C3
  8
250
 10
-164.99999999999989
 20
11.556624327027111
 30
0.0
 11
-164.99999999999989
 21
29.000000000000131
 31
0.0
  0
LINE
  5
17C4
  8
250
 10
-37.999999999999893
 20
12.917468270048539
 30
0.0
 11
-37.999999999999893
 21
29.000000000000131
 31
0.0
  0
LINE
  5
17C5
  8
250
 10
-162.7699999999999
 20
28.000000000000131
 30
0.0
 11
-40.229999999999883
 21
28.000000000000131
 31
0.0
  0
LINE
  5
17C9
  8
250
 10
-164.99999999999989
 20
11.556624327027111
 30
0.0
 11
-164.99999999999989
 21
36.000000000000263
 31
0.0
  0
LINE
  5
17CA
  8
250
 10
0.0
 20
13.5
 30
0.0
 11
0.0000000000000014
 21
36.000000000000263
 31
0.0
  0
LINE
  5
17CB
  8
250
 10
-162.7699999999999
 20
35.000000000000263
 30
0.0
 11
-2.2299999999999982
 21
35.000000000000263
 31
0.0
  0
LINE
  5
17CF
  8
250
 10
0.4999999999997727
 20
13.0
 30
0.0
 11
13.500000000001171
 21
13.0
 31
0.0
  0
LINE
  5
17D0
  8
250
 10
0.5000000000046612
 20
-13.0000000000004
 30
0.0
 11
13.50000000000116
 21
-13.0000000000004
 31
0.0
  0
LINE
  5
17D1
  8
250
 10
12.500000000001171
 20
10.769999999999991
 30
0.0
 11
12.500000000001171
 21
-10.770000000000399
 31
0.0
  0
LINE
  5
17D5
  8
250
 10
-163.23205080756881
 20
12.500000000001121
 30
0.0
 11
-177.49999999999901
 21
12.50000000000113
 31
0.0
  0
LINE
  5
17D6
  8
250
 10
-163.2320508075689
 20
-12.49999999999889
 30
0.0
 11
-177.49999999999901
 21
-12.499999999998879
 31
0.0
  0
LINE
  5
17D7
  8
250
 10
-176.49999999999901
 20
10.27000000000112
 30
0.0
 11
-176.49999999999901
 21
-10.269999999998889
 31
0.0
  0
TEXT
  5
17DB
  8
250
 10
-5.3333333333333321
 20
22.000000000000249
 30
0.0
 40
2.7999999999999989
  1
8
  0
LINE
  5
17DC
  8
250
 10
-5.7699999999999987
 20
20.62833333333359
 30
0.0
 11
-7.9999999999999991
 21
21.000000000000259
 31
0.0
  0
LINE
  5
17DD
  8
250
 10
-5.7699999999999987
 20
21.371666666666918
 30
0.0
 11
-7.9999999999999991
 21
21.000000000000259
 31
0.0
  0
LINE
  5
17DE
  8
250
 10
-7.9999999999999991
 20
21.000000000000259
 30
0.0
 11
-5.7699999999999987
 21
21.000000000000259
 31
0.0
  0
LINE
  5
17DF
  8
250
 10
-2.2299999999999991
 20
21.371666666666918
 30
0.0
 11
0.0000000000000005
 21
21.000000000000259
 31
0.0
  0
LINE
  5
17E0
  8
250
 10
-2.2299999999999991
 20
20.62833333333359
 30
0.0
 11
0.0000000000000005
 21
21.000000000000259
 31
0.0
  0
LINE
  5
17E1
  8
250
 10
0.0000000000000005
 20
21.000000000000259
 30
0.0
 11
-2.2299999999999991
 21
21.000000000000259
 31
0.0
  0
TEXT
  5
17E2
  8
250
 10
-21.666666666666721
 20
29.000000000000259
 30
0.0
 40
2.7999999999999989
  1
38
  0
LINE
  5
17E3
  8
250
 10
-2.230000000000226
 20
28.371666666666918
 30
0.0
 11
-0.0000000000002265
 21
28.000000000000249
 31
0.0
  0
LINE
  5
17E4
  8
250
 10
-2.230000000000226
 20
27.62833333333359
 30
0.0
 11
-0.0000000000002265
 21
28.000000000000249
 31
0.0
  0
LINE
  5
17E5
  8
250
 10
-0.0000000000002265
 20
28.000000000000249
 30
0.0
 11
-2.230000000000226
 21
28.000000000000249
 31
0.0
  0
LINE
  5
17E6
  8
250
 10
-35.769999999999889
 20
27.62833333333359
 30
0.0
 11
-37.999999999999893
 21
28.000000000000249
 31
0.0
  0
LINE
  5
17E7
  8
250
 10
-35.769999999999889
 20
28.371666666666918
 30
0.0
 11
-37.999999999999893
 21
28.000000000000249
 31
0.0
  0
LINE
  5
17E8
  8
250
 10
-37.999999999999893
 20
28.000000000000249
 30
0.0
 11
-35.769999999999889
 21
28.000000000000249
 31
0.0
  0
TEXT
  5
17E9
  8
250
 10
-105.6999999999999
 20
29.000000000000131
 30
0.0
 40
2.7999999999999989
  1
127
  0
LINE
  5
17EA
  8
250
 10
-40.229999999999883
 20
28.37166666666679
 30
0.0
 11
-37.999999999999893
 21
28.000000000000131
 31
0.0
  0
LINE
  5
17EB
  8
250
 10
-40.229999999999883
 20
27.628333333333462
 30
0.0
 11
-37.999999999999893
 21
28.000000000000131
 31
0.0
  0
LINE
  5
17EC
  8
250
 10
-37.999999999999893
 20
28.000000000000131
 30
0.0
 11
-40.229999999999883
 21
28.000000000000131
 31
0.0
  0
LINE
  5
17ED
  8
250
 10
-162.7699999999999
 20
27.628333333333462
 30
0.0
 11
-164.99999999999989
 21
28.000000000000131
 31
0.0
  0
LINE
  5
17EE
  8
250
 10
-162.7699999999999
 20
28.37166666666679
 30
0.0
 11
-164.99999999999989
 21
28.000000000000131
 31
0.0
  0
LINE
  5
17EF
  8
250
 10
-164.99999999999989
 20
28.000000000000131
 30
0.0
 11
-162.7699999999999
 21
28.000000000000131
 31
0.0
  0
TEXT
  5
17F0
  8
250
 10
-86.699999999999946
 20
36.000000000000263
 30
0.0
 40
2.7999999999999989
  1
165
  0
LINE
  5
17F1
  8
250
 10
-2.2299999999999982
 20
35.371666666666918
 30
0.0
 11
0.0000000000000013
 21
35.000000000000263
 31
0.0
  0
LINE
  5
17F2
  8
250
 10
-2.2299999999999982
 20
34.628333333333593
 30
0.0
 11
0.0000000000000013
 21
35.000000000000263
 31
0.0
  0
LINE
  5
17F3
  8
250
 10
0.0000000000000013
 20
35.000000000000263
 30
0.0
 11
-2.2299999999999982
 21
35.000000000000263
 31
0.0
  0
LINE
  5
17F4
  8
250
 10
-162.7699999999999
 20
34.628333333333593
 30
0.0
 11
-164.99999999999989
 21
35.000000000000263
 31
0.0
  0
LINE
  5
17F5
  8
250
 10
-162.7699999999999
 20
35.371666666666918
 30
0.0
 11
-164.99999999999989
 21
35.000000000000263
 31
0.0
  0
LINE
  5
17F6
  8
250
 10
-164.99999999999989
 20
35.000000000000263
 30
0.0
 11
-162.7699999999999
 21
35.000000000000263
 31
0.0
  0
TEXT
  5
17F7
  8
250
 10
11.50000000000116
 20
-3.8000000000001979
 30
0.0
 40
2.7999999999999989
  1
\U+220526
 50
90.0
  0
LINE
  5
17F8
  8
250
 10
12.87166666666783
 20
-10.770000000000399
 30
0.0
 11
12.50000000000116
 21
-13.0000000000004
 31
0.0
  0
LINE
  5
17F9
  8
250
 10
12.128333333334499
 20
-10.770000000000399
 30
0.0
 11
12.50000000000116
 21
-13.0000000000004
 31
0.0
  0
LINE
  5
17FA
  8
250
 10
12.50000000000116
 20
-13.0000000000004
 30
0.0
 11
12.50000000000116
 21
-10.770000000000399
 31
0.0
  0
LINE
  5
17FB
  8
250
 10
12.128333333334499
 20
10.769999999999991
 30
0.0
 11
12.500000000001171
 21
13.0
 31
0.0
  0
LINE
  5
17FC
  8
250
 10
12.87166666666784
 20
10.769999999999991
 30
0.0
 11
12.500000000001171
 21
13.0
 31
0.0
  0
LINE
  5
17FD
  8
250
 10
12.500000000001171
 20
13.0
 30
0.0
 11
12.500000000001171
 21
10.769999999999991
 31
0.0
  0
TEXT
  5
17FE
  8
250
 10
-177.49999999999901
 20
-3.7999999999989069
 30
0.0
 40
2.7999999999999989
  1
\U+220525
 50
90.0
  0
LINE
  5
17FF
  8
250
 10
-176.12833333333231
 20
-10.269999999998889
 30
0.0
 11
-176.49999999999901
 21
-12.49999999999889
 31
0.0
  0
LINE
  5
1800
  8
250
 10
-176.87166666666559
 20
-10.269999999998889
 30
0.0
 11
-176.49999999999901
 21
-12.49999999999889
 31
0.0
  0
LINE
  5
1801
  8
250
 10
-176.49999999999901
 20
-12.49999999999889
 30
0.0
 11
-176.49999999999901
 21
-10.269999999998889
 31
0.0
  0
LINE
  5
1802
  8
250
 10
-176.87166666666559
 20
10.27000000000112
 30
0.0
 11
-176.49999999999901
 21
12.50000000000113
 31
0.0
  0
LINE
  5
1803
  8
250
 10
-176.12833333333231
 20
10.27000000000112
 30
0.0
 11
-176.49999999999901
 21
12.50000000000113
 31
0.0
  0
LINE
  5
1804
  8
250
 10
-176.49999999999901
 20
12.50000000000113
 30
0.0
 11
-176.49999999999901
 21
10.27000000000112
 31
0.0
  0
VIEWPORT
  5
22
 67
     1
  8
0
 10
261.51769911504419
 20
148.5
 30
0.0
 40
523.0353982300885
 41
297.0
 68
     1
 69
     1
1001
ACAD
1000
MVIEW
1002
{
1070
    16
1010
0.0
1020
0.0
1030
0.0
1010
0.0
1020
0.0
1030
1.0
1040
0.0
1040
297.0
1040
261.51769911504419
1040
148.5
1040
50.0
1040
0.0
1040
0.0
1070
     0
1070
   100
1070
     1
1070
     1
1070
     0
1070
     0
1070
     0
1070
     0
1040
0.0
1040
0.0
1040
0.0
1040
1.0
1040
1.0
1040
10.0
1040
10.0
1070
     0
1002
{
1002
}
1002
}
1001
GENIUS_GENODEF_13
1002
{
1000
HIER
1070
     0
1002
}
1002
{
1000
MANEDIT
1070
     0
1002
}
1002
{
1000
NOSEL
1070
     0
1002
}
1002
{
1000
BEHIND
1070
     0
1002
}
1002
{
1000
OTHER
1070
     0
1002
}
1002
{
1000
REACTOR
1002
}
1001
GENIUS_GENOBJ-N-SDF_13
1002
{
1000
OWNER
1000
GEN
1002
}
1001
GENIUS_GENSCREG_15
1000
PF
1040
1.0
1000
DF
1040
1.0
1000
MIN
1011
0.0
1021
0.0
1031
0.0
1021
0.0
1031
0.0
1000
MAX
1011
523.0353982300885
1021
0.0
1031
0.0
1021
297.0
1031
0.0
1000
FLAGS
1070
     2
  0
ENDSEC
  0
EOF
