  0
SECTION
  2
HEADER
  9
$ACADVER
  1
AC1009
  9
$INSBASE
 10
0.0
 20
0.0
 30
0.0
  9
$EXTMIN
 10
-85.816018889421343
 20
-21.25404621966743
 30
-0.0015258207003583
  9
$EXTMAX
 10
64.010239613490512
 20
54.009904548570432
 30
0.0000000349246037
  9
$LIMMIN
 10
0.0
 20
0.0
  9
$LIMMAX
 10
297.0
 20
210.0
  9
$ORTHOMODE
 70
     1
  9
$REGENMODE
 70
     1
  9
$FILLMODE
 70
     1
  9
$QTEXTMODE
 70
     0
  9
$MIRRTEXT
 70
     1
  9
$DRAGMODE
 70
     2
  9
$LTSCALE
 40
10.0
  9
$OSMODE
 70
    37
  9
$ATTMODE
 70
     1
  9
$TEXTSIZE
 40
3.0
  9
$TRACEWID
 40
1.0
  9
$TEXTSTYLE
  7
YOKO
  9
$CLAYER
  8
240
  9
$CELTYPE
  6
BYLAYER
  9
$CECOLOR
 62
   256
  9
$DIMSCALE
 40
1.0
  9
$DIMASZ
 40
2.2299999999999991
  9
$DIMEXO
 40
0.5
  9
$DIMDLI
 40
7.0
  9
$DIMRND
 40
0.0
  9
$DIMDLE
 40
0.0
  9
$DIMEXE
 40
1.0
  9
$DIMTP
 40
0.0
  9
$DIMTM
 40
0.01
  9
$DIMTXT
 40
2.799999999999998
  9
$DIMCEN
 40
0.0
  9
$DIMTSZ
 40
0.0
  9
$DIMTOL
 70
     0
  9
$DIMLIM
 70
     0
  9
$DIMTIH
 70
     0
  9
$DIMTOH
 70
     0
  9
$DIMSE1
 70
     0
  9
$DIMSE2
 70
     0
  9
$DIMTAD
 70
     3
  9
$DIMZIN
 70
     9
  9
$DIMBLK
  1
OPEN
  9
$DIMASO
 70
     1
  9
$DIMSHO
 70
     1
  9
$DIMPOST
  1

  9
$DIMAPOST
  1

  9
$DIMALT
 70
     0
  9
$DIMALTD
 70
     2
  9
$DIMALTF
 40
25.399999999999999
  9
$DIMLFAC
 40
1.0
  9
$DIMTOFL
 70
     1
  9
$DIMTVP
 40
0.0
  9
$DIMTIX
 70
     1
  9
$DIMSOXD
 70
     0
  9
$DIMSAH
 70
     0
  9
$DIMBLK1
  1

  9
$DIMBLK2
  1

  9
$DIMSTYLE
  2
BIGT
  9
$DIMCLRD
 70
   256
  9
$DIMCLRE
 70
   256
  9
$DIMCLRT
 70
    40
  9
$DIMTFAC
 40
1.0
  9
$DIMGAP
 40
1.0
  9
$LUNITS
 70
     2
  9
$LUPREC
 70
     6
  9
$SKETCHINC
 40
1.0
  9
$FILLETRAD
 40
0.0
  9
$AUNITS
 70
     0
  9
$AUPREC
 70
     6
  9
$MENU
  1
.
  9
$ELEVATION
 40
0.0
  9
$PELEVATION
 40
0.0
  9
$THICKNESS
 40
0.0
  9
$LIMCHECK
 70
     0
  9
$BLIPMODE
 70
     0
  9
$CHAMFERA
 40
0.2
  9
$CHAMFERB
 40
0.2
  9
$SKPOLY
 70
     0
  9
$TDCREATE
 40
2457654.634862477
  9
$TDUPDATE
 40
2457654.7491007992
  9
$TDINDWG
 40
0.0362588079
  9
$TDUSRTIMER
 40
0.03625875
  9
$USRTIMER
 70
     1
  9
$ANGBASE
 50
0.0
  9
$ANGDIR
 70
     0
  9
$PDMODE
 70
     1
  9
$PDSIZE
 40
0.0
  9
$PLINEWID
 40
0.0
  9
$COORDS
 70
     1
  9
$SPLFRAME
 70
     0
  9
$SPLINETYPE
 70
     6
  9
$SPLINESEGS
 70
     4
  9
$ATTDIA
 70
     1
  9
$ATTREQ
 70
     1
  9
$HANDLING
 70
     1
  9
$HANDSEED
  5
4A19
  9
$SURFTAB1
 70
     6
  9
$SURFTAB2
 70
     6
  9
$SURFTYPE
 70
     6
  9
$SURFU
 70
     6
  9
$SURFV
 70
     6
  9
$UCSNAME
  2

  9
$UCSORG
 10
0.0
 20
0.0
 30
0.0
  9
$UCSXDIR
 10
1.0
 20
0.0
 30
0.0
  9
$UCSYDIR
 10
0.0
 20
1.0
 30
0.0
  9
$PUCSNAME
  2

  9
$PUCSORG
 10
0.0
 20
0.0
 30
0.0
  9
$PUCSXDIR
 10
1.0
 20
0.0
 30
0.0
  9
$PUCSYDIR
 10
0.0
 20
1.0
 30
0.0
  9
$USERI1
 70
     1
  9
$USERI2
 70
     0
  9
$USERI3
 70
     0
  9
$USERI4
 70
     0
  9
$USERI5
 70
     0
  9
$USERR1
 40
0.0
  9
$USERR2
 40
0.0
  9
$USERR3
 40
0.0
  9
$USERR4
 40
0.0
  9
$USERR5
 40
0.0
  9
$WORLDVIEW
 70
     1
  9
$SHADEDGE
 70
     3
  9
$SHADEDIF
 70
    70
  9
$TILEMODE
 70
     1
  9
$MAXACTVP
 70
    16
  9
$PLIMCHECK
 70
     0
  9
$PEXTMIN
 10
1.0000000000000000E+020
 20
1.0000000000000000E+020
 30
1.0000000000000000E+020
  9
$PEXTMAX
 10
-1.0000000000000000E+020
 20
-1.0000000000000000E+020
 30
-1.0000000000000000E+020
  9
$PLIMMIN
 10
0.0
 20
0.0
  9
$PLIMMAX
 10
420.0
 20
297.0
  9
$UNITMODE
 70
     0
  9
$VISRETAIN
 70
     1
  9
$PLINEGEN
 70
     0
  9
$PSLTSCALE
 70
     1
  0
ENDSEC
  0
SECTION
  2
TABLES
  0
TABLE
  2
VPORT
 70
     1
  0
VPORT
  2
*ACTIVE
 70
     0
 10
0.0
 20
0.0
 11
1.0
 21
1.0
 12
-10.90288963796541
 22
16.377929164451501
 13
0.0
 23
0.0
 14
7.0
 24
7.0
 15
7.0
 25
7.0
 16
0.0
 26
0.0
 36
1.0
 17
0.0
 27
0.0
 37
0.0
 40
102.3918329031081
 41
1.469813391877058
 42
50.0
 43
0.0
 44
0.0
 50
0.0
 51
0.0
 71
     0
 72
  2000
 73
     1
 74
     0
 75
     0
 76
     1
 77
     0
 78
     0
  0
ENDTAB
  0
TABLE
  2
LTYPE
 70
    21
  0
LTYPE
  2
CONTINUOUS
 70
     0
  3
Solid line
 72
    65
 73
     0
 40
0.0
  0
LTYPE
  2
CENTER2
 70
     0
  3
___ _ ___ _ ___ _ ___ _ ___ _ ___ _ ___ _ ___ _
 72
    65
 73
     4
 40
1.125
 49
0.75
 49
-0.125
 49
0.125
 49
-0.125
  0
LTYPE
  2
HIDDEN2
 70
     0
  3
_ _ _ _ _ _ _ _ _ _ _ _ _ _ _ _ _ _ _ _ _ _ _ _
 72
    65
 73
     2
 40
0.1875
 49
0.125
 49
-0.0625
  0
LTYPE
  2
PHANTOM2
 70
     0
  3
___ _ _ ___ _ _ ___ _ _ ___ _ _ ___ _ _ ___ _ _
 72
    65
 73
     6
 40
1.25
 49
0.625
 49
-0.125
 49
0.125
 49
-0.125
 49
0.125
 49
-0.125
  0
LTYPE
  2
AMCONSTR
 70
     0
  3
_______________________
 72
    65
 73
     2
 40
9999.0
 49
9999.0
 49
0.0
  0
LTYPE
  2
HIDDEN
 70
     0
  3
Hidden __ __ __ __ __ __ __ __ __ __ __ __ __ _
 72
    65
 73
     2
 40
0.375
 49
0.25
 49
-0.125
  0
LTYPE
  2
CENTER
 70
     0
  3
Center ____ _ ____ _ ____ _ ____ _ ____ _ ____
 72
    65
 73
     4
 40
2.0
 49
1.25
 49
-0.25
 49
0.25
 49
-0.25
  0
LTYPE
  2
AMZIGZAG2
 70
     0
  3
/\/-/\/-/\/-/\/-/\/-/\/
 72
    65
 73
     2
 40
0.4401
 49
0.0001
 49
-0.4400000000000001
  0
LTYPE
  2
ACANSTGB
 70
     0
  3
__ . . __ . .
 72
    65
 73
     6
 40
0.35433070866
 49
0.15748031496
 49
-0.03937007874
 49
0.03937007874
 49
-0.03937007874
 49
0.03937007874
 49
-0.03937007874
  0
LTYPE
  2
ACANSTGL
 70
     0
  3
_ _ _ _ _
 72
    65
 73
     2
 40
0.11811023622
 49
0.07874015748
 49
-0.03937007874
  0
ENDTAB
  0
TABLE
  2
LAYER
 70
     8
  0
LAYER
  2
0
 70
     0
 62
     7
  6
CONTINUOUS
  0
LAYER
  2
240
 70
     0
 62
     4
  6
CONTINUOUS
  0
LAYER
  2
DEFPOINTS
 70
     0
 62
     7
  6
CONTINUOUS
  0
LAYER
  2
245
 70
     0
 62
     2
  6
CENTER2
  0
LAYER
  2
241
 70
     0
 62
   211
  6
CONTINUOUS
  0
LAYER
  2
247
 70
     0
 62
    60
  6
CONTINUOUS
  0
LAYER
  2
250
 70
     0
 62
     3
  6
CONTINUOUS
  0
ENDTAB
  0
TABLE
  2
STYLE
 70
    10
  0
STYLE
  2
STANDARD
 70
     0
 40
0.0
 41
1.0
 50
0.0
 71
     0
 42
3.0
  3
romans.shx
  4
extfont.shx
  0
STYLE
  2
YOKO
 70
     0
 40
0.0
 41
1.0
 50
0.0
 71
     0
 42
3.0
  3
romans.shx
  4
extfont.shx
  0
STYLE
  2

 70
     1
 40
0.0
 41
1.0
 50
0.0
 71
     0
 42
3.0
  3
genltshp.shx
  4

  0
STYLE
  2
ACANSGDT
 70
     0
 40
0.0
 41
1.0
 50
0.0
 71
     0
 42
3.0
  3
amgdt.shx
  4

  0
ENDTAB
  0
TABLE
  2
VIEW
 70
     0
  0
ENDTAB
  0
TABLE
  2
UCS
 70
     0
  0
ENDTAB
  0
TABLE
  2
APPID
 70
    46
  0
APPID
  2
ACAD
 70
     0
  0
APPID
  2
ACADANNOTATIVE
 70
     0
  0
APPID
  2
GLOBAL
 70
     0
  0
APPID
  2
DETAIL
 70
     0
  0
APPID
  2
GRPNAME
 70
     0
  0
APPID
  2
GPARA
 70
     0
  0
APPID
  2
MCAD_NO_VIS
 70
     0
  0
APPID
  2
ACAD_TEMP_GRAPHIC
 70
     0
  0
APPID
  2
ACATTRIBSERVICES
 70
     0
  0
APPID
  2
GENIUS_GENSCREG_15
 70
     0
  0
APPID
  2
GENIUS_GENODEF_13
 70
     0
  0
APPID
  2
GENIUS_GENOBJ-N-SDF_13
 70
     0
  0
APPID
  2
GENIUS_GENREC_14
 70
     0
  0
APPID
  2
GENIUS_GENOBJ-N-REC_13
 70
     0
  0
APPID
  2
GENIUS_GENDIMSH_14
 70
     0
  0
APPID
  2
GENIUS_GENOBJ-N-DIM_13
 70
     0
  0
APPID
  2
GENIUS_GENDIM_13
 70
     0
  0
APPID
  2
GENIUS_GENDTOL_13
 70
     0
  0
APPID
  2
GENIUS_GENOLIS_13
 70
     0
  0
APPID
  2
GENIUS_GENOENT_13
 70
     0
  0
APPID
  2
GENIUS_GENOBJ-F-FEM_13
 70
     0
  0
APPID
  2
GENIUS_GENOREF_13
 70
     0
  0
APPID
  2
GENIUS_GEFFEM_13
 70
     0
  0
APPID
  2
GENIUS_GEFFEMP_13
 70
     0
  0
APPID
  2
AD_DRAW
 70
     0
  0
APPID
  2
DESIGNERASSEMBLIES
 70
     0
  0
APPID
  2
ACADM_DIM_EDIT
 70
     0
  0
APPID
  2
AMDT_DM_ADJ
 70
     0
  0
APPID
  2
ITEMNAME
 70
     0
  0
APPID
  2
GENIUS_GENOBJ-N-FIL_13
 70
     0
  0
APPID
  2
GENIUS_GENFIL_13
 70
     0
  0
APPID
  2
GENIUS_GENOBJ-N-CHA_13
 70
     0
  0
APPID
  2
ACAD_NAV_VCDISPLAY
 70
     0
  0
APPID
  2
HATCH_TYPE
 70
     0
  0
APPID
  2
HATCH_DISPLAY
 70
     0
  0
APPID
  2
HATCH_DISTANCE
 70
     0
  0
APPID
  2
ACAD_DSTYLE_DIMJAG
 70
     0
  0
APPID
  2
ACAD_DSTYLE_DIMBREAK
 70
     0
  0
APPID
  2
ACAECLAYERSTANDARD
 70
     0
  0
APPID
  2
ACAD_PSEXT
 70
     0
  0
APPID
  2
ACAD_EXEMPT_FROM_CAD_STANDARDS
 70
     0
  0
APPID
  2
ACAD_MLEADERVER
 70
     0
  0
APPID
  2
ACAD_DSTYLE_DIMARC_LENGTH_
 70
     0
  0
APPID
  2
ACAD_DSTYLE_DIM_LINETYPE
 70
     0
  0
APPID
  2
ACAD_DSTYLE_DIM_EXT1_LINETYPE
 70
     0
  0
APPID
  2
ACAD_DSTYLE_DIM_EXT2_LINETYPE
 70
     0
  0
ENDTAB
  0
TABLE
  2
DIMSTYLE
 70
    31
  0
DIMSTYLE
  2
STANDARD
 70
     0
  3

  4

  5

  6

  7

 40
1.0
 41
0.18
 42
0.0625
 43
0.38
 44
0.18
 45
0.0
 46
0.0
 47
0.0
 48
0.0
140
0.18
141
0.09
142
0.0
143
25.399999999999999
144
1.0
145
0.0
146
1.0
147
0.09
 71
     0
 72
     0
 73
     1
 74
     1
 75
     0
 76
     0
 77
     0
 78
     0
170
     0
171
     2
172
     0
173
     0
174
     0
175
     0
176
     0
177
     0
178
     0
  0
DIMSTYLE
  2
BIGT
 70
     0
  3

  4

  5

  6

  7

 40
1.0
 41
2.2299999999999991
 42
0.5
 43
7.0
 44
1.0
 45
0.0
 46
0.0
 47
0.0
 48
0.01
140
2.799999999999998
141
0.0
142
0.0
143
25.399999999999999
144
1.0
145
0.0
146
1.0
147
1.0
 71
     0
 72
     0
 73
     0
 74
     0
 75
     0
 76
     0
 77
     3
 78
     9
170
     0
171
     2
172
     1
173
     0
174
     1
175
     0
176
   256
177
   256
178
    40
  0
DIMSTYLE
  2
AM_ANSI
 70
     0
  3

  4
mm
  5

  6

  7

 40
1.0
 41
0.12
 42
0.05
 43
0.5
 44
0.1
 45
0.0
 46
0.0
 47
0.1
 48
0.1
140
0.12
141
0.0
142
0.0
143
25.399999999999999
144
1.0
145
0.0
146
0.71
147
0.06
 71
     0
 72
     0
 73
     1
 74
     1
 75
     0
 76
     0
 77
     0
 78
     7
170
     0
171
     2
172
     0
173
     0
174
     0
175
     0
176
   256
177
   256
178
     2
  0
DIMSTYLE
  2
AM_ANSI$3
 70
     0
  3

  4
mm
  5

  6

  7

 40
1.0
 41
0.12
 42
0.05
 43
0.5
 44
0.1
 45
0.0
 46
0.0
 47
0.1
 48
0.1
140
0.12
141
0.0
142
0.0
143
25.399999999999999
144
1.0
145
0.0
146
0.71
147
0.06
 71
     0
 72
     0
 73
     1
 74
     1
 75
     0
 76
     0
 77
     0
 78
     7
170
     0
171
     2
172
     0
173
     0
174
     0
175
     0
176
   256
177
   256
178
     2
  0
DIMSTYLE
  2
AM_ANSI$4
 70
     0
  3

  4
mm
  5

  6

  7

 40
1.0
 41
0.12
 42
0.05
 43
0.5
 44
0.1
 45
0.0
 46
0.0
 47
0.1
 48
0.1
140
0.12
141
0.0
142
0.0
143
25.399999999999999
144
1.0
145
0.0
146
0.71
147
0.06
 71
     0
 72
     0
 73
     1
 74
     1
 75
     0
 76
     0
 77
     0
 78
     7
170
     0
171
     2
172
     0
173
     0
174
     0
175
     0
176
   256
177
   256
178
     2
  0
DIMSTYLE
  2
AM_ANSI$7
 70
     0
  3

  4
mm
  5

  6

  7

 40
1.0
 41
0.12
 42
0.05
 43
0.5
 44
0.1
 45
0.0
 46
0.0
 47
0.1
 48
0.1
140
0.12
141
0.0
142
0.0
143
25.399999999999999
144
1.0
145
0.0
146
0.71
147
0.06
 71
     0
 72
     0
 73
     1
 74
     1
 75
     0
 76
     0
 77
     0
 78
     7
170
     0
171
     2
172
     0
173
     0
174
     0
175
     0
176
   256
177
   256
178
     2
  0
DIMSTYLE
  2
AM_ANSI$SF
 70
     0
  3

  4
mm
  5

  6

  7

 40
1.0
 41
0.12
 42
0.05
 43
0.5
 44
0.1
 45
0.0
 46
0.0
 47
0.1
 48
0.1
140
0.12
141
0.0
142
0.0
143
25.399999999999999
144
1.0
145
0.0
146
0.71
147
0.06
 71
     0
 72
     0
 73
     1
 74
     1
 75
     1
 76
     1
 77
     0
 78
     7
170
     0
171
     2
172
     0
173
     0
174
     0
175
     0
176
   256
177
   256
178
     2
  0
DIMSTYLE
  2
AM_ANSI$SH
 70
     0
  3

  4
mm
  5

  6
GENAXEH
  7

 40
1.0
 41
0.12
 42
0.05
 43
0.5
 44
0.1
 45
0.0
 46
0.0
 47
0.1
 48
0.1
140
0.12
141
0.0
142
0.0
143
25.399999999999999
144
1.0
145
0.0
146
0.71
147
0.06
 71
     0
 72
     0
 73
     1
 74
     1
 75
     1
 76
     1
 77
     0
 78
     7
170
     0
171
     2
172
     0
173
     1
174
     0
175
     0
176
   256
177
   256
178
     2
  0
ENDTAB
  0
ENDSEC
  0
SECTION
  2
BLOCKS
  0
BLOCK
  8
0
  2
$MODEL_SPACE
 70
     0
 10
0.0
 20
0.0
 30
0.0
  3
$MODEL_SPACE
  1

  0
ENDBLK
  5
48D4
  8
0
  0
BLOCK
 67
     1
  8
0
  2
$PAPER_SPACE
 70
     0
 10
0.0
 20
0.0
 30
0.0
  3
$PAPER_SPACE
  1

  0
ENDBLK
  5
48D0
 67
     1
  8
0
  0
BLOCK
  8
0
  2
_OPEN
 70
     0
 10
0.0
 20
0.0
 30
0.0
  3
_OPEN
  1

  0
LINE
  5
475F
  8
0
  6
BYBLOCK
 62
     0
 10
-1.0
 20
0.1666666666666666
 30
0.0
 11
0.0
 21
0.0
 31
0.0
  0
LINE
  5
4760
  8
0
  6
BYBLOCK
 62
     0
 10
-1.0
 20
-0.1666666666666666
 30
0.0
 11
0.0
 21
0.0
 31
0.0
  0
LINE
  5
4761
  8
0
  6
BYBLOCK
 62
     0
 10
0.0
 20
0.0
 30
0.0
 11
-1.0
 21
0.0
 31
0.0
  0
ENDBLK
  5
4762
  8
0
  0
BLOCK
  8
0
  2
GENAXEH
 70
     0
 10
0.0
 20
0.0
 30
0.0
  3
GENAXEH
  1

  0
LINE
  5
479A
  8
0
 10
-1.0
 20
0.0
 30
0.0
 11
1.0
 21
0.0
 31
0.0
  0
ENDBLK
  5
479B
  8
0
  0
BLOCK
  8
0
  2
_ACMFILLEDHALF
 70
     0
 10
0.0
 20
0.0
 30
0.0
  3
_ACMFILLEDHALF
  1

  0
TRACE
  5
499B
  8
240
 62
     0
 10
-0.8
 20
0.0
 30
0.0
 11
-1.0
 21
0.166666666
 31
0.0
 12
0.0
 22
0.0
 32
0.0
 13
0.0
 23
0.0
 33
0.0
  0
LINE
  5
499C
  8
240
 62
     0
 10
-1.0
 20
0.0
 30
0.0
 11
-0.8
 21
0.0
 31
0.0
  0
ENDBLK
  5
499A
  8
0
  0
ENDSEC
  0
SECTION
  2
ENTITIES
  0
LINE
  5
4315
  8
240
  6
CONTINUOUS
 10
-69.99999833107168
 20
-12.5
 30
0.0
 11
0.0000000000000213
 21
-12.50000000000005
 31
0.0
  0
LINE
  5
4316
  8
240
  6
CONTINUOUS
 10
-0.0000000000000142
 20
12.500000000000041
 30
0.0
 11
-69.99999833107168
 21
12.5
 31
0.0
  0
LINE
  5
4318
  8
241
  6
CONTINUOUS
 10
3.8000016689283811
 20
15.500306012955971
 30
0.0
 11
3.8000016689283518
 21
19.000000000000021
 31
0.0
  0
ARC
  5
4319
  8
241
  6
CONTINUOUS
 10
8.8000016689283811
 20
15.500306012955971
 30
0.0
 40
5.0
 50
180.0
 51
240.0
  0
LINE
  5
431A
  8
241
  6
CONTINUOUS
 10
6.3000016689283811
 20
11.170178994033749
 30
0.0
 11
13.384749481565549
 21
7.0797979372670676
 31
0.0
  0
LINE
  5
431B
  8
241
  6
CONTINUOUS
 10
13.384749481565549
 20
7.0797979372670126
 30
0.0
 11
15.384749481565549
 21
5.9250973988878242
 31
0.0
  0
LINE
  5
431C
  8
241
  6
CONTINUOUS
 10
15.384749481565549
 20
5.9250973988878242
 30
0.0
 11
24.802740707783009
 21
0.4876176292056273
 31
0.0
  0
ARC
  5
431D
  8
241
  6
CONTINUOUS
 10
27.302740707783009
 20
4.8177446481278086
 30
0.0
 40
5.0
 50
240.0
 51
294.99999999999932
  0
LINE
  5
431E
  8
241
  6
CONTINUOUS
 10
29.415832016486451
 20
0.2862057129445334
 30
0.0
 11
36.800001668928353
 21
3.7295005709938249
 31
0.0
  0
LINE
  5
4321
  8
241
  6
CONTINUOUS
 10
13.384749481565549
 20
-19.000000000000021
 30
0.0
 11
13.384749481565549
 21
7.0797979372670676
 31
0.0
  0
LINE
  5
4322
  8
241
  6
CONTINUOUS
 10
15.384749481565549
 20
5.9250973988878242
 30
0.0
 11
15.384749481565549
 21
-18.83589645521587
 31
0.0
  0
LINE
  5
4323
  8
245
  6
CENTER2
 10
-71.99999833107168
 20
-0.0000000000000027
 30
0.0
 11
39.449674643978597
 21
-0.0000000000000027
 31
0.0
  0
LINE
  5
4324
  8
241
  6
CONTINUOUS
 10
0.0000000000000213
 20
-12.50000000000005
 30
0.0
 11
-0.0000000000000142
 21
12.500000000000041
 31
0.0
1001
GRPNAME
1000
PASTMD0D
  0
LINE
  5
432B
  8
240
  6
CONTINUOUS
 10
-69.99999833107168
 20
-12.5
 30
0.0
 11
-69.99999833107168
 21
12.5
 31
0.0
1001
GRPNAME
1000
PASTMD0D
  0
LINE
  5
432C
  8
241
  6
CONTINUOUS
 10
36.795369723978162
 20
6.5026723745936827
 30
0.0
 11
17.50106605627888
 21
17.642243790965662
 31
0.0
1001
GRPNAME
1000
PASTMD02
  0
LINE
  5
432D
  8
241
  6
CONTINUOUS
 10
7.6527985709166151
 20
13.23812151281259
 30
0.0
 11
17.136164451595899
 21
17.66026120905169
 31
0.0
1001
GRPNAME
1000
PASTMD01
  0
ARC
  5
432E
  8
241
  6
CONTINUOUS
 10
17.301066056278891
 20
17.295833629451892
 30
0.0
 40
0.4
 50
60.000000000001883
 51
115.0000391207504
1001
GRPNAME
1000
PASTMD01
  0
ARC
  5
432F
  8
241
  6
CONTINUOUS
 10
36.595369723978202
 20
6.1562622130799083
 30
0.0
 40
0.4000000000000021
 50
294.9999589786957
 51
60.000000013715393
1001
GRPNAME
1000
PASTMD02
  0
LINE
  5
4330
  8
241
  6
CONTINUOUS
 10
27.158273262312029
 20
1.314322059528225
 30
0.0
 11
36.769585612406694
 21
5.7961944080499821
 31
0.0
1001
GRPNAME
1000
PASTMD01
  0
LINE
  5
4331
  8
241
  6
CONTINUOUS
 10
26.69696243443877
 20
1.334462460832825
 30
0.0
 11
3.9020901665151788
 21
14.49508816864139
 31
0.0
1001
GRPNAME
1000
PASTMD01
  0
LINE
  5
4332
  8
240
  6
CONTINUOUS
 10
0.0000016689283413
 20
-19.000000000000021
 30
0.0
 11
0.0000016689283129
 21
-12.50000000000008
 31
0.0
  0
LINE
  5
4333
  8
240
  6
CONTINUOUS
 10
0.0000016689296629
 20
12.500000000000041
 30
0.0
 11
0.0000016689283413
 21
19.000000000000021
 31
0.0
  0
ARC
  5
4338
  8
241
  6
CONTINUOUS
 10
7.8641066640662842
 20
12.784967135398601
 30
0.0
 40
0.5
 50
114.99986879295339
 51
239.99999987222449
1001
GRPNAME
1000
PASTMD01
1001
GENIUS_GENODEF_13
1002
{
1000
HIER
1070
     0
1002
}
1002
{
1000
MANEDIT
1070
     0
1002
}
1002
{
1000
NOSEL
1070
     0
1002
}
1002
{
1000
BEHIND
1070
     0
1002
}
1002
{
1000
OTHER
1070
     0
1002
}
1002
{
1000
REACTOR
1002
}
1001
GENIUS_GENOBJ-N-FIL_13
1002
{
1000
OWNER
1000
GEN
1002
}
  0
ARC
  5
4339
  8
241
  6
CONTINUOUS
 10
26.946962435404419
 20
1.7674751621675191
 30
0.0
 40
0.5
 50
239.99999987222449
 51
295.00021444340098
1001
GRPNAME
1000
PASTMD01
1001
GENIUS_GENODEF_13
1002
{
1000
HIER
1070
     0
1002
}
1002
{
1000
MANEDIT
1070
     0
1002
}
1002
{
1000
NOSEL
1070
     0
1002
}
1002
{
1000
BEHIND
1070
     0
1002
}
1002
{
1000
OTHER
1070
     0
1002
}
1002
{
1000
REACTOR
1002
}
1001
GENIUS_GENOBJ-N-FIL_13
1002
{
1000
OWNER
1000
GEN
1002
}
  0
TEXT
  5
43D7
  8
241
  6
CONTINUOUS
 10
-68.0046302760218
 20
49.0
 30
0.0
 40
5.0
  1
ST25-C1434C-60
  7
YOKO
  0
LINE
  5
43D8
  8
250
  6
CONTINUOUS
 10
0.0000016689283413
 20
19.49999999999989
 30
0.0
 11
0.0000016689283413
 21
36.0
 31
0.0
  0
LINE
  5
43D9
  8
250
  6
CONTINUOUS
 10
36.995369723978179
 20
6.7172846054178263
 30
0.0
 11
36.995369723978179
 21
36.0
 31
0.0
  0
LINE
  5
43DA
  8
250
  6
CONTINUOUS
 10
2.2300016689283382
 20
35.0
 30
0.0
 11
34.765369723978203
 21
35.0
 31
0.0
  0
LINE
  5
43DB
  8
250
  6
CONTINUOUS
 10
-69.99999833107168
 20
13.0
 30
0.0
 11
-69.99999833107168
 21
36.0
 31
0.0
  0
LINE
  5
43DC
  8
250
  6
CONTINUOUS
 10
0.0000016689283413
 20
19.5
 30
0.0
 11
0.0000016689283413
 21
36.0
 31
0.0
  0
LINE
  5
43DD
  8
250
  6
CONTINUOUS
 10
-67.769998331071719
 20
35.0
 30
0.0
 11
-2.2299983310716618
 21
35.0
 31
0.0
  0
LINE
  5
43DE
  8
250
  6
CONTINUOUS
 10
19.113464933077111
 20
17.0
 30
0.0
 11
63.999999999999993
 21
16.999999999999979
 31
0.0
  0
LINE
  5
43DF
  8
250
  6
CONTINUOUS
 10
62.999999999999993
 20
14.76999999999998
 30
0.0
 11
62.999999999999993
 21
-4.6000000000000139
 31
0.0
  0
LINE
  5
43E0
  8
250
  6
CONTINUOUS
 10
36.43397300876682
 20
6.9999999999999956
 30
0.0
 11
56.999999999999993
 21
6.9999999999999902
 31
0.0
  0
LINE
  5
43E1
  8
250
  6
CONTINUOUS
 10
55.999999999999993
 20
4.7699999999999889
 30
0.0
 11
55.999999999999993
 21
-4.6000000000000059
 31
0.0
  0
LINE
  5
43E2
  8
250
  6
CONTINUOUS
 10
-70.49999833107168
 20
12.5
 30
0.0
 11
-83.0
 21
12.500000000000011
 31
0.0
  0
LINE
  5
43E3
  8
250
  6
CONTINUOUS
 10
-70.49999833107168
 20
-12.50000018626449
 30
0.0
 11
-83.0
 21
-12.50000018626449
 31
0.0
  0
LINE
  5
43E4
  8
250
  6
CONTINUOUS
 10
-82.0
 20
10.27000000000001
 30
0.0
 11
-82.0
 21
-10.27000018626449
 31
0.0
  0
TEXT
  5
43E7
  8
250
  6
CONTINUOUS
 10
15.831019029786599
 20
36.0
 30
0.0
 40
2.799999999999998
  1
37
  0
LINE
  5
43E8
  8
250
  6
CONTINUOUS
 10
34.765369723978203
 20
35.37166666666667
 30
0.0
 11
36.995369723978179
 21
35.0
 31
0.0
  0
LINE
  5
43E9
  8
250
  6
CONTINUOUS
 10
34.765369723978203
 20
34.62833333333333
 30
0.0
 11
36.995369723978179
 21
35.0
 31
0.0
  0
LINE
  5
43EA
  8
250
  6
CONTINUOUS
 10
36.995369723978179
 20
35.0
 30
0.0
 11
34.765369723978203
 21
35.0
 31
0.0
  0
LINE
  5
43EB
  8
250
  6
CONTINUOUS
 10
2.2300016689283382
 20
34.62833333333333
 30
0.0
 11
0.0000016689283413
 21
35.0
 31
0.0
  0
LINE
  5
43EC
  8
250
  6
CONTINUOUS
 10
2.2300016689283382
 20
35.37166666666667
 30
0.0
 11
0.0000016689283413
 21
35.0
 31
0.0
  0
LINE
  5
43ED
  8
250
  6
CONTINUOUS
 10
0.0000016689283413
 20
35.0
 30
0.0
 11
2.2300016689283382
 21
35.0
 31
0.0
  0
TEXT
  5
43EE
  8
250
  6
CONTINUOUS
 10
-37.138166625978272
 20
36.0
 30
0.0
 40
2.799999999999998
  1
70
  0
LINE
  5
43EF
  8
250
  6
CONTINUOUS
 10
-2.2299983310716618
 20
35.37166666666667
 30
0.0
 11
0.0000016689283413
 21
35.0
 31
0.0
  0
LINE
  5
43F0
  8
250
  6
CONTINUOUS
 10
-2.2299983310716618
 20
34.62833333333333
 30
0.0
 11
0.0000016689283413
 21
35.0
 31
0.0
  0
LINE
  5
43F1
  8
250
  6
CONTINUOUS
 10
0.0000016689283413
 20
35.0
 30
0.0
 11
-2.2299983310716618
 21
35.0
 31
0.0
  0
LINE
  5
43F2
  8
250
  6
CONTINUOUS
 10
-67.769998331071719
 20
34.62833333333333
 30
0.0
 11
-69.99999833107168
 21
35.0
 31
0.0
  0
LINE
  5
43F3
  8
250
  6
CONTINUOUS
 10
-67.769998331071719
 20
35.37166666666667
 30
0.0
 11
-69.99999833107168
 21
35.0
 31
0.0
  0
LINE
  5
43F4
  8
250
  6
CONTINUOUS
 10
-69.99999833107168
 20
35.0
 30
0.0
 11
-67.769998331071719
 21
35.0
 31
0.0
  0
TEXT
  5
43F5
  8
250
  6
CONTINUOUS
 10
61.999999999999993
 20
-3.8666666666666711
 30
0.0
 40
2.799999999999998
  1
\U+220534
 50
90.0
  0
LINE
  5
43F6
  8
250
  6
CONTINUOUS
 10
62.62833333333333
 20
14.76999999999998
 30
0.0
 11
62.999999999999993
 21
16.999999999999979
 31
0.0
  0
LINE
  5
43F7
  8
250
  6
CONTINUOUS
 10
63.37166666666667
 20
14.76999999999998
 30
0.0
 11
62.999999999999993
 21
16.999999999999979
 31
0.0
  0
LINE
  5
43F8
  8
250
  6
CONTINUOUS
 10
62.999999999999993
 20
16.999999999999979
 30
0.0
 11
62.999999999999993
 21
14.76999999999998
 31
0.0
  0
TEXT
  5
43F9
  8
250
  6
CONTINUOUS
 10
55.0
 20
-3.8666666666666631
 30
0.0
 40
2.799999999999998
  1
\U+220514
 50
90.0
  0
LINE
  5
43FA
  8
250
  6
CONTINUOUS
 10
55.628333333333309
 20
4.7699999999999889
 30
0.0
 11
55.999999999999993
 21
6.9999999999999902
 31
0.0
  0
LINE
  5
43FB
  8
250
  6
CONTINUOUS
 10
56.371666666666663
 20
4.7699999999999889
 30
0.0
 11
55.999999999999993
 21
6.9999999999999902
 31
0.0
  0
LINE
  5
43FC
  8
250
  6
CONTINUOUS
 10
55.999999999999993
 20
6.9999999999999902
 30
0.0
 11
55.999999999999993
 21
4.7699999999999889
 31
0.0
  0
TEXT
  5
43FD
  8
250
  6
CONTINUOUS
 10
-83.0
 20
-3.8000000931322582
 30
0.0
 40
2.799999999999998
  1
\U+220525
 50
90.0
  0
LINE
  5
43FE
  8
250
  6
CONTINUOUS
 10
-81.628333333333288
 20
-10.27000018626449
 30
0.0
 11
-82.0
 21
-12.50000018626449
 31
0.0
  0
LINE
  5
43FF
  8
250
  6
CONTINUOUS
 10
-82.371666666666613
 20
-10.27000018626449
 30
0.0
 11
-82.0
 21
-12.50000018626449
 31
0.0
  0
LINE
  5
4400
  8
250
  6
CONTINUOUS
 10
-82.0
 20
-12.50000018626449
 30
0.0
 11
-82.0
 21
-10.27000018626449
 31
0.0
  0
LINE
  5
4401
  8
250
  6
CONTINUOUS
 10
-82.371666666666613
 20
10.27000000000001
 30
0.0
 11
-82.0
 21
12.500000000000011
 31
0.0
  0
LINE
  5
4402
  8
250
  6
CONTINUOUS
 10
-81.628333333333288
 20
10.27000000000001
 30
0.0
 11
-82.0
 21
12.500000000000011
 31
0.0
  0
LINE
  5
4403
  8
250
  6
CONTINUOUS
 10
-82.0
 20
12.500000000000011
 30
0.0
 11
-82.0
 21
10.27000000000001
 31
0.0
  0
LINE
  5
45E4
  8
240
  6
CONTINUOUS
 10
17.481411611461901
 20
-17.739263397506189
 30
0.0
 11
16.250774885348122
 21
-18.464101615138489
 31
0.0
  0
ARC
  5
45E5
  8
240
  6
CONTINUOUS
 10
14.25077488535009
 20
-14.999999999999959
 30
0.0
 40
4.0
 50
270.0
 51
300.0
  0
POLYLINE
  5
45E9
  8
240
  6
CONTINUOUS
 66
     1
 10
0.0
 20
0.0
 30
0.0
 70
   128
  0
VERTEX
  5
4858
  8
240
  6
CONTINUOUS
 10
17.487616584985279
 20
17.750010726908322
 30
0.0
  0
VERTEX
  5
4859
  8
240
  6
CONTINUOUS
 10
17.574015575963919
 20
17.6192165641495
 30
0.0
  0
VERTEX
  5
485A
  8
240
  6
CONTINUOUS
 10
17.567216314624542
 20
17.60404646813253
 30
0.0
  0
SEQEND
  5
485B
  8
240
  6
CONTINUOUS
  0
LINE
  5
45EA
  8
240
  6
CONTINUOUS
 10
0.0000016689283413
 20
-19.000000000000021
 30
0.0
 11
14.25077488535014
 21
-19.000000000000021
 31
0.0
  0
ARC
  5
45EB
  8
240
  6
CONTINUOUS
 10
14.25077488535009
 20
14.99999999999998
 30
0.0
 40
4.0
 50
59.999999999999069
 51
90.0
  0
LINE
  5
45EC
  8
240
  6
CONTINUOUS
 10
0.0000016689283413
 20
19.000000000000021
 30
0.0
 11
14.24654947594375
 21
19.000000000000021
 31
0.0
  0
LINE
  5
45F3
  8
240
  6
CONTINUOUS
 10
16.25077488535015
 20
18.4641016151377
 30
0.0
 11
17.487616584985279
 21
17.750010726908322
 31
0.0
  0
POLYLINE
  5
4609
  8
240
  6
CONTINUOUS
 66
     1
 10
0.0
 20
0.0
 30
0.0
 70
   128
  0
VERTEX
  5
485C
  8
240
  6
CONTINUOUS
 10
17.481411611461901
 20
-17.739263397506189
 30
0.0
  0
VERTEX
  5
485D
  8
240
  6
CONTINUOUS
 10
17.574015575963919
 20
-17.61921656414961
 30
0.0
  0
VERTEX
  5
485E
  8
240
  6
CONTINUOUS
 10
17.56721825636971
 20
-17.60405080043574
 30
0.0
  0
SEQEND
  5
485F
  8
240
  6
CONTINUOUS
  0
LINE
  5
460A
  8
241
  6
CONTINUOUS
 10
36.12931871206569
 20
-5.9271602942659483
 30
0.0
 11
36.550001668928353
 21
-6.0532400734772436
 31
0.0
  0
LINE
  5
460B
  8
240
  6
CONTINUOUS
 10
36.800001668928353
 20
5.812567919985133
 30
0.0
 11
36.800001668928353
 21
-5.8125679199851392
 31
0.0
  0
POLYLINE
  5
460C
  8
241
  6
CONTINUOUS
 66
     1
 10
0.0
 20
0.0
 30
0.0
 70
   128
  0
VERTEX
  5
4860
  8
241
  6
CONTINUOUS
 10
36.800001668928353
 20
-6.0546983014031648
 30
0.0
  0
VERTEX
  5
4861
  8
241
  6
CONTINUOUS
 10
36.686763863428773
 20
-6.0838631933629612
 30
0.0
  0
VERTEX
  5
4862
  8
241
  6
CONTINUOUS
 10
36.55000166892841
 20
-6.0532400734772436
 30
0.0
  0
SEQEND
  5
4863
  8
241
  6
CONTINUOUS
  0
LINE
  5
4612
  8
241
  6
CONTINUOUS
 10
36.550001668928353
 20
-6.0532400734772436
 30
0.0
 11
36.55000166892841
 21
3.6129236564551048
 31
0.0
  0
LINE
  5
4615
  8
240
  6
CONTINUOUS
 10
36.795369723978162
 20
-6.5026723745936881
 30
0.0
 11
17.56721825636971
 21
-17.60405080043574
 31
0.0
1001
GRPNAME
1000
PASTMD02
  0
ARC
  5
4616
  8
240
  6
CONTINUOUS
 10
36.595369723978202
 20
-6.1562622130799127
 30
0.0
 40
0.4000000000000021
 50
299.99999998628459
 51
59.230879007928607
1001
GRPNAME
1000
PASTMD02
  0
LINE
  5
4617
  8
241
  6
CONTINUOUS
 10
36.800001668928353
 20
-5.8125679199851383
 30
0.0
 11
36.800001668928353
 21
-6.0546983014031648
 31
0.0
  0
LINE
  5
4618
  8
241
  6
CONTINUOUS
 10
17.56721825636971
 20
-17.60405080043574
 30
0.0
 11
17.46409888619819
 21
-17.373977169106521
 31
0.0
  0
LINE
  5
4687
  8
250
  6
CONTINUOUS
 10
-51.71780384542658
 20
-14.24540331769732
 30
0.0
 11
-50.280931071071727
 21
-12.5
 31
0.0
  0
LINE
  5
4688
  8
250
  6
CONTINUOUS
 10
-51.07405829512718
 20
-14.617069984099039
 30
0.0
 11
-50.280931071071727
 21
-12.5
 31
0.0
  0
LINE
  5
4689
  8
250
  6
CONTINUOUS
 10
-50.280931071071727
 20
-12.5
 30
0.0
 11
-51.395931070276859
 21
-14.43123665089818
 31
0.0
  0
LINE
  5
468A
  8
250
  6
CONTINUOUS
 10
-51.395931070276859
 20
-14.43123665089818
 30
0.0
 11
-55.331007901071722
 21
-21.246989660000001
 31
0.0
1001
ACAD
1000
DSTYLE
1002
{
1070
     6
1000
OPEN
1070
   343
1005
594
1002
}
  0
TEXT
  5
468B
  8
250
  6
CONTINUOUS
 10
-67.864341241071713
 20
-20.246989660000001
 30
0.0
 40
2.799999999999998
  1
ST25
  7
YOKO
1001
ITEMNAME
1000
LNSP3
  0
LINE
  5
468C
  8
250
  6
CONTINUOUS
 10
-55.331007901071722
 20
-21.246989660000001
 30
0.0
 11
-70.264341241071719
 21
-21.246989660000001
 31
0.0
1001
ITEMNAME
1000
LNSP2
  0
LINE
  5
468D
  8
247
  6
CONTINUOUS
 10
-63.249998331141718
 20
-8.0000000000000018
 30
0.0
 11
-56.557690639101708
 21
-8.0000000000000018
 31
0.0
  0
ARC
  5
468E
  8
247
  6
CONTINUOUS
 10
-63.249998331141718
 20
-6.2500000000700311
 30
0.0
 40
1.7499999999299991
 50
90.0
 51
270.0
  0
ARC
  5
468F
  8
247
  6
CONTINUOUS
 10
-56.557690639101708
 20
-6.2500000000700311
 30
0.0
 40
1.7499999999299991
 50
270.0
 51
90.0
  0
LINE
  5
4690
  8
247
  6
CONTINUOUS
 10
-62.384613715791723
 20
-4.5000000001400631
 30
0.0
 11
-63.244849873033722
 21
-7.5000000000200089
 31
0.0
  0
LINE
  5
4691
  8
247
  6
CONTINUOUS
 10
-61.484982149407543
 20
-5.9230769231598979
 30
0.0
 11
-62.792674457047518
 21
-5.9230769231598979
 31
0.0
  0
ARC
  5
4692
  8
247
  6
CONTINUOUS
 10
-61.145142147161479
 20
-5.0495986677028677
 30
0.0
 40
0.5538165441895349
 50
342.9978896752952
 51
82.924166218512724
  0
ARC
  5
4693
  8
247
  6
CONTINUOUS
 10
-61.56687665410049
 20
-4.9360330444658311
 30
0.0
 40
0.9904354236226808
 50
274.74293685220141
 51
343.84922627326648
1001
GENIUS_GENOBJ-N-FIL_13
1002
{
1000
OWNER
1000
GEN
1002
}
1001
GENIUS_GENODEF_13
1002
{
1000
HIER
1070
     0
1002
}
1002
{
1000
MANEDIT
1070
     0
1002
}
1002
{
1000
NOSEL
1070
     0
1002
}
1002
{
1000
BEHIND
1070
     0
1002
}
1002
{
1000
OTHER
1070
     0
1002
}
1002
{
1000
REACTOR
1002
}
  0
LINE
  5
4694
  8
247
  6
CONTINUOUS
 10
-61.937157565393711
 20
-7.5000000000200089
 30
0.0
 11
-63.244849873033722
 21
-7.5000000000200089
 31
0.0
  0
LINE
  5
4695
  8
247
  6
CONTINUOUS
 10
-62.384613715791723
 20
-4.5000000001400631
 30
0.0
 11
-61.076921408151712
 21
-4.5000000001400631
 31
0.0
  0
ARC
  5
4696
  8
247
  6
CONTINUOUS
 10
-61.560917967618707
 20
-6.4820242326654807
 30
0.0
 40
0.5640818586791229
 50
335.9909416525216
 51
82.263443459069066
  0
ARC
  5
4697
  8
247
  6
CONTINUOUS
 10
-62.038261016418758
 20
-6.4874290391865097
 30
0.0
 40
1.0176059446230981
 50
275.70198516425808
 51
347.27733843682228
1001
GENIUS_GENOBJ-N-FIL_13
1002
{
1000
OWNER
1000
GEN
1002
}
1001
GENIUS_GENODEF_13
1002
{
1000
HIER
1070
     0
1002
}
1002
{
1000
MANEDIT
1070
     0
1002
}
1002
{
1000
NOSEL
1070
     0
1002
}
1002
{
1000
BEHIND
1070
     0
1002
}
1002
{
1000
OTHER
1070
     0
1002
}
1002
{
1000
REACTOR
1002
}
  0
LINE
  5
4698
  8
247
  6
CONTINUOUS
 10
-60.283311411613731
 20
-7.5000000000200089
 30
0.0
 11
-59.423075254371717
 21
-4.5000000001400631
 31
0.0
  0
LINE
  5
4699
  8
247
  6
CONTINUOUS
 10
-56.999998331391737
 20
-4.5000000001400631
 30
0.0
 11
-57.565734950528316
 21
-4.5000000001400631
 31
0.0
  0
LINE
  5
469A
  8
247
  6
CONTINUOUS
 10
-58.461536792871691
 20
-7.5000000000200089
 30
0.0
 11
-57.84615217751174
 21
-7.5000000000200089
 31
0.0
  0
ARC
  5
469B
  8
247
  6
CONTINUOUS
 10
-56.708789540194573
 20
-6.5832851359733704
 30
0.0
 40
2.2526500823422122
 50
112.35948814153021
 51
164.993248542846
  0
ARC
  5
469C
  8
247
  6
CONTINUOUS
 10
-57.374067810284927
 20
-5.3083126551946407
 30
0.0
 40
0.8906723995727782
 50
4.9945893190753878
 51
65.166328957301374
1001
GENIUS_GENOBJ-N-FIL_13
1002
{
1000
OWNER
1000
GEN
1002
}
1001
GENIUS_GENODEF_13
1002
{
1000
HIER
1070
     0
1002
}
1002
{
1000
MANEDIT
1070
     0
1002
}
1002
{
1000
NOSEL
1070
     0
1002
}
1002
{
1000
BEHIND
1070
     0
1002
}
1002
{
1000
OTHER
1070
     0
1002
}
1002
{
1000
REACTOR
1002
}
  0
ARC
  5
469D
  8
247
  6
CONTINUOUS
 10
-58.226457217284299
 20
-6.1601458886677856
 30
0.0
 40
1.392781735586712
 50
285.84609655578072
 51
352.32513700416251
  0
ARC
  5
469E
  8
247
  6
CONTINUOUS
 10
-57.642211056912082
 20
-6.459243431527284
 30
0.0
 40
1.324563662670287
 50
159.71360167048991
 51
231.78874565641209
1001
GENIUS_GENOBJ-N-FIL_13
1002
{
1000
OWNER
1000
GEN
1002
}
1001
GENIUS_GENODEF_13
1002
{
1000
HIER
1070
     0
1002
}
1002
{
1000
MANEDIT
1070
     0
1002
}
1002
{
1000
NOSEL
1070
     0
1002
}
1002
{
1000
BEHIND
1070
     0
1002
}
1002
{
1000
OTHER
1070
     0
1002
}
1002
{
1000
REACTOR
1002
}
  0
LINE
  5
469F
  8
247
  6
CONTINUOUS
 10
-57.538459869831733
 20
-6.3461538462199778
 30
0.0
 11
-56.846152177551723
 21
-6.3461538462199778
 31
0.0
  0
LINE
  5
46A0
  8
247
  6
CONTINUOUS
 10
-63.249998331141718
 20
-4.5000000001400631
 30
0.0
 11
-62.576921408091813
 21
-4.5000000001400631
 31
0.0
  0
LINE
  5
46B6
  8
241
  6
CONTINUOUS
 10
17.46409888619819
 20
-17.373977169106521
 30
0.0
 11
36.12931871206569
 21
-5.9271602942659483
 31
0.0
  0
VIEWPORT
  5
22
 67
     1
  8
0
 10
261.51769911504419
 20
148.5
 30
0.0
 40
523.0353982300885
 41
297.0
 68
     1
 69
     1
1001
ACAD
1000
MVIEW
1002
{
1070
    16
1010
0.0
1020
0.0
1030
0.0
1010
0.0
1020
0.0
1030
1.0
1040
0.0
1040
297.0
1040
261.51769911504419
1040
148.5
1040
50.0
1040
0.0
1040
0.0
1070
     0
1070
   100
1070
     1
1070
     1
1070
     0
1070
     0
1070
     0
1070
     0
1040
0.0
1040
0.0
1040
0.0
1040
1.0
1040
1.0
1040
10.0
1040
10.0
1070
     0
1002
{
1002
}
1002
}
1001
GENIUS_GENODEF_13
1002
{
1000
HIER
1070
     0
1002
}
1002
{
1000
MANEDIT
1070
     0
1002
}
1002
{
1000
NOSEL
1070
     0
1002
}
1002
{
1000
BEHIND
1070
     0
1002
}
1002
{
1000
OTHER
1070
     0
1002
}
1002
{
1000
REACTOR
1002
}
1001
GENIUS_GENOBJ-N-SDF_13
1002
{
1000
OWNER
1000
GEN
1002
}
1001
GENIUS_GENSCREG_15
1000
PF
1040
1.0
1000
DF
1040
1.0
1000
MIN
1011
0.0
1021
0.0
1031
0.0
1021
0.0
1031
0.0
1000
MAX
1011
523.0353982300885
1021
0.0
1031
0.0
1021
297.0
1031
0.0
1000
FLAGS
1070
     4
  0
ENDSEC
  0
EOF
