  0
SECTION
  2
HEADER
  9
$ACADVER
  1
AC1009
  9
$INSBASE
 10
0.0
 20
0.0
 30
0.0
  9
$EXTMIN
 10
-86.019955846633266
 20
-22.513386588843328
 30
-0.0000000000112498
  9
$EXTMAX
 10
57.019321287954661
 20
53.00077974348283
 30
0.0000000000002956
  9
$LIMMIN
 10
0.0
 20
0.0
  9
$LIMMAX
 10
297.0
 20
210.0
  9
$ORTHOMODE
 70
     1
  9
$REGENMODE
 70
     1
  9
$FILLMODE
 70
     1
  9
$QTEXTMODE
 70
     0
  9
$MIRRTEXT
 70
     1
  9
$DRAGMODE
 70
     2
  9
$LTSCALE
 40
10.0
  9
$OSMODE
 70
    37
  9
$ATTMODE
 70
     1
  9
$TEXTSIZE
 40
3.0
  9
$TRACEWID
 40
1.0
  9
$TEXTSTYLE
  7
YOKO
  9
$CLAYER
  8
240
  9
$CELTYPE
  6
BYLAYER
  9
$CECOLOR
 62
   256
  9
$DIMSCALE
 40
1.0
  9
$DIMASZ
 40
2.2299999999999991
  9
$DIMEXO
 40
0.5
  9
$DIMDLI
 40
7.0
  9
$DIMRND
 40
0.0
  9
$DIMDLE
 40
0.0
  9
$DIMEXE
 40
1.0
  9
$DIMTP
 40
0.0
  9
$DIMTM
 40
0.01
  9
$DIMTXT
 40
2.799999999999998
  9
$DIMCEN
 40
0.0
  9
$DIMTSZ
 40
0.0
  9
$DIMTOL
 70
     0
  9
$DIMLIM
 70
     0
  9
$DIMTIH
 70
     0
  9
$DIMTOH
 70
     0
  9
$DIMSE1
 70
     0
  9
$DIMSE2
 70
     0
  9
$DIMTAD
 70
     3
  9
$DIMZIN
 70
     9
  9
$DIMBLK
  1
OPEN
  9
$DIMASO
 70
     1
  9
$DIMSHO
 70
     1
  9
$DIMPOST
  1

  9
$DIMAPOST
  1

  9
$DIMALT
 70
     0
  9
$DIMALTD
 70
     2
  9
$DIMALTF
 40
25.399999999999999
  9
$DIMLFAC
 40
1.0
  9
$DIMTOFL
 70
     1
  9
$DIMTVP
 40
0.0
  9
$DIMTIX
 70
     1
  9
$DIMSOXD
 70
     0
  9
$DIMSAH
 70
     0
  9
$DIMBLK1
  1

  9
$DIMBLK2
  1

  9
$DIMSTYLE
  2
BIGT
  9
$DIMCLRD
 70
   256
  9
$DIMCLRE
 70
   256
  9
$DIMCLRT
 70
    40
  9
$DIMTFAC
 40
1.0
  9
$DIMGAP
 40
1.0
  9
$LUNITS
 70
     2
  9
$LUPREC
 70
     6
  9
$SKETCHINC
 40
1.0
  9
$FILLETRAD
 40
0.0
  9
$AUNITS
 70
     0
  9
$AUPREC
 70
     6
  9
$MENU
  1
.
  9
$ELEVATION
 40
0.0
  9
$PELEVATION
 40
0.0
  9
$THICKNESS
 40
0.0
  9
$LIMCHECK
 70
     0
  9
$BLIPMODE
 70
     0
  9
$CHAMFERA
 40
0.2
  9
$CHAMFERB
 40
0.2
  9
$SKPOLY
 70
     0
  9
$TDCREATE
 40
2457654.3506862852
  9
$TDUPDATE
 40
2457654.7486184952
  9
$TDINDWG
 40
0.114716412
  9
$TDUSRTIMER
 40
0.1147163657
  9
$USRTIMER
 70
     1
  9
$ANGBASE
 50
0.0
  9
$ANGDIR
 70
     0
  9
$PDMODE
 70
     1
  9
$PDSIZE
 40
0.0
  9
$PLINEWID
 40
0.0
  9
$COORDS
 70
     1
  9
$SPLFRAME
 70
     0
  9
$SPLINETYPE
 70
     6
  9
$SPLINESEGS
 70
     4
  9
$ATTDIA
 70
     1
  9
$ATTREQ
 70
     1
  9
$HANDLING
 70
     1
  9
$HANDSEED
  5
4D72
  9
$SURFTAB1
 70
     6
  9
$SURFTAB2
 70
     6
  9
$SURFTYPE
 70
     6
  9
$SURFU
 70
     6
  9
$SURFV
 70
     6
  9
$UCSNAME
  2

  9
$UCSORG
 10
0.0
 20
0.0
 30
0.0
  9
$UCSXDIR
 10
1.0
 20
0.0
 30
0.0
  9
$UCSYDIR
 10
0.0
 20
1.0
 30
0.0
  9
$PUCSNAME
  2

  9
$PUCSORG
 10
0.0
 20
0.0
 30
0.0
  9
$PUCSXDIR
 10
1.0
 20
0.0
 30
0.0
  9
$PUCSYDIR
 10
0.0
 20
1.0
 30
0.0
  9
$USERI1
 70
     1
  9
$USERI2
 70
     0
  9
$USERI3
 70
     0
  9
$USERI4
 70
     0
  9
$USERI5
 70
     0
  9
$USERR1
 40
0.0
  9
$USERR2
 40
0.0
  9
$USERR3
 40
0.0
  9
$USERR4
 40
0.0
  9
$USERR5
 40
0.0
  9
$WORLDVIEW
 70
     1
  9
$SHADEDGE
 70
     3
  9
$SHADEDIF
 70
    70
  9
$TILEMODE
 70
     1
  9
$MAXACTVP
 70
    16
  9
$PLIMCHECK
 70
     0
  9
$PEXTMIN
 10
1.0000000000000000E+020
 20
1.0000000000000000E+020
 30
1.0000000000000000E+020
  9
$PEXTMAX
 10
-1.0000000000000000E+020
 20
-1.0000000000000000E+020
 30
-1.0000000000000000E+020
  9
$PLIMMIN
 10
0.0
 20
0.0
  9
$PLIMMAX
 10
420.0
 20
297.0
  9
$UNITMODE
 70
     0
  9
$VISRETAIN
 70
     1
  9
$PLINEGEN
 70
     0
  9
$PSLTSCALE
 70
     1
  0
ENDSEC
  0
SECTION
  2
TABLES
  0
TABLE
  2
VPORT
 70
     1
  0
VPORT
  2
*ACTIVE
 70
     0
 10
0.0
 20
0.0
 11
1.0
 21
1.0
 12
-11.19367316684616
 22
24.146007753071348
 13
0.0
 23
0.0
 14
7.0
 24
7.0
 15
7.0
 25
7.0
 16
0.0
 26
0.0
 36
1.0
 17
0.0
 27
0.0
 37
0.0
 40
156.7230123166508
 41
1.469813391877058
 42
50.0
 43
0.0
 44
0.0
 50
0.0
 51
0.0
 71
     0
 72
  2000
 73
     1
 74
     0
 75
     0
 76
     1
 77
     0
 78
     0
  0
ENDTAB
  0
TABLE
  2
LTYPE
 70
    21
  0
LTYPE
  2
CONTINUOUS
 70
     0
  3
Solid line
 72
    65
 73
     0
 40
0.0
  0
LTYPE
  2
CENTER2
 70
     0
  3
___ _ ___ _ ___ _ ___ _ ___ _ ___ _ ___ _ ___ _
 72
    65
 73
     4
 40
1.125
 49
0.75
 49
-0.125
 49
0.125
 49
-0.125
  0
LTYPE
  2
HIDDEN2
 70
     0
  3
_ _ _ _ _ _ _ _ _ _ _ _ _ _ _ _ _ _ _ _ _ _ _ _
 72
    65
 73
     2
 40
0.1875
 49
0.125
 49
-0.0625
  0
LTYPE
  2
PHANTOM2
 70
     0
  3
___ _ _ ___ _ _ ___ _ _ ___ _ _ ___ _ _ ___ _ _
 72
    65
 73
     6
 40
1.25
 49
0.625
 49
-0.125
 49
0.125
 49
-0.125
 49
0.125
 49
-0.125
  0
LTYPE
  2
AMCONSTR
 70
     0
  3
_______________________
 72
    65
 73
     2
 40
9999.0
 49
9999.0
 49
0.0
  0
LTYPE
  2
HIDDEN
 70
     0
  3
Hidden __ __ __ __ __ __ __ __ __ __ __ __ __ _
 72
    65
 73
     2
 40
0.375
 49
0.25
 49
-0.125
  0
LTYPE
  2
CENTER
 70
     0
  3
Center ____ _ ____ _ ____ _ ____ _ ____ _ ____
 72
    65
 73
     4
 40
2.0
 49
1.25
 49
-0.25
 49
0.25
 49
-0.25
  0
LTYPE
  2
AMZIGZAG2
 70
     0
  3
/\/-/\/-/\/-/\/-/\/-/\/
 72
    65
 73
     2
 40
0.4401
 49
0.0001
 49
-0.4400000000000001
  0
LTYPE
  2
ACANSTGB
 70
     0
  3
__ . . __ . .
 72
    65
 73
     6
 40
0.35433070866
 49
0.15748031496
 49
-0.03937007874
 49
0.03937007874
 49
-0.03937007874
 49
0.03937007874
 49
-0.03937007874
  0
LTYPE
  2
ACANSTGL
 70
     0
  3
_ _ _ _ _
 72
    65
 73
     2
 40
0.11811023622
 49
0.07874015748
 49
-0.03937007874
  0
ENDTAB
  0
TABLE
  2
LAYER
 70
     8
  0
LAYER
  2
0
 70
     0
 62
     7
  6
CONTINUOUS
  0
LAYER
  2
240
 70
     0
 62
     4
  6
CONTINUOUS
  0
LAYER
  2
DEFPOINTS
 70
     0
 62
     7
  6
CONTINUOUS
  0
LAYER
  2
245
 70
     0
 62
     2
  6
CENTER2
  0
LAYER
  2
241
 70
     0
 62
   211
  6
CONTINUOUS
  0
LAYER
  2
247
 70
     0
 62
    60
  6
CONTINUOUS
  0
LAYER
  2
250
 70
     0
 62
     3
  6
CONTINUOUS
  0
ENDTAB
  0
TABLE
  2
STYLE
 70
    10
  0
STYLE
  2
STANDARD
 70
     0
 40
0.0
 41
1.0
 50
0.0
 71
     0
 42
3.0
  3
romans.shx
  4
extfont.shx
  0
STYLE
  2
YOKO
 70
     0
 40
0.0
 41
1.0
 50
0.0
 71
     0
 42
3.0
  3
romans.shx
  4
extfont.shx
  0
STYLE
  2

 70
     1
 40
0.0
 41
1.0
 50
0.0
 71
     0
 42
3.0
  3
genltshp.shx
  4

  0
STYLE
  2
ACANSGDT
 70
     0
 40
0.0
 41
1.0
 50
0.0
 71
     0
 42
3.0
  3
amgdt.shx
  4

  0
ENDTAB
  0
TABLE
  2
VIEW
 70
     0
  0
ENDTAB
  0
TABLE
  2
UCS
 70
     0
  0
ENDTAB
  0
TABLE
  2
APPID
 70
    44
  0
APPID
  2
ACAD
 70
     0
  0
APPID
  2
ACADANNOTATIVE
 70
     0
  0
APPID
  2
GLOBAL
 70
     0
  0
APPID
  2
DETAIL
 70
     0
  0
APPID
  2
GRPNAME
 70
     0
  0
APPID
  2
GPARA
 70
     0
  0
APPID
  2
MCAD_NO_VIS
 70
     0
  0
APPID
  2
ACAD_TEMP_GRAPHIC
 70
     0
  0
APPID
  2
ACATTRIBSERVICES
 70
     0
  0
APPID
  2
GENIUS_GENSCREG_15
 70
     0
  0
APPID
  2
GENIUS_GENODEF_13
 70
     0
  0
APPID
  2
GENIUS_GENOBJ-N-SDF_13
 70
     0
  0
APPID
  2
GENIUS_GENREC_14
 70
     0
  0
APPID
  2
GENIUS_GENOBJ-N-REC_13
 70
     0
  0
APPID
  2
GENIUS_GENDIMSH_14
 70
     0
  0
APPID
  2
GENIUS_GENOBJ-N-DIM_13
 70
     0
  0
APPID
  2
GENIUS_GENDIM_13
 70
     0
  0
APPID
  2
GENIUS_GENDTOL_13
 70
     0
  0
APPID
  2
GENIUS_GENOLIS_13
 70
     0
  0
APPID
  2
GENIUS_GENOENT_13
 70
     0
  0
APPID
  2
GENIUS_GENOBJ-F-FEM_13
 70
     0
  0
APPID
  2
GENIUS_GENOREF_13
 70
     0
  0
APPID
  2
GENIUS_GEFFEM_13
 70
     0
  0
APPID
  2
GENIUS_GEFFEMP_13
 70
     0
  0
APPID
  2
AD_DRAW
 70
     0
  0
APPID
  2
DESIGNERASSEMBLIES
 70
     0
  0
APPID
  2
ACADM_DIM_EDIT
 70
     0
  0
APPID
  2
AMDT_DM_ADJ
 70
     0
  0
APPID
  2
ITEMNAME
 70
     0
  0
APPID
  2
GENIUS_GENOBJ-N-FIL_13
 70
     0
  0
APPID
  2
GENIUS_GENFIL_13
 70
     0
  0
APPID
  2
GENIUS_GENOBJ-N-CHA_13
 70
     0
  0
APPID
  2
ACAD_NAV_VCDISPLAY
 70
     0
  0
APPID
  2
ACAD_DSTYLE_DIMJAG
 70
     0
  0
APPID
  2
ACAD_DSTYLE_DIMBREAK
 70
     0
  0
APPID
  2
ACAD_DSTYLE_DIMINSPECT
 70
     0
  0
APPID
  2
ACAD_MLEADERVER
 70
     0
  0
APPID
  2
HATCH_TYPE
 70
     0
  0
APPID
  2
HATCH_DISPLAY
 70
     0
  0
APPID
  2
HATCH_DISTANCE
 70
     0
  0
APPID
  2
ACAD_PSEXT
 70
     0
  0
APPID
  2
ACAUTHENVIRON
 70
     0
  0
APPID
  2
ACAD_EXEMPT_FROM_CAD_STANDARDS
 70
     0
  0
APPID
  2
ACAECLAYERSTANDARD
 70
     0
  0
ENDTAB
  0
TABLE
  2
DIMSTYLE
 70
    31
  0
DIMSTYLE
  2
STANDARD
 70
     0
  3

  4

  5

  6

  7

 40
1.0
 41
0.18
 42
0.0625
 43
0.38
 44
0.18
 45
0.0
 46
0.0
 47
0.0
 48
0.0
140
0.18
141
0.09
142
0.0
143
25.399999999999999
144
1.0
145
0.0
146
1.0
147
0.09
 71
     0
 72
     0
 73
     1
 74
     1
 75
     0
 76
     0
 77
     0
 78
     0
170
     0
171
     2
172
     0
173
     0
174
     0
175
     0
176
     0
177
     0
178
     0
  0
DIMSTYLE
  2
BIGT
 70
     0
  3

  4

  5

  6

  7

 40
1.0
 41
2.2299999999999991
 42
0.5
 43
7.0
 44
1.0
 45
0.0
 46
0.0
 47
0.0
 48
0.01
140
2.799999999999998
141
0.0
142
0.0
143
25.399999999999999
144
1.0
145
0.0
146
1.0
147
1.0
 71
     0
 72
     0
 73
     0
 74
     0
 75
     0
 76
     0
 77
     3
 78
     9
170
     0
171
     2
172
     1
173
     0
174
     1
175
     0
176
   256
177
   256
178
    40
  0
DIMSTYLE
  2
AM_ANSI
 70
     0
  3

  4
mm
  5

  6

  7

 40
1.0
 41
0.12
 42
0.05
 43
0.5
 44
0.1
 45
0.0
 46
0.0
 47
0.1
 48
0.1
140
0.12
141
0.0
142
0.0
143
25.399999999999999
144
1.0
145
0.0
146
0.71
147
0.06
 71
     0
 72
     0
 73
     1
 74
     1
 75
     0
 76
     0
 77
     0
 78
     7
170
     0
171
     2
172
     0
173
     0
174
     0
175
     0
176
   256
177
   256
178
     2
  0
DIMSTYLE
  2
AM_ANSI$3
 70
     0
  3

  4
mm
  5

  6

  7

 40
1.0
 41
0.12
 42
0.05
 43
0.5
 44
0.1
 45
0.0
 46
0.0
 47
0.1
 48
0.1
140
0.12
141
0.0
142
0.0
143
25.399999999999999
144
1.0
145
0.0
146
0.71
147
0.06
 71
     0
 72
     0
 73
     1
 74
     1
 75
     0
 76
     0
 77
     0
 78
     7
170
     0
171
     2
172
     0
173
     0
174
     0
175
     0
176
   256
177
   256
178
     2
  0
DIMSTYLE
  2
AM_ANSI$4
 70
     0
  3

  4
mm
  5

  6

  7

 40
1.0
 41
0.12
 42
0.05
 43
0.5
 44
0.1
 45
0.0
 46
0.0
 47
0.1
 48
0.1
140
0.12
141
0.0
142
0.0
143
25.399999999999999
144
1.0
145
0.0
146
0.71
147
0.06
 71
     0
 72
     0
 73
     1
 74
     1
 75
     0
 76
     0
 77
     0
 78
     7
170
     0
171
     2
172
     0
173
     0
174
     0
175
     0
176
   256
177
   256
178
     2
  0
DIMSTYLE
  2
AM_ANSI$7
 70
     0
  3

  4
mm
  5

  6

  7

 40
1.0
 41
0.12
 42
0.05
 43
0.5
 44
0.1
 45
0.0
 46
0.0
 47
0.1
 48
0.1
140
0.12
141
0.0
142
0.0
143
25.399999999999999
144
1.0
145
0.0
146
0.71
147
0.06
 71
     0
 72
     0
 73
     1
 74
     1
 75
     0
 76
     0
 77
     0
 78
     7
170
     0
171
     2
172
     0
173
     0
174
     0
175
     0
176
   256
177
   256
178
     2
  0
DIMSTYLE
  2
AM_ANSI$SF
 70
     0
  3

  4
mm
  5

  6

  7

 40
1.0
 41
0.12
 42
0.05
 43
0.5
 44
0.1
 45
0.0
 46
0.0
 47
0.1
 48
0.1
140
0.12
141
0.0
142
0.0
143
25.399999999999999
144
1.0
145
0.0
146
0.71
147
0.06
 71
     0
 72
     0
 73
     1
 74
     1
 75
     1
 76
     1
 77
     0
 78
     7
170
     0
171
     2
172
     0
173
     0
174
     0
175
     0
176
   256
177
   256
178
     2
  0
DIMSTYLE
  2
AM_ANSI$SH
 70
     0
  3

  4
mm
  5

  6
GENAXEH
  7

 40
1.0
 41
0.12
 42
0.05
 43
0.5
 44
0.1
 45
0.0
 46
0.0
 47
0.1
 48
0.1
140
0.12
141
0.0
142
0.0
143
25.399999999999999
144
1.0
145
0.0
146
0.71
147
0.06
 71
     0
 72
     0
 73
     1
 74
     1
 75
     1
 76
     1
 77
     0
 78
     7
170
     0
171
     2
172
     0
173
     1
174
     0
175
     0
176
   256
177
   256
178
     2
  0
ENDTAB
  0
ENDSEC
  0
SECTION
  2
BLOCKS
  0
BLOCK
  8
0
  2
$MODEL_SPACE
 70
     0
 10
0.0
 20
0.0
 30
0.0
  3
$MODEL_SPACE
  1

  0
ENDBLK
  5
4C2F
  8
0
  0
BLOCK
 67
     1
  8
0
  2
$PAPER_SPACE
 70
     0
 10
0.0
 20
0.0
 30
0.0
  3
$PAPER_SPACE
  1

  0
ENDBLK
  5
4C2B
 67
     1
  8
0
  0
BLOCK
  8
0
  2
_OPEN
 70
     0
 10
0.0
 20
0.0
 30
0.0
  3
_OPEN
  1

  0
LINE
  5
4AB0
  8
0
  6
BYBLOCK
 62
     0
 10
-1.0
 20
0.1666666666666666
 30
0.0
 11
0.0
 21
0.0
 31
0.0
  0
LINE
  5
4AB1
  8
0
  6
BYBLOCK
 62
     0
 10
-1.0
 20
-0.1666666666666666
 30
0.0
 11
0.0
 21
0.0
 31
0.0
  0
LINE
  5
4AB2
  8
0
  6
BYBLOCK
 62
     0
 10
0.0
 20
0.0
 30
0.0
 11
-1.0
 21
0.0
 31
0.0
  0
ENDBLK
  5
4AB3
  8
0
  0
BLOCK
  8
0
  2
GENAXEH
 70
     0
 10
0.0
 20
0.0
 30
0.0
  3
GENAXEH
  1

  0
LINE
  5
4AEB
  8
0
 10
-1.0
 20
0.0
 30
0.0
 11
1.0
 21
0.0
 31
0.0
  0
ENDBLK
  5
4AEC
  8
0
  0
BLOCK
  8
0
  2
_ACMFILLEDHALF
 70
     0
 10
0.0
 20
0.0
 30
0.0
  3
_ACMFILLEDHALF
  1

  0
TRACE
  5
4CF3
  8
240
 62
     0
 10
-0.8
 20
0.0
 30
0.0
 11
-1.0
 21
0.166666666
 31
0.0
 12
0.0
 22
0.0
 32
0.0
 13
0.0
 23
0.0
 33
0.0
  0
LINE
  5
4CF4
  8
240
 62
     0
 10
-1.0
 20
0.0
 30
0.0
 11
-0.8
 21
0.0
 31
0.0
  0
ENDBLK
  5
4CF2
  8
0
  0
ENDSEC
  0
SECTION
  2
ENTITIES
  0
TEXT
  5
4403
  8
241
  6
CONTINUOUS
 10
-70.000002000000038
 20
48.99999600000001
 30
0.0
 40
4.0
  1
ST25-C1040C
  7
YOKO
 11
-70.000002000000038
 21
48.99999600000001
 31
0.0
 73
     1
  0
LINE
  5
4405
  8
250
  6
CONTINUOUS
 10
-0.0000020000000376
 20
19.499998000000001
 30
0.0
 11
-0.0000020000000376
 21
35.99999600000001
 31
0.0
  0
LINE
  5
4406
  8
250
  6
CONTINUOUS
 10
34.999997999999962
 20
4.9813210000000083
 30
0.0
 11
34.999997999999962
 21
35.99999600000001
 31
0.0
  0
LINE
  5
4407
  8
250
  6
CONTINUOUS
 10
2.2299979999999522
 20
34.99999600000001
 30
0.0
 11
32.769997999999973
 21
34.99999600000001
 31
0.0
  0
LINE
  5
4408
  8
250
  6
CONTINUOUS
 10
-70.000002000000038
 20
12.999999999999989
 30
0.0
 11
-70.000002000000038
 21
35.99999600000001
 31
0.0
  0
LINE
  5
4409
  8
250
  6
CONTINUOUS
 10
-0.0000020000000376
 20
19.499998000000001
 30
0.0
 11
-0.0000020000000376
 21
35.99999600000001
 31
0.0
  0
LINE
  5
440A
  8
250
  6
CONTINUOUS
 10
-67.770002000000034
 20
34.99999600000001
 30
0.0
 11
-2.2300020000000269
 21
34.99999600000001
 31
0.0
  0
LINE
  5
440C
  8
250
  6
CONTINUOUS
 10
-70.500000000000043
 20
-12.50000099999999
 30
0.0
 11
-83.000001999999938
 21
-12.50000099999999
 31
0.0
  0
LINE
  5
440D
  8
250
  6
CONTINUOUS
 10
-70.500000000000043
 20
12.499999000000001
 30
0.0
 11
-83.000001999999938
 21
12.499999000000001
 31
0.0
  0
LINE
  5
440E
  8
250
  6
CONTINUOUS
 10
-82.000001999999938
 20
-10.27000099999999
 30
0.0
 11
-82.000001999999938
 21
10.269999
 31
0.0
  0
LINE
  5
440F
  8
250
  6
CONTINUOUS
 10
20.146987582063058
 20
19.99999900000001
 30
0.0
 11
56.999994006665851
 21
19.999998999999999
 31
0.0
  0
LINE
  5
4410
  8
250
  6
CONTINUOUS
 10
55.999994006665858
 20
17.769998999999999
 30
0.0
 11
55.999994006665851
 21
-4.785716602025313
 31
0.0
  0
LINE
  5
4411
  8
250
  6
CONTINUOUS
 10
35.14700571490927
 20
4.9999989999999883
 30
0.0
 11
50.000000764616921
 21
4.9999989999999821
 31
0.0
  0
LINE
  5
4412
  8
250
  6
CONTINUOUS
 10
49.000000764616928
 20
2.7699989999999821
 30
0.0
 11
49.000000764616928
 21
-5.000000999999985
 31
0.0
  0
LINE
  5
4413
  8
250
  6
CONTINUOUS
 10
2.2299979999999522
 20
34.62832933333334
 30
0.0
 11
-0.0000020000000376
 21
34.99999600000001
 31
0.0
  0
LINE
  5
4414
  8
250
  6
CONTINUOUS
 10
2.2299979999999522
 20
35.371662666666673
 30
0.0
 11
-0.0000020000000376
 21
34.99999600000001
 31
0.0
  0
LINE
  5
4415
  8
250
  6
CONTINUOUS
 10
-0.0000020000000376
 20
34.99999600000001
 30
0.0
 11
2.2299979999999522
 21
34.99999600000001
 31
0.0
  0
TEXT
  5
4416
  8
250
  6
CONTINUOUS
 10
-83.000001999999938
 20
-4.0714295714285811
 30
0.0
 40
3.0
  1
\U+2205
 50
90.0
1001
ACAD
1000
MTEXTBEGIN
1070
    73
1070
     1
1070
    44
1040
1.0
1070
    74
1070
     0
1000
MTEXTEND
  0
TEXT
  5
4417
  8
250
  6
CONTINUOUS
 10
-83.000001999999938
 20
-1.357143857142868
 30
0.0
 40
3.0
  1
25
 50
90.0
1001
ACAD
1000
MTEXTBEGIN
1070
    73
1070
     1
1070
    44
1040
1.0
1070
    74
1070
     0
1000
MTEXTEND
  0
LINE
  5
4418
  8
250
  6
CONTINUOUS
 10
-81.628335333333254
 20
-10.27000099999999
 30
0.0
 11
-82.000001999999938
 21
-12.50000099999999
 31
0.0
  0
LINE
  5
4419
  8
250
  6
CONTINUOUS
 10
-82.371668666666551
 20
-10.27000099999999
 30
0.0
 11
-82.000001999999938
 21
-12.50000099999999
 31
0.0
  0
LINE
  5
441A
  8
250
  6
CONTINUOUS
 10
-82.000001999999938
 20
-12.50000099999999
 30
0.0
 11
-82.000001999999938
 21
-10.27000099999999
 31
0.0
  0
LINE
  5
441B
  8
250
  6
CONTINUOUS
 10
-82.371668666666551
 20
10.269999
 30
0.0
 11
-82.000001999999938
 21
12.499999000000001
 31
0.0
  0
LINE
  5
441C
  8
250
  6
CONTINUOUS
 10
-81.628335333333254
 20
10.269999
 30
0.0
 11
-82.000001999999938
 21
12.499999000000001
 31
0.0
  0
LINE
  5
441D
  8
250
  6
CONTINUOUS
 10
-82.000001999999938
 20
12.499999000000001
 30
0.0
 11
-82.000001999999938
 21
10.269999
 31
0.0
  0
TEXT
  5
4422
  8
250
  6
CONTINUOUS
 10
-37.73219263777424
 20
35.99999600000001
 30
0.0
 40
3.0
  1
70
1001
ACAD
1000
MTEXTBEGIN
1070
    73
1070
     1
1070
    44
1040
1.0
1070
    74
1070
     0
1000
MTEXTEND
  0
LINE
  5
4423
  8
250
  6
CONTINUOUS
 10
-67.770002000000034
 20
34.62832933333334
 30
0.0
 11
-70.000002000000038
 21
34.99999600000001
 31
0.0
  0
LINE
  5
4424
  8
250
  6
CONTINUOUS
 10
-67.770002000000034
 20
35.371662666666673
 30
0.0
 11
-70.000002000000038
 21
34.99999600000001
 31
0.0
  0
LINE
  5
4425
  8
250
  6
CONTINUOUS
 10
-70.000002000000038
 20
34.99999600000001
 30
0.0
 11
-67.770002000000034
 21
34.99999600000001
 31
0.0
  0
LINE
  5
4426
  8
250
  6
CONTINUOUS
 10
-2.230002000000034
 20
35.37166266666668
 30
0.0
 11
-0.0000020000000376
 21
34.99999600000001
 31
0.0
  0
LINE
  5
4427
  8
250
  6
CONTINUOUS
 10
-2.230002000000034
 20
34.62832933333334
 30
0.0
 11
-0.0000020000000376
 21
34.99999600000001
 31
0.0
  0
LINE
  5
4428
  8
250
  6
CONTINUOUS
 10
-0.0000020000000376
 20
34.99999600000001
 30
0.0
 11
-2.230002000000034
 21
34.99999600000001
 31
0.0
  0
LINE
  5
4429
  8
250
  6
CONTINUOUS
 10
55.628327339999181
 20
17.769998999999999
 30
0.0
 11
55.999994006665858
 21
19.999998999999999
 31
0.0
  0
LINE
  5
442A
  8
250
  6
CONTINUOUS
 10
56.371660673332521
 20
17.769998999999999
 30
0.0
 11
55.999994006665858
 21
19.999998999999999
 31
0.0
  0
LINE
  5
442B
  8
250
  6
CONTINUOUS
 10
55.999994006665858
 20
19.999998999999999
 30
0.0
 11
55.999994006665858
 21
17.769998999999999
 31
0.0
  0
TEXT
  5
442C
  8
250
  6
CONTINUOUS
 10
47.376500500159459
 20
-4.4147784874501932
 30
0.0
 40
3.0
  1
\U+2205
 50
90.0
  0
TEXT
  5
442D
  8
250
  6
CONTINUOUS
 10
47.376500500159459
 20
-1.7004927731644801
 30
0.0
 40
3.0
  1
10
 50
90.0
  0
TEXT
  5
442E
  8
250
  6
CONTINUOUS
 10
54.999994006665851
 20
-4.0714308877395951
 30
0.0
 40
3.0
  1
\U+2205
 50
90.0
1001
ACAD
1000
MTEXTBEGIN
1070
    73
1070
     1
1070
    44
1040
1.0
1070
    74
1070
     0
1000
MTEXTEND
  0
TEXT
  5
442F
  8
250
  6
CONTINUOUS
 10
54.999994006665851
 20
-1.3571451734538811
 30
0.0
 40
3.0
  1
40
 50
90.0
1001
ACAD
1000
MTEXTBEGIN
1070
    73
1070
     1
1070
    44
1040
1.0
1070
    74
1070
     0
1000
MTEXTEND
  0
LINE
  5
4430
  8
250
  6
CONTINUOUS
 10
48.628334097950258
 20
2.7699989999999821
 30
0.0
 11
49.000000764616928
 21
4.9999989999999821
 31
0.0
  0
LINE
  5
4431
  8
250
  6
CONTINUOUS
 10
49.371667431283612
 20
2.7699989999999821
 30
0.0
 11
49.000000764616928
 21
4.9999989999999821
 31
0.0
  0
LINE
  5
4432
  8
250
  6
CONTINUOUS
 10
49.000000764616928
 20
4.9999989999999821
 30
0.0
 11
49.000000764616928
 21
2.7699989999999821
 31
0.0
  0
LINE
  5
4433
  8
250
  6
CONTINUOUS
 10
32.769997999999973
 20
35.37166266666668
 30
0.0
 11
34.999997999999962
 21
34.99999600000001
 31
0.0
  0
LINE
  5
4434
  8
250
  6
CONTINUOUS
 10
32.769997999999973
 20
34.62832933333334
 30
0.0
 11
34.999997999999962
 21
34.99999600000001
 31
0.0
  0
LINE
  5
4435
  8
250
  6
CONTINUOUS
 10
34.999997999999962
 20
34.99999600000001
 30
0.0
 11
32.769997999999973
 21
34.99999600000001
 31
0.0
  0
TEXT
  5
4436
  8
250
  6
CONTINUOUS
 10
14.642855142857099
 20
35.99999600000001
 30
0.0
 40
3.0
  1
35
1001
ACAD
1000
MTEXTBEGIN
1070
    73
1070
     1
1070
    44
1040
1.0
1070
    74
1070
     0
1000
MTEXTEND
  0
LINE
  5
4474
  8
245
  6
CENTER2
 10
-73.736810000000034
 20
0.0
 30
0.0
 11
35.964983999999951
 21
0.0
 31
0.0
  0
LINE
  5
4475
  8
241
  6
CONTINUOUS
 10
-0.0000000000000142
 20
-12.49999999999998
 30
0.0
 11
0.0000000000000142
 21
12.49999999999998
 31
0.0
  0
LINE
  5
4476
  8
240
  6
CONTINUOUS
 10
-70.000000000000043
 20
-12.5
 30
0.0
 11
-70.000000000000043
 21
12.49999999999998
 31
0.0
  0
LINE
  5
4479
  8
240
  6
CONTINUOUS
 10
-70.000000000000043
 20
-12.5
 30
0.0
 11
-0.0000000000000142
 21
-12.5
 31
0.0
  0
LINE
  5
4485
  8
240
  6
CONTINUOUS
 10
-70.000000000000043
 20
12.499999999999989
 30
0.0
 11
-0.0000000000002203
 21
12.499999999999989
 31
0.0
  0
LINE
  5
44C4
  8
241
  6
CONTINUOUS
 10
19.165489999999931
 20
20.481499000000021
 30
0.0
 11
34.88284299999993
 21
4.7641649999999904
 31
0.0
  0
ARC
  5
44C5
  8
241
  6
CONTINUOUS
 10
25.273621999999939
 20
5.5974429999999931
 30
0.0
 40
5.0
 50
225.0
 51
280.00000000000023
  0
LINE
  5
44C6
  8
241
  6
CONTINUOUS
 10
24.231274999999961
 20
2.2468659999999789
 30
0.0
 11
34.669459999999951
 21
4.0873990000000031
 31
0.0
  0
LINE
  5
44C7
  8
241
  6
CONTINUOUS
 10
21.73808799999993
 20
2.061908999999984
 30
0.0
 11
4.5000000000001057
 21
19.29999699999987
 31
0.0
  0
LINE
  5
44C8
  8
241
  6
CONTINUOUS
 10
23.790897999999949
 20
2.3857159999999991
 30
0.0
 11
8.2098129999999543
 21
17.966799999999999
 31
0.0
  0
ARC
  5
44C9
  8
241
  6
CONTINUOUS
 10
24.144450999999961
 20
2.7392690000000042
 30
0.0
 40
0.5
 50
225.00000200000011
 51
280.00000000000023
  0
LINE
  5
44CB
  8
241
  6
CONTINUOUS
 10
8.4765419999999416
 20
18.812756999999969
 30
0.0
 11
18.62119199999994
 21
20.601532999999971
 31
0.0
  0
ARC
  5
44CE
  8
241
  6
CONTINUOUS
 10
8.5633659999999239
 20
18.320353000000001
 30
0.0
 40
0.5
 50
100.0000000000001
 51
225.00000200000011
  0
ARC
  5
44D0
  8
241
  6
CONTINUOUS
 10
18.812355999999941
 20
20.127527000000011
 30
0.0
 40
0.5
 50
45.000033999998827
 51
100.0000000000001
  0
LINE
  5
44D3
  8
241
  6
CONTINUOUS
 10
18.62119199999994
 20
20.601532999999971
 30
0.0
 11
18.725531999999941
 21
20.619930999999969
 31
0.0
  0
LINE
  5
44D4
  8
241
  6
CONTINUOUS
 10
26.141861999999929
 20
0.6734040000000051
 30
0.0
 11
34.799612999999951
 21
2.1999999999999851
 31
0.0
  0
ARC
  5
44D5
  8
241
  6
CONTINUOUS
 10
34.599999999999952
 20
4.481322000000004
 30
0.0
 40
0.4
 50
280.00000000000023
 51
45.000033999998827
  0
LINE
  5
4937
  8
240
  6
CONTINUOUS
 10
34.79961288507964
 20
4.0063001771685123
 30
0.0
 11
34.79961288507964
 21
-4.0833381247925598
 31
0.0
1001
GRPNAME
1000
PASTMD04
  0
LINE
  5
4938
  8
240
  6
CONTINUOUS
 10
9.6621769876072499
 20
22.499999515670201
 30
0.0
 11
16.722723408450658
 21
22.499999515670211
 31
0.0
  0
LINE
  5
493B
  8
240
  6
CONTINUOUS
 10
16.722723408450658
 20
-22.49999951567019
 30
0.0
 11
34.509720865544203
 21
-4.7130229718435714
 31
0.0
  0
ARC
  5
493C
  8
240
  6
CONTINUOUS
 10
33.802614500052492
 20
-4.005915774962431
 30
0.0
 40
1.0
 50
314.9999663168939
 51
355.55958241710482
  0
LINE
  5
493E
  8
240
  6
CONTINUOUS
 10
9.6621769876070829
 20
-22.49999951567009
 30
0.0
 11
16.722723408450658
 21
-22.49999951567019
 31
0.0
  0
LINE
  5
493F
  8
240
  6
CONTINUOUS
 10
16.722723408450658
 20
22.499999515670211
 30
0.0
 11
18.621191930998069
 21
20.601533225269019
 31
0.0
  0
LINE
  5
4940
  8
240
  6
CONTINUOUS
 10
-0.0000000000000284
 20
19.0
 30
0.0
 11
-0.0000000000002203
 21
12.499999999999989
 31
0.0
1001
GRPNAME
1000
PASTMD0H
  0
LINE
  5
4942
  8
240
  6
CONTINUOUS
 10
-0.0000000000001066
 20
-19.0
 30
0.0
 11
-0.0000000000000142
 21
-12.5
 31
0.0
1001
GRPNAME
1000
PASTMD01
  0
LINE
  5
4944
  8
240
  6
CONTINUOUS
 10
-0.0000000000000284
 20
19.0
 30
0.0
 11
3.6000000000000152
 21
19.0
 31
0.0
  0
LINE
  5
4945
  8
240
  6
CONTINUOUS
 10
9.6621769876072499
 20
22.499999515670201
 30
0.0
 11
3.6000000000000152
 21
19.0
 31
0.0
  0
LINE
  5
4949
  8
240
  6
CONTINUOUS
 10
-0.0000000000001066
 20
-19.0
 30
0.0
 11
3.6000000000000152
 21
-19.0
 31
0.0
  0
LINE
  5
494A
  8
240
  6
CONTINUOUS
 10
9.6621769876070829
 20
-22.49999951567009
 30
0.0
 11
3.6000000000000152
 21
-19.0
 31
0.0
  0
LINE
  5
494C
  8
241
  6
CONTINUOUS
 10
3.600000000000033
 20
-19.00000000000011
 30
0.0
 11
3.5999999999997518
 21
19.0
 31
0.0
  0
LINE
  5
494D
  8
241
  6
CONTINUOUS
 10
20.222724479698272
 20
3.5770730032611482
 30
0.0
 11
20.222724481108269
 21
-12.6114686495802
 31
0.0
  0
ARC
  5
494E
  8
241
  6
CONTINUOUS
 10
81.524788823208354
 20
-49.871403987951538
 30
0.0
 40
70.375986378376524
 50
153.26178636572129
 51
156.73924402752371
  0
ARC
  5
494F
  8
241
  6
CONTINUOUS
 10
6.3920637241017628
 20
-11.79691480326886
 30
0.0
 40
13.85462648157432
 50
332.43498252292932
 51
356.62947055925417
  0
POLYLINE
  5
4950
  8
241
  6
CONTINUOUS
 66
     1
 10
0.0
 20
0.0
 30
0.0
 70
   128
  0
VERTEX
  5
4BA9
  8
241
  6
CONTINUOUS
 10
6.3164390861877449
 20
-18.208210654144281
 30
0.0
  0
VERTEX
  5
4BAA
  8
241
  6
CONTINUOUS
 10
5.4654321405633217
 20
-17.135897447580639
 30
0.0
  0
VERTEX
  5
4BAB
  8
241
  6
CONTINUOUS
 10
4.7320482493464411
 20
-16.00414472505053
 30
0.0
  0
SEQEND
  5
4BAC
  8
241
  6
CONTINUOUS
  0
POLYLINE
  5
4951
  8
241
  6
CONTINUOUS
 66
     1
 10
0.0
 20
0.0
 30
0.0
 70
   128
  0
VERTEX
  5
4BAD
  8
241
  6
CONTINUOUS
 10
4.7320482493464411
 20
-16.00414472505053
 30
0.0
  0
VERTEX
  5
4BAE
  8
241
  6
CONTINUOUS
 10
4.6688763479960294
 20
-15.90095880925071
 30
0.0
  0
VERTEX
  5
4BAF
  8
241
  6
CONTINUOUS
 10
4.564604274458123
 20
-15.762732538850811
 30
0.0
  0
SEQEND
  5
4BB0
  8
241
  6
CONTINUOUS
  0
POLYLINE
  5
4952
  8
241
  6
CONTINUOUS
 66
     1
 10
0.0
 20
0.0
 30
0.0
 70
   128
  0
VERTEX
  5
4BB1
  8
241
  6
CONTINUOUS
 10
4.564604274458123
 20
-15.762732538850811
 30
0.0
  0
VERTEX
  5
4BB2
  8
241
  6
CONTINUOUS
 10
4.1441198612242109
 20
-14.87063765744578
 30
0.0
  0
VERTEX
  5
4BB3
  8
241
  6
CONTINUOUS
 10
3.5999999999999939
 20
-13.138176973537041
 30
0.0
  0
SEQEND
  5
4BB4
  8
241
  6
CONTINUOUS
  0
ARC
  5
4953
  8
241
  6
CONTINUOUS
 10
-47.066589554826841
 20
-64.454741451642633
 30
0.0
 40
70.629238688317685
 50
36.832974478669421
 51
40.902882365828908
  0
POLYLINE
  5
4954
  8
241
  6
CONTINUOUS
 66
     1
 10
0.0
 20
0.0
 30
0.0
 70
   128
  0
VERTEX
  5
4BB5
  8
241
  6
CONTINUOUS
 10
16.515614241233589
 20
-22.488770009798149
 30
0.0
  0
VERTEX
  5
4BB6
  8
241
  6
CONTINUOUS
 10
16.519989532718331
 20
-22.487724285720379
 30
0.0
  0
VERTEX
  5
4BB7
  8
241
  6
CONTINUOUS
 10
16.656860327593488
 20
-22.412877097915811
 30
0.0
  0
VERTEX
  5
4BB8
  8
241
  6
CONTINUOUS
 10
16.86916742397943
 20
-22.090143227210859
 30
0.0
  0
SEQEND
  5
4BB9
  8
241
  6
CONTINUOUS
  0
POLYLINE
  5
4955
  8
241
  6
CONTINUOUS
 66
     1
 10
0.0
 20
0.0
 30
0.0
 70
   128
  0
VERTEX
  5
4BBA
  8
241
  6
CONTINUOUS
 10
9.4640990569212011
 20
-22.12037419909711
 30
0.0
  0
VERTEX
  5
4BBB
  8
241
  6
CONTINUOUS
 10
9.8355687503857716
 20
-22.450383681092799
 30
0.0
  0
VERTEX
  5
4BBC
  8
241
  6
CONTINUOUS
 10
9.9579696005544989
 20
-22.487734254802529
 30
0.0
  0
VERTEX
  5
4BBD
  8
241
  6
CONTINUOUS
 10
9.9640990569208547
 20
-22.488769767761841
 30
0.0
  0
SEQEND
  5
4BBE
  8
241
  6
CONTINUOUS
  0
LINE
  5
49E9
  8
250
  6
CONTINUOUS
 10
-51.717805514354922
 20
-14.24540331769732
 30
0.0
 11
-50.28093274000004
 21
-12.5
 31
0.0
  0
LINE
  5
49EA
  8
250
  6
CONTINUOUS
 10
-51.074059964055522
 20
-14.617069984099039
 30
0.0
 11
-50.28093274000004
 21
-12.5
 31
0.0
  0
LINE
  5
49EB
  8
250
  6
CONTINUOUS
 10
-50.28093274000004
 20
-12.5
 30
0.0
 11
-51.395932739205222
 21
-14.43123665089818
 31
0.0
  0
LINE
  5
49EC
  8
250
  6
CONTINUOUS
 10
-51.395932739205222
 20
-14.43123665089818
 30
0.0
 11
-55.331009570000028
 21
-21.246989660000001
 31
0.0
1001
ACAD
1000
DSTYLE
1002
{
1070
     6
1000
OPEN
1070
   343
1005
594
1002
}
  0
TEXT
  5
49ED
  8
250
  6
CONTINUOUS
 10
-67.864342910000033
 20
-20.246989660000001
 30
0.0
 40
2.799999999999998
  1
ST25
  7
YOKO
1001
ITEMNAME
1000
LNSP3
  0
LINE
  5
49EE
  8
250
  6
CONTINUOUS
 10
-55.331009570000028
 20
-21.246989660000001
 30
0.0
 11
-70.264342910000039
 21
-21.246989660000001
 31
0.0
1001
ITEMNAME
1000
LNSP2
  0
LINE
  5
49EF
  8
247
  6
CONTINUOUS
 10
-63.25000000007006
 20
-7.9999999999999982
 30
0.0
 11
-56.55769230803002
 21
-7.9999999999999982
 31
0.0
  0
ARC
  5
49F0
  8
247
  6
CONTINUOUS
 10
-63.25000000007006
 20
-6.2500000000700284
 30
0.0
 40
1.7499999999299991
 50
90.0
 51
270.0
  0
ARC
  5
49F1
  8
247
  6
CONTINUOUS
 10
-56.55769230803002
 20
-6.2500000000700284
 30
0.0
 40
1.7499999999299991
 50
270.0
 51
90.0
  0
LINE
  5
49F2
  8
247
  6
CONTINUOUS
 10
-62.384615384720028
 20
-4.5000000001400604
 30
0.0
 11
-63.244851541962028
 21
-7.5000000000200062
 31
0.0
  0
LINE
  5
49F3
  8
247
  6
CONTINUOUS
 10
-61.484983818335863
 20
-5.9230769231598952
 30
0.0
 11
-62.792676125975873
 21
-5.9230769231598952
 31
0.0
  0
ARC
  5
49F4
  8
247
  6
CONTINUOUS
 10
-61.145143816089842
 20
-5.049598667702865
 30
0.0
 40
0.5538165441895349
 50
342.9978896752952
 51
82.924166218512724
  0
ARC
  5
49F5
  8
247
  6
CONTINUOUS
 10
-61.566878323028831
 20
-4.9360330444658267
 30
0.0
 40
0.9904354236226808
 50
274.74293685220141
 51
343.84922627326648
1001
GENIUS_GENOBJ-N-FIL_13
1002
{
1000
OWNER
1000
GEN
1002
}
1001
GENIUS_GENODEF_13
1002
{
1000
HIER
1070
     0
1002
}
1002
{
1000
MANEDIT
1070
     0
1002
}
1002
{
1000
NOSEL
1070
     0
1002
}
1002
{
1000
BEHIND
1070
     0
1002
}
1002
{
1000
OTHER
1070
     0
1002
}
1002
{
1000
REACTOR
1002
}
  0
LINE
  5
49F6
  8
247
  6
CONTINUOUS
 10
-61.937159234322039
 20
-7.5000000000200062
 30
0.0
 11
-63.244851541962028
 21
-7.5000000000200062
 31
0.0
  0
LINE
  5
49F7
  8
247
  6
CONTINUOUS
 10
-62.384615384720028
 20
-4.5000000001400604
 30
0.0
 11
-61.076923077080039
 21
-4.5000000001400604
 31
0.0
  0
ARC
  5
49F8
  8
247
  6
CONTINUOUS
 10
-61.560919636546998
 20
-6.482024232665478
 30
0.0
 40
0.5640818586791229
 50
335.9909416525216
 51
82.263443459069066
  0
ARC
  5
49F9
  8
247
  6
CONTINUOUS
 10
-62.038262685347121
 20
-6.487429039186507
 30
0.0
 40
1.0176059446230981
 50
275.70198516425808
 51
347.27733843682228
1001
GENIUS_GENOBJ-N-FIL_13
1002
{
1000
OWNER
1000
GEN
1002
}
1001
GENIUS_GENODEF_13
1002
{
1000
HIER
1070
     0
1002
}
1002
{
1000
MANEDIT
1070
     0
1002
}
1002
{
1000
NOSEL
1070
     0
1002
}
1002
{
1000
BEHIND
1070
     0
1002
}
1002
{
1000
OTHER
1070
     0
1002
}
1002
{
1000
REACTOR
1002
}
  0
LINE
  5
49FA
  8
247
  6
CONTINUOUS
 10
-60.28331308054203
 20
-7.5000000000200062
 30
0.0
 11
-59.42307692330003
 21
-4.5000000001400604
 31
0.0
  0
LINE
  5
49FB
  8
247
  6
CONTINUOUS
 10
-57.000000000320028
 20
-4.5000000001400604
 30
0.0
 11
-57.565736619456629
 21
-4.5000000001400604
 31
0.0
  0
LINE
  5
49FC
  8
247
  6
CONTINUOUS
 10
-58.461538461800053
 20
-7.5000000000200062
 30
0.0
 11
-57.846153846440053
 21
-7.5000000000200062
 31
0.0
  0
ARC
  5
49FD
  8
247
  6
CONTINUOUS
 10
-56.708791209122893
 20
-6.583285135973366
 30
0.0
 40
2.2526500823422122
 50
112.35948814153021
 51
164.993248542846
  0
ARC
  5
49FE
  8
247
  6
CONTINUOUS
 10
-57.374069479213283
 20
-5.308312655194638
 30
0.0
 40
0.8906723995727782
 50
4.9945893190753878
 51
65.166328957301374
1001
GENIUS_GENOBJ-N-FIL_13
1002
{
1000
OWNER
1000
GEN
1002
}
1001
GENIUS_GENODEF_13
1002
{
1000
HIER
1070
     0
1002
}
1002
{
1000
MANEDIT
1070
     0
1002
}
1002
{
1000
NOSEL
1070
     0
1002
}
1002
{
1000
BEHIND
1070
     0
1002
}
1002
{
1000
OTHER
1070
     0
1002
}
1002
{
1000
REACTOR
1002
}
  0
ARC
  5
49FF
  8
247
  6
CONTINUOUS
 10
-58.226458886212612
 20
-6.160145888667782
 30
0.0
 40
1.392781735586712
 50
285.84609655578072
 51
352.32513700416251
  0
ARC
  5
4A00
  8
247
  6
CONTINUOUS
 10
-57.642212725840388
 20
-6.4592434315272813
 30
0.0
 40
1.324563662670287
 50
159.71360167048991
 51
231.78874565641209
1001
GENIUS_GENOBJ-N-FIL_13
1002
{
1000
OWNER
1000
GEN
1002
}
1001
GENIUS_GENODEF_13
1002
{
1000
HIER
1070
     0
1002
}
1002
{
1000
MANEDIT
1070
     0
1002
}
1002
{
1000
NOSEL
1070
     0
1002
}
1002
{
1000
BEHIND
1070
     0
1002
}
1002
{
1000
OTHER
1070
     0
1002
}
1002
{
1000
REACTOR
1002
}
  0
LINE
  5
4A01
  8
247
  6
CONTINUOUS
 10
-57.538461538760032
 20
-6.3461538462199751
 30
0.0
 11
-56.846153846480043
 21
-6.3461538462199751
 31
0.0
  0
LINE
  5
4A02
  8
247
  6
CONTINUOUS
 10
-63.250000000070067
 20
-4.5000000001400604
 30
0.0
 11
-62.576923077020112
 21
-4.5000000001400604
 31
0.0
  0
VIEWPORT
  5
22
 67
     1
  8
0
 10
261.51769911504419
 20
148.5
 30
0.0
 40
523.0353982300885
 41
297.0
 68
     1
 69
     1
1001
ACAD
1000
MVIEW
1002
{
1070
    16
1010
0.0
1020
0.0
1030
0.0
1010
0.0
1020
0.0
1030
1.0
1040
0.0
1040
297.0
1040
261.51769911504419
1040
148.5
1040
50.0
1040
0.0
1040
0.0
1070
     0
1070
   100
1070
     1
1070
     1
1070
     0
1070
     0
1070
     0
1070
     0
1040
0.0
1040
0.0
1040
0.0
1040
1.0
1040
1.0
1040
10.0
1040
10.0
1070
     0
1002
{
1002
}
1002
}
1001
GENIUS_GENODEF_13
1002
{
1000
HIER
1070
     0
1002
}
1002
{
1000
MANEDIT
1070
     0
1002
}
1002
{
1000
NOSEL
1070
     0
1002
}
1002
{
1000
BEHIND
1070
     0
1002
}
1002
{
1000
OTHER
1070
     0
1002
}
1002
{
1000
REACTOR
1002
}
1001
GENIUS_GENOBJ-N-SDF_13
1002
{
1000
OWNER
1000
GEN
1002
}
1001
GENIUS_GENSCREG_15
1000
PF
1040
1.0
1000
DF
1040
1.0
1000
MIN
1011
0.0
1021
0.0
1031
0.0
1021
0.0
1031
0.0
1000
MAX
1011
523.0353982300885
1021
0.0
1031
0.0
1021
297.0
1031
0.0
1000
FLAGS
1070
     4
  0
ENDSEC
  0
EOF
