  0
SECTION
  2
HEADER
  9
$ACADVER
  1
AC1009
  9
$INSBASE
 10
0.0
 20
0.0
 30
0.0
  9
$EXTMIN
 10
-1.9999999999999709
 20
-21.159710160000031
 30
0.0
  9
$EXTMAX
 10
219.0
 20
53.999999999999972
 30
0.0
  9
$LIMMIN
 10
0.0
 20
0.0
  9
$LIMMAX
 10
297.0
 20
210.0
  9
$ORTHOMODE
 70
     0
  9
$REGENMODE
 70
     1
  9
$FILLMODE
 70
     1
  9
$QTEXTMODE
 70
     0
  9
$MIRRTEXT
 70
     1
  9
$DRAGMODE
 70
     2
  9
$LTSCALE
 40
10.0
  9
$OSMODE
 70
    35
  9
$ATTMODE
 70
     1
  9
$TEXTSIZE
 40
3.0
  9
$TRACEWID
 40
1.0
  9
$TEXTSTYLE
  7
YOKO
  9
$CLAYER
  8
240
  9
$CELTYPE
  6
BYLAYER
  9
$CECOLOR
 62
   256
  9
$DIMSCALE
 40
1.0
  9
$DIMASZ
 40
2.2299999999999991
  9
$DIMEXO
 40
0.5
  9
$DIMDLI
 40
7.0
  9
$DIMRND
 40
0.0
  9
$DIMDLE
 40
0.0
  9
$DIMEXE
 40
1.0
  9
$DIMTP
 40
0.0
  9
$DIMTM
 40
0.01
  9
$DIMTXT
 40
2.7999999999999989
  9
$DIMCEN
 40
0.0
  9
$DIMTSZ
 40
0.0
  9
$DIMTOL
 70
     0
  9
$DIMLIM
 70
     0
  9
$DIMTIH
 70
     0
  9
$DIMTOH
 70
     0
  9
$DIMSE1
 70
     0
  9
$DIMSE2
 70
     0
  9
$DIMTAD
 70
     3
  9
$DIMZIN
 70
     9
  9
$DIMBLK
  1
OPEN
  9
$DIMASO
 70
     1
  9
$DIMSHO
 70
     1
  9
$DIMPOST
  1

  9
$DIMAPOST
  1

  9
$DIMALT
 70
     0
  9
$DIMALTD
 70
     2
  9
$DIMALTF
 40
25.399999999999999
  9
$DIMLFAC
 40
1.0
  9
$DIMTOFL
 70
     1
  9
$DIMTVP
 40
0.0
  9
$DIMTIX
 70
     1
  9
$DIMSOXD
 70
     0
  9
$DIMSAH
 70
     0
  9
$DIMBLK1
  1

  9
$DIMBLK2
  1

  9
$DIMSTYLE
  2
BIGT
  9
$DIMCLRD
 70
   256
  9
$DIMCLRE
 70
   256
  9
$DIMCLRT
 70
    40
  9
$DIMTFAC
 40
1.0
  9
$DIMGAP
 40
1.0
  9
$LUNITS
 70
     2
  9
$LUPREC
 70
     6
  9
$SKETCHINC
 40
1.0
  9
$FILLETRAD
 40
0.0
  9
$AUNITS
 70
     0
  9
$AUPREC
 70
     6
  9
$MENU
  1
.
  9
$ELEVATION
 40
0.0
  9
$PELEVATION
 40
0.0
  9
$THICKNESS
 40
0.0
  9
$LIMCHECK
 70
     0
  9
$BLIPMODE
 70
     0
  9
$CHAMFERA
 40
0.2
  9
$CHAMFERB
 40
0.2
  9
$SKPOLY
 70
     0
  9
$TDCREATE
 40
2457742.5502944561
  9
$TDUPDATE
 40
2457742.607815336
  9
$TDINDWG
 40
0.0089635417
  9
$TDUSRTIMER
 40
0.0089635069
  9
$USRTIMER
 70
     1
  9
$ANGBASE
 50
0.0
  9
$ANGDIR
 70
     0
  9
$PDMODE
 70
     1
  9
$PDSIZE
 40
0.0
  9
$PLINEWID
 40
0.0
  9
$COORDS
 70
     1
  9
$SPLFRAME
 70
     0
  9
$SPLINETYPE
 70
     6
  9
$SPLINESEGS
 70
     4
  9
$ATTDIA
 70
     1
  9
$ATTREQ
 70
     1
  9
$HANDLING
 70
     1
  9
$HANDSEED
  5
44A3
  9
$SURFTAB1
 70
     6
  9
$SURFTAB2
 70
     6
  9
$SURFTYPE
 70
     6
  9
$SURFU
 70
     6
  9
$SURFV
 70
     6
  9
$UCSNAME
  2

  9
$UCSORG
 10
0.0
 20
0.0
 30
0.0
  9
$UCSXDIR
 10
1.0
 20
0.0
 30
0.0
  9
$UCSYDIR
 10
0.0
 20
1.0
 30
0.0
  9
$PUCSNAME
  2

  9
$PUCSORG
 10
0.0
 20
0.0
 30
0.0
  9
$PUCSXDIR
 10
1.0
 20
0.0
 30
0.0
  9
$PUCSYDIR
 10
0.0
 20
1.0
 30
0.0
  9
$USERI1
 70
     1
  9
$USERI2
 70
     0
  9
$USERI3
 70
     0
  9
$USERI4
 70
     0
  9
$USERI5
 70
     0
  9
$USERR1
 40
0.0
  9
$USERR2
 40
0.0
  9
$USERR3
 40
0.0
  9
$USERR4
 40
0.0
  9
$USERR5
 40
0.0
  9
$WORLDVIEW
 70
     1
  9
$SHADEDGE
 70
     3
  9
$SHADEDIF
 70
    70
  9
$TILEMODE
 70
     1
  9
$MAXACTVP
 70
    16
  9
$PLIMCHECK
 70
     0
  9
$PEXTMIN
 10
1.0000000000000000E+020
 20
1.0000000000000000E+020
 30
1.0000000000000000E+020
  9
$PEXTMAX
 10
-1.0000000000000000E+020
 20
-1.0000000000000000E+020
 30
-1.0000000000000000E+020
  9
$PLIMMIN
 10
0.0
 20
0.0
  9
$PLIMMAX
 10
420.0
 20
297.0
  9
$UNITMODE
 70
     0
  9
$VISRETAIN
 70
     1
  9
$PLINEGEN
 70
     0
  9
$PSLTSCALE
 70
     1
  0
ENDSEC
  0
SECTION
  2
TABLES
  0
TABLE
  2
VPORT
 70
     1
  0
VPORT
  2
*ACTIVE
 70
     0
 10
0.0
 20
0.0
 11
1.0
 21
1.0
 12
110.7674708446321
 22
28.996449924434099
 13
0.0
 23
0.0
 14
7.0
 24
7.0
 15
7.0
 25
7.0
 16
0.0
 26
0.0
 36
1.0
 17
0.0
 27
0.0
 37
0.0
 40
230.7299528014627
 41
1.5283842794759821
 42
50.0
 43
0.0
 44
0.0
 50
0.0
 51
0.0
 71
     0
 72
  2000
 73
     1
 74
     0
 75
     0
 76
     1
 77
     0
 78
     0
  0
ENDTAB
  0
TABLE
  2
LTYPE
 70
    16
  0
LTYPE
  2
CONTINUOUS
 70
     0
  3
Solid line
 72
    65
 73
     0
 40
0.0
  0
LTYPE
  2
CENTER2
 70
     0
  3
___ _ ___ _ ___ _ ___ _ ___ _ ___ _ ___ _ ___ _
 72
    65
 73
     4
 40
1.125
 49
0.75
 49
-0.125
 49
0.125
 49
-0.125
  0
LTYPE
  2
HIDDEN2
 70
     0
  3
_ _ _ _ _ _ _ _ _ _ _ _ _ _ _ _ _ _ _ _ _ _ _ _
 72
    65
 73
     2
 40
0.1875
 49
0.125
 49
-0.0625
  0
LTYPE
  2
PHANTOM2
 70
     0
  3
___ _ _ ___ _ _ ___ _ _ ___ _ _ ___ _ _ ___ _ _
 72
    65
 73
     6
 40
1.25
 49
0.625
 49
-0.125
 49
0.125
 49
-0.125
 49
0.125
 49
-0.125
  0
LTYPE
  2
AM_ISO02W050
 70
     0
  3
__ __ __ __ __ __ __ __ __ __ __ __ __ __ __
 72
    65
 73
     2
 40
7.5
 49
6.0
 49
-1.5
  0
LTYPE
  2
AMCONSTR
 70
     0
  3
_______________________
 72
    65
 73
     2
 40
9999.0
 49
9999.0
 49
0.0
  0
LTYPE
  2
ACISOWELD
 70
     0
  3
_ _ _ _ _
 72
    65
 73
     2
 40
2.0
 49
2.0
 49
-1.0
  0
LTYPE
  2
ACISOTGB
 70
     0
  3
__ . . __ . .
 72
    65
 73
     6
 40
9.0
 49
4.0
 49
-1.0
 49
1.0
 49
-1.0
 49
1.0
 49
-1.0
  0
LTYPE
  2
ACISOTGL
 70
     0
  3
_ _ _ _ _
 72
    65
 73
     2
 40
3.0
 49
2.0
 49
-1.0
  0
LTYPE
  2
ACJISTGB
 70
     0
  3
__ . . __ . .
 72
    65
 73
     6
 40
9.0
 49
4.0
 49
-1.0
 49
1.0
 49
-1.0
 49
1.0
 49
-1.0
  0
LTYPE
  2
ACJISTGL
 70
     0
  3
_ _ _ _ _
 72
    65
 73
     2
 40
3.0
 49
2.0
 49
-1.0
  0
ENDTAB
  0
TABLE
  2
LAYER
 70
     8
  0
LAYER
  2
0
 70
     0
 62
     7
  6
CONTINUOUS
  0
LAYER
  2
DEFPOINTS
 70
     0
 62
     7
  6
CONTINUOUS
  0
LAYER
  2
245
 70
     0
 62
     2
  6
CENTER2
  0
LAYER
  2
240
 70
     0
 62
     4
  6
CONTINUOUS
  0
LAYER
  2
241
 70
     0
 62
   211
  6
CONTINUOUS
  0
LAYER
  2
243
 70
     0
 62
   211
  6
HIDDEN2
  0
LAYER
  2
247
 70
     0
 62
    60
  6
CONTINUOUS
  0
LAYER
  2
250
 70
     0
 62
     3
  6
CONTINUOUS
  0
ENDTAB
  0
TABLE
  2
STYLE
 70
     8
  0
STYLE
  2
STANDARD
 70
     0
 40
0.0
 41
1.0
 50
0.0
 71
     0
 42
3.0
  3
romans.shx
  4
extfont.shx
  0
STYLE
  2
ACISOTS
 70
     0
 40
1.0
 41
1.0
 50
0.0
 71
     0
 42
3.0
  3
amgdt.shx
  4
extfont.shx
  0
STYLE
  2
ACISOGDT
 70
     0
 40
0.0
 41
1.0
 50
0.0
 71
     0
 42
3.0
  3
amgdt.shx
  4
extfont.shx
  0
STYLE
  2
ACJISTS
 70
     0
 40
1.0
 41
1.0
 50
0.0
 71
     0
 42
3.0
  3
amgdt.shx
  4
extfont.shx
  0
STYLE
  2
ACJISGDT
 70
     0
 40
0.0
 41
1.0
 50
0.0
 71
     0
 42
3.0
  3
amgdt.shx
  4
extfont.shx
  0
STYLE
  2
YOKO
 70
     0
 40
0.0
 41
1.0
 50
0.0
 71
     0
 42
3.0
  3
romans.shx
  4
extfont.shx
  0
ENDTAB
  0
TABLE
  2
VIEW
 70
     0
  0
ENDTAB
  0
TABLE
  2
UCS
 70
     0
  0
ENDTAB
  0
TABLE
  2
APPID
 70
    40
  0
APPID
  2
ACAD
 70
     0
  0
APPID
  2
GLOBAL
 70
     0
  0
APPID
  2
DETAIL
 70
     0
  0
APPID
  2
GRPNAME
 70
     0
  0
APPID
  2
GPARA
 70
     0
  0
APPID
  2
MCAD_NO_VIS
 70
     0
  0
APPID
  2
ACAD_TEMP_GRAPHIC
 70
     0
  0
APPID
  2
ACATTRIBSERVICES
 70
     0
  0
APPID
  2
GENIUS_GENSCREG_15
 70
     0
  0
APPID
  2
GENIUS_GENODEF_13
 70
     0
  0
APPID
  2
GENIUS_GENOBJ-N-SDF_13
 70
     0
  0
APPID
  2
GENIUS_GENREC_14
 70
     0
  0
APPID
  2
GENIUS_GENOBJ-N-REC_13
 70
     0
  0
APPID
  2
GENIUS_GENDIMSH_14
 70
     0
  0
APPID
  2
GENIUS_GENOBJ-N-DIM_13
 70
     0
  0
APPID
  2
GENIUS_GENDIM_13
 70
     0
  0
APPID
  2
GENIUS_GENDTOL_13
 70
     0
  0
APPID
  2
GENIUS_GENOLIS_13
 70
     0
  0
APPID
  2
GENIUS_GENOENT_13
 70
     0
  0
APPID
  2
GENIUS_GENOBJ-F-FEM_13
 70
     0
  0
APPID
  2
GENIUS_GENOREF_13
 70
     0
  0
APPID
  2
GENIUS_GEFFEM_13
 70
     0
  0
APPID
  2
GENIUS_GEFFEMP_13
 70
     0
  0
APPID
  2
AD_DRAW
 70
     0
  0
APPID
  2
DESIGNERASSEMBLIES
 70
     0
  0
APPID
  2
ACADM_DIM_EDIT
 70
     0
  0
APPID
  2
AMDT_DM_ADJ
 70
     0
  0
APPID
  2
ITEMNAME
 70
     0
  0
APPID
  2
GENIUS_GENOBJ-N-FIL_13
 70
     0
  0
APPID
  2
GENIUS_GENFIL_13
 70
     0
  0
APPID
  2
GENIUS_GENOBJ-N-CHA_13
 70
     0
  0
APPID
  2
ACAD_NAV_VCDISPLAY
 70
     0
  0
APPID
  2
ACAD_PSEXT
 70
     0
  0
APPID
  2
ACAD_DSTYLE_DIMJAG
 70
     0
  0
APPID
  2
ACAD_DSTYLE_DIMBREAK
 70
     0
  0
APPID
  2
ACAD_MLEADERVER
 70
     0
  0
APPID
  2
ACAD_DSTYLE_DIMARC_LENGTH_
 70
     0
  0
APPID
  2
ACAD_DSTYLE_DIM_LINETYPE
 70
     0
  0
APPID
  2
ACAD_DSTYLE_DIM_EXT1_LINETYPE
 70
     0
  0
APPID
  2
ACAD_DSTYLE_DIM_EXT2_LINETYPE
 70
     0
  0
ENDTAB
  0
TABLE
  2
DIMSTYLE
 70
    29
  0
DIMSTYLE
  2
BIGT
 70
     0
  3

  4

  5
OPEN
  6

  7

 40
1.0
 41
2.2299999999999991
 42
0.5
 43
7.0
 44
1.0
 45
0.0
 46
0.0
 47
0.0
 48
0.01
140
2.7999999999999989
141
0.0
142
0.0
143
25.399999999999999
144
1.0
145
0.0
146
1.0
147
1.0
 71
     0
 72
     0
 73
     0
 74
     0
 75
     0
 76
     0
 77
     3
 78
     9
170
     0
171
     2
172
     1
173
     0
174
     1
175
     0
176
   256
177
   256
178
    40
  0
DIMSTYLE
  2
AM_ISO
 70
     0
  3

  4
"
  5

  6

  7

 40
1.0
 41
2.5
 42
1.0
 43
10.0
 44
1.0
 45
0.0
 46
0.0
 47
0.1
 48
0.1
140
3.5
141
0.0
142
0.0
143
0.0393701
144
1.0
145
0.0
146
0.71
147
1.5
 71
     0
 72
     0
 73
     0
 74
     0
 75
     0
 76
     0
 77
     1
 78
     8
170
     0
171
     2
172
     1
173
     0
174
     0
175
     0
176
   256
177
   256
178
     2
  0
DIMSTYLE
  2
AM_ISO$3
 70
     0
  3

  4
"
  5

  6

  7

 40
1.0
 41
2.5
 42
1.0
 43
10.0
 44
1.0
 45
0.0
 46
0.0
 47
0.1
 48
0.1
140
3.5
141
0.0
142
0.0
143
0.0393701
144
1.0
145
0.0
146
0.71
147
1.5
 71
     0
 72
     0
 73
     0
 74
     1
 75
     0
 76
     0
 77
     1
 78
     8
170
     0
171
     2
172
     0
173
     0
174
     0
175
     0
176
   256
177
   256
178
     2
  0
DIMSTYLE
  2
AM_ISO$4
 70
     0
  3

  4
"
  5

  6

  7

 40
1.0
 41
2.5
 42
1.0
 43
10.0
 44
1.0
 45
0.0
 46
0.0
 47
0.1
 48
0.1
140
3.5
141
0.0
142
0.0
143
0.0393701
144
1.0
145
0.0
146
0.71
147
1.5
 71
     0
 72
     0
 73
     0
 74
     1
 75
     0
 76
     0
 77
     1
 78
     8
170
     0
171
     2
172
     0
173
     0
174
     0
175
     0
176
   256
177
   256
178
     2
  0
DIMSTYLE
  2
AM_ISO$6
 70
     0
  3

  4
"
  5

  6

  7

 40
1.0
 41
2.5
 42
1.0
 43
10.0
 44
1.0
 45
0.0
 46
0.0
 47
0.1
 48
0.1
140
3.5
141
0.0
142
0.0
143
0.0393701
144
1.0
145
0.0
146
0.71
147
1.5
 71
     0
 72
     0
 73
     0
 74
     0
 75
     0
 76
     0
 77
     0
 78
     8
170
     0
171
     2
172
     1
173
     0
174
     0
175
     0
176
   256
177
   256
178
     2
  0
DIMSTYLE
  2
AM_ISO$7
 70
     0
  3

  4
"
  5

  6

  7

 40
1.0
 41
2.5
 42
1.0
 43
10.0
 44
1.0
 45
0.0
 46
0.0
 47
0.1
 48
0.1
140
5.0
141
0.0
142
0.0
143
0.0393701
144
1.0
145
0.0
146
0.71
147
1.5
 71
     0
 72
     0
 73
     0
 74
     0
 75
     0
 76
     0
 77
     1
 78
     8
170
     0
171
     2
172
     1
173
     0
174
     0
175
     0
176
   256
177
   256
178
     2
  0
DIMSTYLE
  2
AM_ISO$SF
 70
     0
  3

  4
"
  5

  6

  7

 40
1.0
 41
2.5
 42
1.0
 43
10.0
 44
1.0
 45
0.0
 46
0.0
 47
0.1
 48
0.1
140
3.5
141
0.0
142
0.0
143
0.0393701
144
1.0
145
0.0
146
0.71
147
1.5
 71
     0
 72
     0
 73
     0
 74
     0
 75
     1
 76
     1
 77
     1
 78
     8
170
     0
171
     2
172
     1
173
     0
174
     0
175
     0
176
   256
177
   256
178
     2
  0
DIMSTYLE
  2
AM_ISO$SH
 70
     0
  3

  4
"
  5

  6
GENAXEH
  7

 40
1.0
 41
2.5
 42
1.0
 43
10.0
 44
1.0
 45
0.0
 46
0.0
 47
0.1
 48
0.1
140
3.5
141
0.0
142
0.0
143
0.0393701
144
2.0
145
0.0
146
0.71
147
1.5
 71
     0
 72
     0
 73
     0
 74
     0
 75
     1
 76
     1
 77
     1
 78
     8
170
     0
171
     2
172
     1
173
     1
174
     0
175
     0
176
   256
177
   256
178
     2
  0
DIMSTYLE
  2
BIGT$2
 70
     0
  3

  4

  5
OPEN
  6

  7

 40
1.0
 41
2.2299999999999991
 42
0.5
 43
7.0
 44
1.0
 45
0.0
 46
0.0
 47
0.0
 48
0.01
140
2.7999999999999989
141
0.0
142
0.0
143
25.399999999999999
144
1.0
145
0.0
146
1.0
147
1.0
 71
     0
 72
     0
 73
     0
 74
     0
 75
     0
 76
     0
 77
     3
 78
     9
170
     0
171
     2
172
     1
173
     0
174
     0
175
     0
176
   256
177
   256
178
    40
  0
DIMSTYLE
  2
BIGT$3
 70
     0
  3

  4

  5
OPEN
  6

  7

 40
1.0
 41
2.2299999999999991
 42
0.5
 43
2.5
 44
1.0
 45
0.0
 46
0.0
 47
0.0
 48
0.01
140
2.7999999999999989
141
0.0
142
0.0
143
25.399999999999999
144
1.0
145
0.0
146
1.0
147
1.0
 71
     0
 72
     0
 73
     0
 74
     0
 75
     0
 76
     0
 77
     3
 78
     9
170
     0
171
     2
172
     1
173
     0
174
     0
175
     0
176
   256
177
   256
178
    40
  0
DIMSTYLE
  2
BIGT$7
 70
     0
  3

  4

  5
OPEN
  6

  7

 40
0.0
 41
2.2299999999999991
 42
0.5
 43
7.0
 44
1.0
 45
0.0
 46
0.0
 47
0.0
 48
0.01
140
2.7999999999999989
141
0.0
142
0.0
143
25.399999999999999
144
1.0
145
0.0
146
1.0
147
1.0
 71
     0
 72
     0
 73
     0
 74
     0
 75
     0
 76
     0
 77
     3
 78
     9
170
     0
171
     2
172
     0
173
     0
174
     0
175
     0
176
   256
177
   256
178
    40
  0
DIMSTYLE
  2
BIGT$6
 70
     0
  3

  4

  5
OPEN
  6

  7

 40
1.0
 41
2.2299999999999991
 42
0.5
 43
2.5
 44
1.0
 45
0.0
 46
0.0
 47
0.0
 48
0.01
140
2.7999999999999989
141
0.0
142
0.0
143
25.399999999999999
144
1.0
145
0.0
146
1.0
147
1.0
 71
     0
 72
     0
 73
     0
 74
     0
 75
     0
 76
     0
 77
     3
 78
     9
170
     0
171
     2
172
     1
173
     0
174
     0
175
     0
176
   256
177
   256
178
    40
  0
DIMSTYLE
  2
BIGT$0
 70
     0
  3

  4

  5
OPEN
  6

  7

 40
1.0
 41
2.2299999999999991
 42
0.5
 43
7.0
 44
1.0
 45
0.0
 46
0.0
 47
0.0
 48
0.01
140
2.7999999999999989
141
0.0
142
0.0
143
25.399999999999999
144
1.0
145
0.0
146
1.0
147
1.0
 71
     0
 72
     0
 73
     0
 74
     0
 75
     0
 76
     0
 77
     3
 78
     9
170
     0
171
     2
172
     1
173
     0
174
     1
175
     0
176
   256
177
   256
178
    40
  0
DIMSTYLE
  2
BIGT$4
 70
     0
  3

  4

  5
OPEN
  6

  7

 40
1.0
 41
2.2299999999999991
 42
0.5
 43
2.5
 44
1.0
 45
0.0
 46
0.0
 47
0.0
 48
0.01
140
2.7999999999999989
141
0.0
142
0.0
143
25.399999999999999
144
1.0
145
0.0
146
1.0
147
1.0
 71
     0
 72
     0
 73
     0
 74
     0
 75
     0
 76
     0
 77
     3
 78
     9
170
     0
171
     2
172
     1
173
     0
174
     0
175
     0
176
   256
177
   256
178
    40
  0
DIMSTYLE
  2
BIGT$SH
 70
     0
  3

  4

  5
OPEN
  6

  7

 40
1.0
 41
2.2299999999999991
 42
0.5
 43
7.0
 44
1.0
 45
0.0
 46
0.0
 47
0.0
 48
0.0
140
2.7999999999999989
141
0.0
142
0.0
143
25.399999999999999
144
1.0
145
0.0
146
1.0
147
1.0
 71
     0
 72
     0
 73
     0
 74
     0
 75
     0
 76
     0
 77
     3
 78
     9
170
     0
171
     2
172
     1
173
     0
174
     0
175
     0
176
   256
177
   256
178
    40
  0
DIMSTYLE
  2
BIGT$SF
 70
     0
  3

  4

  5
OPEN
  6

  7

 40
1.0
 41
2.2299999999999991
 42
0.5
 43
7.0
 44
1.0
 45
0.0
 46
0.0
 47
0.0
 48
0.0
140
2.7999999999999989
141
0.0
142
0.0
143
25.399999999999999
144
1.0
145
0.0
146
1.0
147
1.0
 71
     0
 72
     0
 73
     0
 74
     0
 75
     0
 76
     0
 77
     3
 78
     9
170
     0
171
     2
172
     1
173
     0
174
     0
175
     0
176
   256
177
   256
178
    40
  0
DIMSTYLE
  2
TECHNICAL_OSAKA
 70
     0
  3

  4
"
  5
OPEN30
  6

  7

 40
1.0
 41
2.5
 42
1.0
 43
10.0
 44
1.0
 45
0.0
 46
0.0
 47
0.1
 48
0.1
140
2.7999999999999989
141
0.0
142
0.0
143
0.0393701
144
1.0
145
0.0
146
0.71
147
1.5
 71
     0
 72
     0
 73
     0
 74
     0
 75
     0
 76
     0
 77
     3
 78
     8
170
     0
171
     2
172
     1
173
     0
174
     0
175
     0
176
   256
177
   256
178
    40
  0
DIMSTYLE
  2
TECHNICAL_OSAKA$3
 70
     0
  3

  4
"
  5
OPEN30
  6

  7

 40
1.0
 41
2.5
 42
1.0
 43
10.0
 44
1.0
 45
0.0
 46
0.0
 47
0.1
 48
0.1
140
2.7999999999999989
141
0.0
142
0.0
143
0.0393701
144
1.0
145
0.0
146
0.71
147
1.5
 71
     0
 72
     0
 73
     0
 74
     1
 75
     0
 76
     0
 77
     3
 78
     8
170
     0
171
     2
172
     0
173
     0
174
     0
175
     0
176
   256
177
   256
178
    40
  0
DIMSTYLE
  2
TECHNICAL_OSAKA$4
 70
     0
  3

  4
"
  5
OPEN30
  6

  7

 40
1.0
 41
2.5
 42
1.0
 43
10.0
 44
1.0
 45
0.0
 46
0.0
 47
0.1
 48
0.1
140
2.7999999999999989
141
0.0
142
0.0
143
0.0393701
144
1.0
145
0.0
146
0.71
147
1.5
 71
     0
 72
     0
 73
     0
 74
     1
 75
     0
 76
     0
 77
     3
 78
     8
170
     0
171
     2
172
     0
173
     0
174
     0
175
     0
176
   256
177
   256
178
    40
  0
DIMSTYLE
  2
TECHNICAL_OSAKA$6
 70
     0
  3

  4
"
  5
OPEN30
  6

  7

 40
1.0
 41
2.5
 42
1.0
 43
10.0
 44
1.0
 45
0.0
 46
0.0
 47
0.1
 48
0.1
140
2.7999999999999989
141
0.0
142
0.0
143
0.0393701
144
1.0
145
0.0
146
0.71
147
1.5
 71
     0
 72
     0
 73
     0
 74
     0
 75
     0
 76
     0
 77
     0
 78
     8
170
     0
171
     2
172
     1
173
     0
174
     0
175
     0
176
   256
177
   256
178
    40
  0
DIMSTYLE
  2
TECHNICAL_OSAKA$7
 70
     0
  3

  4
"
  5
OPEN30
  6

  7

 40
1.0
 41
2.5
 42
1.0
 43
10.0
 44
1.0
 45
0.0
 46
0.0
 47
0.1
 48
0.1
140
2.7999999999999989
141
0.0
142
0.0
143
0.0393701
144
1.0
145
0.0
146
0.71
147
1.5
 71
     0
 72
     0
 73
     0
 74
     0
 75
     0
 76
     0
 77
     3
 78
     8
170
     0
171
     2
172
     1
173
     0
174
     0
175
     0
176
   256
177
   256
178
    40
  0
DIMSTYLE
  2
TECHNICAL_OSAKA$SF
 70
     0
  3

  4
"
  5
OPEN30
  6
OPEN30
  7
OPEN30
 40
1.0
 41
2.5
 42
1.0
 43
10.0
 44
1.0
 45
0.0
 46
0.0
 47
0.1
 48
0.1
140
3.5
141
0.0
142
0.0
143
0.0393701
144
1.0
145
0.0
146
0.71
147
1.5
 71
     0
 72
     0
 73
     0
 74
     0
 75
     1
 76
     1
 77
     3
 78
     8
170
     0
171
     2
172
     1
173
     0
174
     0
175
     0
176
   256
177
   256
178
    40
  0
DIMSTYLE
  2
TECHNICAL_OSAKA$SH
 70
     0
  3

  4
"
  5
OPEN30
  6
GENAXEH
  7
OPEN30
 40
1.0
 41
2.5
 42
1.0
 43
10.0
 44
1.0
 45
0.0
 46
0.0
 47
0.1
 48
0.1
140
3.5
141
0.0
142
0.0
143
0.0393701
144
2.0
145
0.0
146
0.71
147
1.5
 71
     0
 72
     0
 73
     0
 74
     0
 75
     1
 76
     1
 77
     3
 78
     8
170
     0
171
     2
172
     1
173
     1
174
     0
175
     0
176
   256
177
   256
178
    40
  0
ENDTAB
  0
ENDSEC
  0
SECTION
  2
BLOCKS
  0
BLOCK
  8
0
  2
$MODEL_SPACE
 70
     0
 10
0.0
 20
0.0
 30
0.0
  3
$MODEL_SPACE
  1

  0
ENDBLK
  5
1C
  8
0
  0
BLOCK
 67
     1
  8
0
  2
$PAPER_SPACE
 70
     0
 10
0.0
 20
0.0
 30
0.0
  3
$PAPER_SPACE
  1

  0
ENDBLK
  5
19
 67
     1
  8
0
  0
BLOCK
  8
0
  2
_OPEN
 70
     0
 10
0.0
 20
0.0
 30
0.0
  3
_OPEN
  1

  0
LINE
  5
43AA
  8
0
  6
BYBLOCK
 62
     0
 10
-1.0
 20
0.1666666666666666
 30
0.0
 11
0.0
 21
0.0
 31
0.0
  0
LINE
  5
43AB
  8
0
  6
BYBLOCK
 62
     0
 10
-1.0
 20
-0.1666666666666666
 30
0.0
 11
0.0
 21
0.0
 31
0.0
  0
LINE
  5
43AC
  8
0
  6
BYBLOCK
 62
     0
 10
0.0
 20
0.0
 30
0.0
 11
-1.0
 21
0.0
 31
0.0
  0
ENDBLK
  5
43AD
  8
0
  0
BLOCK
  8
0
  2
GENAXEH
 70
     0
 10
0.0
 20
0.0
 30
0.0
  3
GENAXEH
  1

  0
LINE
  5
43E5
  8
0
 10
-1.0
 20
0.0
 30
0.0
 11
1.0
 21
0.0
 31
0.0
  0
ENDBLK
  5
43E6
  8
0
  0
BLOCK
  8
0
  2
_OPEN30
 70
     0
 10
0.0
 20
0.0
 30
0.0
  3
_OPEN30
  1

  0
LINE
  5
4421
  8
0
  6
BYBLOCK
 62
     0
 10
-1.0
 20
0.26794919
 30
0.0
 11
0.0
 21
0.0
 31
0.0
  0
LINE
  5
4422
  8
0
  6
BYBLOCK
 62
     0
 10
0.0
 20
0.0
 30
0.0
 11
-1.0
 21
-0.26794919
 31
0.0
  0
LINE
  5
4423
  8
0
  6
BYBLOCK
 62
     0
 10
0.0
 20
0.0
 30
0.0
 11
-1.0
 21
0.0
 31
0.0
  0
ENDBLK
  5
4424
  8
0
  0
ENDSEC
  0
SECTION
  2
ENTITIES
  0
LINE
  5
41D7
  8
245
  6
CENTER2
 10
-1.9999999999999709
 20
0.0
 30
0.0
 11
201.75423520580151
 21
0.0
 31
0.0
  0
LINE
  5
41D8
  8
240
 10
-0.0000000000000284
 20
-10.00000000000006
 30
0.0
 11
0.0000000000000323
 21
10.0
 31
0.0
  0
LINE
  5
41DB
  8
240
 10
0.0000000000000323
 20
10.0
 30
0.0
 11
147.65358983849751
 21
9.9999999999999147
 31
0.0
  0
LINE
  5
41DD
  8
240
 10
147.65358983849751
 20
-10.0
 30
0.0
 11
-0.0000000000000284
 21
-10.00000000000006
 31
0.0
  0
LINE
  5
41E8
  8
240
 10
148.0000000000002
 20
9.7999999999999545
 30
0.0
 11
156.1133856182206
 21
9.7999999999999545
 31
0.0
  0
LINE
  5
41E9
  8
240
 10
148.0000000000002
 20
9.7999999999999545
 30
0.0
 11
147.6535898384862
 21
10.0
 31
0.0
  0
LINE
  5
41EA
  8
240
 10
148.0000000000002
 20
-9.7999999999999545
 30
0.0
 11
156.1133856182206
 21
-9.7999999999999545
 31
0.0
  0
LINE
  5
41EB
  8
240
 10
148.0000000000002
 20
-9.7999999999999545
 30
0.0
 11
147.65358983848671
 21
-10.0
 31
0.0
  0
LINE
  5
41EC
  8
241
  6
CONTINUOUS
 10
148.0000000000002
 20
-9.8000000000000682
 30
0.0
 11
148.0000000000002
 21
9.7999999999999545
 31
0.0
  0
LINE
  5
41EE
  8
241
  6
CONTINUOUS
 10
156.1133856182274
 20
-9.7999999999998408
 30
0.0
 11
156.1133856182274
 21
9.7999999999999545
 31
0.0
  0
LINE
  5
41F1
  8
240
 10
200.0
 20
-7.4999999999999254
 30
0.0
 11
199.9999999999998
 21
7.4999999999998836
 31
0.0
  0
LINE
  5
41F5
  8
243
  6
HIDDEN2
 10
199.9999999999998
 20
5.9999999999999556
 30
0.0
 11
163.9999999999994
 21
6.0000000000001981
 31
0.0
  0
LINE
  5
41F6
  8
240
 10
156.1133856182206
 20
9.7999999999999261
 30
0.0
 11
199.9999999999998
 21
7.4999999999998836
 31
0.0
  0
LINE
  5
41F7
  8
240
 10
156.11338561822731
 20
-9.7999999999998693
 30
0.0
 11
200.0
 21
-7.4999999999999254
 31
0.0
  0
LINE
  5
41FD
  8
243
  6
HIDDEN2
 10
199.99999999999989
 20
-5.999999999999341
 30
0.0
 11
163.99999999999949
 21
-6.0000000000000879
 31
0.0
  0
LINE
  5
4234
  8
250
  6
CONTINUOUS
 10
164.0
 20
6.4999999999999734
 30
0.0
 11
164.0
 21
21.999999999999972
 31
0.0
  0
LINE
  5
4235
  8
250
  6
CONTINUOUS
 10
200.0
 20
7.9999999999999734
 30
0.0
 11
200.0
 21
21.999999999999972
 31
0.0
  0
LINE
  5
4236
  8
250
  6
CONTINUOUS
 10
166.22999999999999
 20
20.999999999999972
 30
0.0
 11
197.77000000000001
 21
20.999999999999972
 31
0.0
  0
LINE
  5
4237
  8
250
  6
CONTINUOUS
 10
166.22999999999999
 20
20.628333333333309
 30
0.0
 11
164.0
 21
20.999999999999972
 31
0.0
  0
LINE
  5
4238
  8
250
  6
CONTINUOUS
 10
166.22999999999999
 20
21.371666666666641
 30
0.0
 11
164.0
 21
20.999999999999972
 31
0.0
  0
LINE
  5
4239
  8
250
  6
CONTINUOUS
 10
164.0
 20
20.999999999999972
 30
0.0
 11
166.22999999999999
 21
20.999999999999972
 31
0.0
  0
LINE
  5
423A
  8
250
  6
CONTINUOUS
 10
197.77000000000001
 20
21.371666666666641
 30
0.0
 11
200.0
 21
20.999999999999972
 31
0.0
  0
LINE
  5
423B
  8
250
  6
CONTINUOUS
 10
197.77000000000001
 20
20.628333333333309
 30
0.0
 11
200.0
 21
20.999999999999972
 31
0.0
  0
LINE
  5
423C
  8
250
  6
CONTINUOUS
 10
200.0
 20
20.999999999999972
 30
0.0
 11
197.77000000000001
 21
20.999999999999972
 31
0.0
  0
TEXT
  5
423D
  8
250
  6
CONTINUOUS
 10
179.33333333333329
 20
21.999999999999972
 30
0.0
 40
2.7999999999999989
  1
36
1001
ACAD
1000
MTEXTBEGIN
1070
    73
1070
     1
1070
    44
1040
1.0
1070
    74
1070
     0
1000
MTEXTEND
  0
LINE
  5
423E
  8
250
  6
CONTINUOUS
 10
130.0
 20
6.7999999999999732
 30
0.0
 11
130.0
 21
28.999999999999972
 31
0.0
  0
LINE
  5
423F
  8
250
  6
CONTINUOUS
 10
200.0
 20
7.9999999999999734
 30
0.0
 11
200.0
 21
28.999999999999972
 31
0.0
  0
LINE
  5
4240
  8
250
  6
CONTINUOUS
 10
132.22999999999999
 20
27.999999999999972
 30
0.0
 11
197.77000000000001
 21
27.999999999999972
 31
0.0
  0
LINE
  5
4241
  8
250
  6
CONTINUOUS
 10
132.22999999999999
 20
27.628333333333309
 30
0.0
 11
130.0
 21
27.999999999999972
 31
0.0
  0
LINE
  5
4242
  8
250
  6
CONTINUOUS
 10
132.22999999999999
 20
28.371666666666641
 30
0.0
 11
130.0
 21
27.999999999999972
 31
0.0
  0
LINE
  5
4243
  8
250
  6
CONTINUOUS
 10
130.0
 20
27.999999999999972
 30
0.0
 11
132.22999999999999
 21
27.999999999999972
 31
0.0
  0
LINE
  5
4244
  8
250
  6
CONTINUOUS
 10
197.77000000000001
 20
28.371666666666641
 30
0.0
 11
200.0
 21
27.999999999999972
 31
0.0
  0
LINE
  5
4245
  8
250
  6
CONTINUOUS
 10
197.77000000000001
 20
27.628333333333309
 30
0.0
 11
200.0
 21
27.999999999999972
 31
0.0
  0
LINE
  5
4246
  8
250
  6
CONTINUOUS
 10
200.0
 20
27.999999999999972
 30
0.0
 11
197.77000000000001
 21
27.999999999999972
 31
0.0
  0
TEXT
  5
4247
  8
250
  6
CONTINUOUS
 10
154.37333333333331
 20
28.999999999999972
 30
0.0
 40
2.7999999999999989
  1
üimax.70üj
1001
ACAD
1000
MTEXTBEGIN
1070
    73
1070
     1
1070
    44
1040
1.0
1070
    74
1070
     0
1000
MTEXTEND
  0
LINE
  5
4248
  8
250
  6
CONTINUOUS
 10
0.0000000000000019
 20
10.5
 30
0.0
 11
0.0000000000000019
 21
35.999999999999972
 31
0.0
  0
LINE
  5
4249
  8
250
  6
CONTINUOUS
 10
200.0
 20
7.9999999999999734
 30
0.0
 11
200.0
 21
35.999999999999972
 31
0.0
  0
LINE
  5
424A
  8
250
  6
CONTINUOUS
 10
2.2300000000000009
 20
34.999999999999972
 30
0.0
 11
197.77000000000001
 21
34.999999999999972
 31
0.0
  0
LINE
  5
424B
  8
250
  6
CONTINUOUS
 10
2.2300000000000009
 20
34.628333333333302
 30
0.0
 11
0.0000000000000019
 21
34.999999999999972
 31
0.0
  0
LINE
  5
424C
  8
250
  6
CONTINUOUS
 10
2.2300000000000009
 20
35.371666666666641
 30
0.0
 11
0.0000000000000019
 21
34.999999999999972
 31
0.0
  0
LINE
  5
424D
  8
250
  6
CONTINUOUS
 10
0.0000000000000019
 20
34.999999999999972
 30
0.0
 11
2.2300000000000009
 21
34.999999999999972
 31
0.0
  0
LINE
  5
424E
  8
250
  6
CONTINUOUS
 10
197.77000000000001
 20
35.371666666666641
 30
0.0
 11
200.0
 21
34.999999999999972
 31
0.0
  0
LINE
  5
424F
  8
250
  6
CONTINUOUS
 10
197.77000000000001
 20
34.628333333333302
 30
0.0
 11
200.0
 21
34.999999999999972
 31
0.0
  0
LINE
  5
4250
  8
250
  6
CONTINUOUS
 10
200.0
 20
34.999999999999972
 30
0.0
 11
197.77000000000001
 21
34.999999999999972
 31
0.0
  0
TEXT
  5
4251
  8
250
  6
CONTINUOUS
 10
96.0
 20
35.999999999999972
 30
0.0
 40
2.7999999999999989
  1
200
1001
ACAD
1000
MTEXTBEGIN
1070
    73
1070
     1
1070
    44
1040
1.0
1070
    74
1070
     0
1000
MTEXTEND
  0
LINE
  5
4252
  8
250
  6
CONTINUOUS
 10
200.5
 20
5.9999999999999734
 30
0.0
 11
212.0
 21
5.9999999999999734
 31
0.0
  0
LINE
  5
4253
  8
250
  6
CONTINUOUS
 10
211.0
 20
-3.7700000000000262
 30
0.0
 11
211.0
 21
3.7699999999999729
 31
0.0
  0
LINE
  5
4254
  8
250
  6
CONTINUOUS
 10
210.6283333333333
 20
3.7699999999999729
 30
0.0
 11
211.0
 21
5.9999999999999734
 31
0.0
  0
LINE
  5
4255
  8
250
  6
CONTINUOUS
 10
211.3716666666667
 20
3.7699999999999729
 30
0.0
 11
211.0
 21
5.9999999999999734
 31
0.0
  0
LINE
  5
4256
  8
250
  6
CONTINUOUS
 10
211.0
 20
5.9999999999999734
 30
0.0
 11
211.0
 21
3.7699999999999729
 31
0.0
  0
TEXT
  5
4257
  8
250
  6
CONTINUOUS
 10
210.0
 20
-3.933333333333358
 30
0.0
 40
2.7999999999999989
  1
\U+220512
 50
90.0
1001
ACAD
1000
MTEXTBEGIN
1070
    73
1070
     1
1070
    44
1040
1.0
1070
    74
1070
     0
1000
MTEXTEND
  0
LINE
  5
4258
  8
250
  6
CONTINUOUS
 10
200.5
 20
-7.5000000000000258
 30
0.0
 11
219.0
 21
-7.5000000000000258
 31
0.0
  0
LINE
  5
4259
  8
250
  6
CONTINUOUS
 10
200.5
 20
7.4999999999999734
 30
0.0
 11
219.0
 21
7.4999999999999734
 31
0.0
  0
LINE
  5
425A
  8
250
  6
CONTINUOUS
 10
218.0
 20
-5.2700000000000262
 30
0.0
 11
218.0
 21
5.269999999999972
 31
0.0
  0
LINE
  5
425B
  8
250
  6
CONTINUOUS
 10
218.3716666666667
 20
-5.2700000000000262
 30
0.0
 11
218.0
 21
-7.5000000000000258
 31
0.0
  0
LINE
  5
425C
  8
250
  6
CONTINUOUS
 10
217.62833333333339
 20
-5.2700000000000262
 30
0.0
 11
218.0
 21
-7.5000000000000258
 31
0.0
  0
LINE
  5
425D
  8
250
  6
CONTINUOUS
 10
218.0
 20
-7.5000000000000258
 30
0.0
 11
218.0
 21
-5.2700000000000262
 31
0.0
  0
LINE
  5
425E
  8
250
  6
CONTINUOUS
 10
217.62833333333339
 20
5.269999999999972
 30
0.0
 11
218.0
 21
7.4999999999999734
 31
0.0
  0
LINE
  5
425F
  8
250
  6
CONTINUOUS
 10
218.3716666666667
 20
5.269999999999972
 30
0.0
 11
218.0
 21
7.4999999999999734
 31
0.0
  0
LINE
  5
4260
  8
250
  6
CONTINUOUS
 10
218.0
 20
7.4999999999999734
 30
0.0
 11
218.0
 21
5.269999999999972
 31
0.0
  0
TEXT
  5
4261
  8
250
  6
CONTINUOUS
 10
217.0
 20
-3.9333333333333589
 30
0.0
 40
2.7999999999999989
  1
\U+220515
 50
90.0
1001
ACAD
1000
MTEXTBEGIN
1070
    73
1070
     1
1070
    44
1040
1.0
1070
    74
1070
     0
1000
MTEXTEND
  0
TEXT
  5
4262
  8
241
  6
CONTINUOUS
 10
0.0000000000000019
 20
48.999999999999972
 30
0.0
 40
5.0
  1
ST20-SRC12SS-200
  7
YOKO
 11
0.0000000000000019
 21
48.999999999999972
 31
0.0
 73
     1
  0
LINE
  5
4263
  8
250
  6
CONTINUOUS
 10
200.5000000000002
 20
-6.0000000000000009
 30
0.0
 11
212.00000000000011
 21
-5.9999999999997344
 31
0.0
  0
LINE
  5
4264
  8
250
  6
CONTINUOUS
 10
210.62833333333339
 20
-3.769999999999766
 30
0.0
 11
211.0000000000002
 21
-5.9999999999997566
 31
0.0
  0
LINE
  5
4265
  8
250
  6
CONTINUOUS
 10
211.37166666666681
 20
-3.7699999999997491
 30
0.0
 11
211.0000000000002
 21
-5.9999999999997566
 31
0.0
  0
LINE
  5
4266
  8
250
  6
CONTINUOUS
 10
211.0000000000002
 20
-5.9999999999997566
 30
0.0
 11
211.00000000000011
 21
-3.7699999999997571
 31
0.0
  0
LINE
  5
42D2
  8
250
  6
CONTINUOUS
 10
18.303552575926389
 20
-11.565384141331281
 30
0.0
 11
19.59222771
 21
-10.00000000000002
 31
0.0
  0
LINE
  5
42D3
  8
250
  6
CONTINUOUS
 10
18.880902845226998
 20
-11.89871747447242
 30
0.0
 11
19.59222771
 21
-10.00000000000002
 31
0.0
  0
LINE
  5
42D4
  8
250
  6
CONTINUOUS
 10
19.59222771
 20
-10.00000000000002
 30
0.0
 11
18.59222771057669
 21
-11.73205080790185
 31
0.0
  0
LINE
  5
42D5
  8
250
  6
CONTINUOUS
 10
18.59222771057669
 20
-11.73205080790185
 30
0.0
 11
13.14916605
 21
-21.159710160000031
 31
0.0
1001
ACAD
1000
DSTYLE
1002
{
1070
     6
1000
OPEN
1070
    41
1040
2.0
1070
    42
1040
2.0
1070
    44
1040
2.0
1070
   140
1040
4.0
1070
   343
1005
0
1002
}
  0
TEXT
  5
42D6
  8
250
  6
CONTINUOUS
 10
0.6158327100000013
 20
-20.159710160000031
 30
0.0
 40
2.799999999999998
  1
ST20
  7
YOKO
1001
ITEMNAME
1000
LNSP3
  0
LINE
  5
42D7
  8
250
  6
CONTINUOUS
 10
13.14916605
 20
-21.159710160000031
 30
0.0
 11
-1.784167289999997
 21
-21.159710160000031
 31
0.0
1001
ITEMNAME
1000
LNSP2
  0
LINE
  5
42D8
  8
247
  6
CONTINUOUS
 10
6.7499999999299982
 20
-6.0000000000000258
 30
0.0
 11
13.442307691970001
 21
-6.0000000000000258
 31
0.0
  0
ARC
  5
42D9
  8
247
  6
CONTINUOUS
 10
6.7499999999299982
 20
-4.2500000000700568
 30
0.0
 40
1.7499999999299991
 50
90.0
 51
270.0
  0
ARC
  5
42DA
  8
247
  6
CONTINUOUS
 10
13.442307691970001
 20
-4.2500000000700568
 30
0.0
 40
1.7499999999299991
 50
270.0
 51
90.0
  0
LINE
  5
42DB
  8
247
  6
CONTINUOUS
 10
7.6153846152799929
 20
-2.5000000001400879
 30
0.0
 11
6.7551484580379944
 21
-5.5000000000200338
 31
0.0
  0
LINE
  5
42DC
  8
247
  6
CONTINUOUS
 10
8.5150161816641816
 20
-3.9230769231599218
 30
0.0
 11
7.2073238740241843
 21
-3.9230769231599218
 31
0.0
  0
ARC
  5
42DD
  8
247
  6
CONTINUOUS
 10
8.8548561839102131
 20
-3.0495986677028921
 30
0.0
 40
0.5538165441895349
 50
342.99788967529543
 51
82.924166218512795
  0
ARC
  5
42DE
  8
247
  6
CONTINUOUS
 10
8.4331216769712132
 20
-2.936033044465856
 30
0.0
 40
0.9904354236226808
 50
274.74293685220141
 51
343.84922627326642
1001
GENIUS_GENOBJ-N-FIL_13
1002
{
1000
OWNER
1000
GEN
1002
}
1001
GENIUS_GENODEF_13
1002
{
1000
HIER
1070
     0
1002
}
1002
{
1000
MANEDIT
1070
     0
1002
}
1002
{
1000
NOSEL
1070
     0
1002
}
1002
{
1000
BEHIND
1070
     0
1002
}
1002
{
1000
OTHER
1070
     0
1002
}
1002
{
1000
REACTOR
1002
}
  0
LINE
  5
42DF
  8
247
  6
CONTINUOUS
 10
8.0628407656779881
 20
-5.5000000000200338
 30
0.0
 11
6.7551484580379944
 21
-5.5000000000200338
 31
0.0
  0
LINE
  5
42E0
  8
247
  6
CONTINUOUS
 10
7.6153846152799929
 20
-2.5000000001400879
 30
0.0
 11
8.9230769229200053
 21
-2.5000000001400879
 31
0.0
  0
ARC
  5
42E1
  8
247
  6
CONTINUOUS
 10
8.4390803634530318
 20
-4.4820242326655064
 30
0.0
 40
0.5640818586791229
 50
335.99094165252171
 51
82.263443459069123
  0
ARC
  5
42E2
  8
247
  6
CONTINUOUS
 10
7.9617373146529351
 20
-4.4874290391865337
 30
0.0
 40
1.0176059446230981
 50
275.70198516425808
 51
347.27733843682228
1001
GENIUS_GENOBJ-N-FIL_13
1002
{
1000
OWNER
1000
GEN
1002
}
1001
GENIUS_GENODEF_13
1002
{
1000
HIER
1070
     0
1002
}
1002
{
1000
MANEDIT
1070
     0
1002
}
1002
{
1000
NOSEL
1070
     0
1002
}
1002
{
1000
BEHIND
1070
     0
1002
}
1002
{
1000
OTHER
1070
     0
1002
}
1002
{
1000
REACTOR
1002
}
  0
LINE
  5
42E3
  8
247
  6
CONTINUOUS
 10
9.7166869194580023
 20
-5.5000000000200338
 30
0.0
 11
10.576923076699989
 21
-2.5000000001400879
 31
0.0
  0
LINE
  5
42E4
  8
247
  6
CONTINUOUS
 10
12.99999999968
 20
-2.5000000001400879
 30
0.0
 11
12.434263380543401
 21
-2.5000000001400879
 31
0.0
  0
LINE
  5
42E5
  8
247
  6
CONTINUOUS
 10
11.538461538200011
 20
-5.5000000000200338
 30
0.0
 11
12.153846153559989
 21
-5.5000000000200338
 31
0.0
  0
ARC
  5
42E6
  8
247
  6
CONTINUOUS
 10
13.29120879087713
 20
-4.5832851359733953
 30
0.0
 40
2.2526500823422122
 50
112.35948814152999
 51
164.99324854284609
  0
ARC
  5
42E7
  8
247
  6
CONTINUOUS
 10
12.62593052078677
 20
-3.308312655194666
 30
0.0
 40
0.8906723995727782
 50
4.9945893190753656
 51
65.166328957300507
1001
GENIUS_GENOBJ-N-FIL_13
1002
{
1000
OWNER
1000
GEN
1002
}
1001
GENIUS_GENODEF_13
1002
{
1000
HIER
1070
     0
1002
}
1002
{
1000
MANEDIT
1070
     0
1002
}
1002
{
1000
NOSEL
1070
     0
1002
}
1002
{
1000
BEHIND
1070
     0
1002
}
1002
{
1000
OTHER
1070
     0
1002
}
1002
{
1000
REACTOR
1002
}
  0
ARC
  5
42E8
  8
247
  6
CONTINUOUS
 10
11.77354111378742
 20
-4.1601458886678104
 30
0.0
 40
1.392781735586712
 50
285.84609655578078
 51
352.32513700416251
  0
ARC
  5
42E9
  8
247
  6
CONTINUOUS
 10
12.35778727415963
 20
-4.4592434315273088
 30
0.0
 40
1.324563662670287
 50
159.71360167049011
 51
231.7887456564122
1001
GENIUS_GENOBJ-N-FIL_13
1002
{
1000
OWNER
1000
GEN
1002
}
1001
GENIUS_GENODEF_13
1002
{
1000
HIER
1070
     0
1002
}
1002
{
1000
MANEDIT
1070
     0
1002
}
1002
{
1000
NOSEL
1070
     0
1002
}
1002
{
1000
BEHIND
1070
     0
1002
}
1002
{
1000
OTHER
1070
     0
1002
}
1002
{
1000
REACTOR
1002
}
  0
LINE
  5
42EA
  8
247
  6
CONTINUOUS
 10
12.46153846124
 20
-4.3461538462200018
 30
0.0
 11
13.153846153519989
 21
-4.3461538462200018
 31
0.0
  0
LINE
  5
42EB
  8
247
  6
CONTINUOUS
 10
6.7499999999299689
 20
-2.5000000001400879
 30
0.0
 11
7.4230769229799307
 21
-2.5000000001400879
 31
0.0
  0
VIEWPORT
  5
22
 67
     1
  8
0
 10
261.51769911504419
 20
148.5
 30
0.0
 40
523.0353982300885
 41
297.0
 68
     1
 69
     1
1001
ACAD
1000
MVIEW
1002
{
1070
    16
1010
0.0
1020
0.0
1030
0.0
1010
0.0
1020
0.0
1030
1.0
1040
0.0
1040
297.0
1040
261.51769911504419
1040
148.5
1040
50.0
1040
0.0
1040
0.0
1070
     0
1070
   100
1070
     1
1070
     1
1070
     0
1070
     0
1070
     0
1070
     0
1040
0.0
1040
0.0
1040
0.0
1040
1.0
1040
1.0
1040
10.0
1040
10.0
1070
     0
1002
{
1002
}
1002
}
1001
GENIUS_GENODEF_13
1002
{
1000
HIER
1070
     0
1002
}
1002
{
1000
MANEDIT
1070
     0
1002
}
1002
{
1000
NOSEL
1070
     0
1002
}
1002
{
1000
BEHIND
1070
     0
1002
}
1002
{
1000
OTHER
1070
     0
1002
}
1002
{
1000
REACTOR
1002
}
1001
GENIUS_GENOBJ-N-SDF_13
1002
{
1000
OWNER
1000
GEN
1002
}
1001
GENIUS_GENSCREG_15
1000
PF
1040
1.0
1000
DF
1040
1.0
1000
MIN
1011
0.0
1021
0.0
1031
0.0
1021
0.0
1031
0.0
1000
MAX
1011
523.0353982300885
1021
0.0
1031
0.0
1021
297.0
1031
0.0
1000
FLAGS
1070
     4
  0
ENDSEC
  0
EOF
