  0
SECTION
  2
HEADER
  9
$ACADVER
  1
AC1009
  9
$INSBASE
 10
0.0
 20
0.0
 30
0.0
  9
$EXTMIN
 10
-125.554457029703
 20
-21.15971015999995
 30
0.0
  9
$EXTMAX
 10
58.613093322656368
 20
54.000000000000021
 30
0.0
  9
$LIMMIN
 10
0.0
 20
0.0
  9
$LIMMAX
 10
297.0
 20
210.0
  9
$ORTHOMODE
 70
     0
  9
$REGENMODE
 70
     1
  9
$FILLMODE
 70
     1
  9
$QTEXTMODE
 70
     0
  9
$MIRRTEXT
 70
     1
  9
$DRAGMODE
 70
     2
  9
$LTSCALE
 40
10.0
  9
$OSMODE
 70
    32
  9
$ATTMODE
 70
     1
  9
$TEXTSIZE
 40
3.0
  9
$TRACEWID
 40
1.0
  9
$TEXTSTYLE
  7
YOKO
  9
$CLAYER
  8
240
  9
$CELTYPE
  6
BYLAYER
  9
$CECOLOR
 62
   256
  9
$DIMSCALE
 40
1.0
  9
$DIMASZ
 40
2.2299999999999991
  9
$DIMEXO
 40
0.5
  9
$DIMDLI
 40
7.0
  9
$DIMRND
 40
0.0
  9
$DIMDLE
 40
0.0
  9
$DIMEXE
 40
1.0
  9
$DIMTP
 40
0.0
  9
$DIMTM
 40
0.01
  9
$DIMTXT
 40
2.7999999999999989
  9
$DIMCEN
 40
0.0
  9
$DIMTSZ
 40
0.0
  9
$DIMTOL
 70
     0
  9
$DIMLIM
 70
     0
  9
$DIMTIH
 70
     0
  9
$DIMTOH
 70
     0
  9
$DIMSE1
 70
     0
  9
$DIMSE2
 70
     0
  9
$DIMTAD
 70
     3
  9
$DIMZIN
 70
     9
  9
$DIMBLK
  1
OPEN
  9
$DIMASO
 70
     1
  9
$DIMSHO
 70
     1
  9
$DIMPOST
  1

  9
$DIMAPOST
  1

  9
$DIMALT
 70
     0
  9
$DIMALTD
 70
     2
  9
$DIMALTF
 40
25.399999999999999
  9
$DIMLFAC
 40
1.0
  9
$DIMTOFL
 70
     1
  9
$DIMTVP
 40
0.0
  9
$DIMTIX
 70
     1
  9
$DIMSOXD
 70
     0
  9
$DIMSAH
 70
     0
  9
$DIMBLK1
  1

  9
$DIMBLK2
  1

  9
$DIMSTYLE
  2
BIGT
  9
$DIMCLRD
 70
   256
  9
$DIMCLRE
 70
   256
  9
$DIMCLRT
 70
    40
  9
$DIMTFAC
 40
1.0
  9
$DIMGAP
 40
1.0
  9
$LUNITS
 70
     2
  9
$LUPREC
 70
     6
  9
$SKETCHINC
 40
1.0
  9
$FILLETRAD
 40
0.0
  9
$AUNITS
 70
     0
  9
$AUPREC
 70
     6
  9
$MENU
  1
.
  9
$ELEVATION
 40
0.0
  9
$PELEVATION
 40
0.0
  9
$THICKNESS
 40
0.0
  9
$LIMCHECK
 70
     0
  9
$BLIPMODE
 70
     0
  9
$CHAMFERA
 40
0.2
  9
$CHAMFERB
 40
0.2
  9
$SKPOLY
 70
     0
  9
$TDCREATE
 40
2457841.3849189011
  9
$TDUPDATE
 40
2457841.3912900351
  9
$TDINDWG
 40
0.0054665278
  9
$TDUSRTIMER
 40
0.0054665046
  9
$USRTIMER
 70
     1
  9
$ANGBASE
 50
0.0
  9
$ANGDIR
 70
     0
  9
$PDMODE
 70
     1
  9
$PDSIZE
 40
0.0
  9
$PLINEWID
 40
0.0
  9
$COORDS
 70
     1
  9
$SPLFRAME
 70
     0
  9
$SPLINETYPE
 70
     6
  9
$SPLINESEGS
 70
     4
  9
$ATTDIA
 70
     1
  9
$ATTREQ
 70
     1
  9
$HANDLING
 70
     1
  9
$HANDSEED
  5
44E9
  9
$SURFTAB1
 70
     6
  9
$SURFTAB2
 70
     6
  9
$SURFTYPE
 70
     6
  9
$SURFU
 70
     6
  9
$SURFV
 70
     6
  9
$UCSNAME
  2

  9
$UCSORG
 10
0.0
 20
0.0
 30
0.0
  9
$UCSXDIR
 10
1.0
 20
0.0
 30
0.0
  9
$UCSYDIR
 10
0.0
 20
1.0
 30
0.0
  9
$PUCSNAME
  2

  9
$PUCSORG
 10
0.0
 20
0.0
 30
0.0
  9
$PUCSXDIR
 10
1.0
 20
0.0
 30
0.0
  9
$PUCSYDIR
 10
0.0
 20
1.0
 30
0.0
  9
$USERI1
 70
     1
  9
$USERI2
 70
     0
  9
$USERI3
 70
     0
  9
$USERI4
 70
     0
  9
$USERI5
 70
     0
  9
$USERR1
 40
0.0
  9
$USERR2
 40
0.0
  9
$USERR3
 40
0.0
  9
$USERR4
 40
0.0
  9
$USERR5
 40
0.0
  9
$WORLDVIEW
 70
     1
  9
$SHADEDGE
 70
     3
  9
$SHADEDIF
 70
    70
  9
$TILEMODE
 70
     1
  9
$MAXACTVP
 70
    16
  9
$PLIMCHECK
 70
     0
  9
$PEXTMIN
 10
1.0000000000000000E+020
 20
1.0000000000000000E+020
 30
1.0000000000000000E+020
  9
$PEXTMAX
 10
-1.0000000000000000E+020
 20
-1.0000000000000000E+020
 30
-1.0000000000000000E+020
  9
$PLIMMIN
 10
0.0
 20
0.0
  9
$PLIMMAX
 10
420.0
 20
297.0
  9
$UNITMODE
 70
     0
  9
$VISRETAIN
 70
     1
  9
$PLINEGEN
 70
     0
  9
$PSLTSCALE
 70
     1
  0
ENDSEC
  0
SECTION
  2
TABLES
  0
TABLE
  2
VPORT
 70
     1
  0
VPORT
  2
*ACTIVE
 70
     0
 10
0.0
 20
0.0
 11
1.0
 21
1.0
 12
-29.52773969531755
 22
20.236627899143681
 13
0.0
 23
0.0
 14
7.0
 24
7.0
 15
7.0
 25
7.0
 16
0.0
 26
0.0
 36
1.0
 17
0.0
 27
0.0
 37
0.0
 40
166.86739213090459
 41
1.521358159912376
 42
50.0
 43
0.0
 44
0.0
 50
0.0
 51
0.0
 71
     0
 72
  2000
 73
     1
 74
     0
 75
     0
 76
     1
 77
     0
 78
     0
  0
ENDTAB
  0
TABLE
  2
LTYPE
 70
    18
  0
LTYPE
  2
CONTINUOUS
 70
     0
  3
Solid line
 72
    65
 73
     0
 40
0.0
  0
LTYPE
  2
CENTER2
 70
     0
  3
___ _ ___ _ ___ _ ___ _ ___ _ ___ _ ___ _ ___ _
 72
    65
 73
     4
 40
1.125
 49
0.75
 49
-0.125
 49
0.125
 49
-0.125
  0
LTYPE
  2
AM_ISO02W050
 70
     0
  3
__ __ __ __ __ __ __ __ __ __ __ __ __ __ __
 72
    65
 73
     2
 40
7.5
 49
6.0
 49
-1.5
  0
LTYPE
  2
AMCONSTR
 70
     0
  3
_______________________
 72
    65
 73
     2
 40
9999.0
 49
9999.0
 49
0.0
  0
LTYPE
  2
ACISOWELD
 70
     0
  3
_ _ _ _ _
 72
    65
 73
     2
 40
2.0
 49
2.0
 49
-1.0
  0
LTYPE
  2
ACISOTGB
 70
     0
  3
__ . . __ . .
 72
    65
 73
     6
 40
9.0
 49
4.0
 49
-1.0
 49
1.0
 49
-1.0
 49
1.0
 49
-1.0
  0
LTYPE
  2
ACISOTGL
 70
     0
  3
_ _ _ _ _
 72
    65
 73
     2
 40
3.0
 49
2.0
 49
-1.0
  0
LTYPE
  2
AM_ISO08W050
 70
     0
  3
____ . ____ . ____ . ____ . ____ . ____ . ____
 72
    65
 73
     4
 40
18.0
 49
12.0
 49
-1.5
 49
3.0
 49
-1.5
  0
LTYPE
  2
AM_ISO09W050
 70
     0
  3
_____ . . _____ . . _____ . . ____ .. ____
 72
    65
 73
     6
 40
22.5
 49
12.0
 49
-1.5
 49
3.0
 49
-1.5
 49
3.0
 49
-1.5
  0
LTYPE
  2
AM_ISO08W050X2
 70
     0
  3
__ . __ . __ . __ . __ . __
 72
    65
 73
     4
 40
9.0
 49
6.0
 49
-0.75
 49
1.5
 49
-0.75
  0
LTYPE
  2
AM_ISO02W050X2
 70
     0
  3
 _ _ _ _ _ _ _ _ _ _ _ _
 72
    65
 73
     2
 40
3.75
 49
3.0
 49
-0.75
  0
LTYPE
  2
AMZIGZAG
 70
     0
  3
/\/-/\/-/\/-/\/-/\/-/\/
 72
    65
 73
     2
 40
11.0001
 49
0.0001
 49
-11.0
  0
ENDTAB
  0
TABLE
  2
LAYER
 70
     7
  0
LAYER
  2
0
 70
     0
 62
     7
  6
CONTINUOUS
  0
LAYER
  2
DEFPOINTS
 70
     0
 62
     7
  6
CONTINUOUS
  0
LAYER
  2
245
 70
     0
 62
     2
  6
CENTER2
  0
LAYER
  2
240
 70
     0
 62
     4
  6
CONTINUOUS
  0
LAYER
  2
241
 70
     0
 62
   211
  6
CONTINUOUS
  0
LAYER
  2
247
 70
     0
 62
    60
  6
CONTINUOUS
  0
LAYER
  2
250
 70
     0
 62
     3
  6
CONTINUOUS
  0
ENDTAB
  0
TABLE
  2
STYLE
 70
     7
  0
STYLE
  2
STANDARD
 70
     0
 40
0.0
 41
1.0
 50
0.0
 71
     0
 42
3.0
  3
romans.shx
  4
extfont.shx
  0
STYLE
  2
ACISOGDT
 70
     0
 40
0.0
 41
1.0
 50
0.0
 71
     0
 42
3.0
  3
amgdt.shx
  4
extfont.shx
  0
STYLE
  2
YOKO
 70
     0
 40
0.0
 41
1.0
 50
0.0
 71
     0
 42
3.0
  3
romans.shx
  4
extfont.shx
  0
STYLE
  2

 70
     1
 40
0.0
 41
1.0
 50
0.0
 71
     0
 42
3.0
  3
genltshp.shx
  4

  0
ENDTAB
  0
TABLE
  2
VIEW
 70
     0
  0
ENDTAB
  0
TABLE
  2
UCS
 70
     0
  0
ENDTAB
  0
TABLE
  2
APPID
 70
    39
  0
APPID
  2
ACAD
 70
     0
  0
APPID
  2
GLOBAL
 70
     0
  0
APPID
  2
DETAIL
 70
     0
  0
APPID
  2
GRPNAME
 70
     0
  0
APPID
  2
GPARA
 70
     0
  0
APPID
  2
MCAD_NO_VIS
 70
     0
  0
APPID
  2
ACAD_TEMP_GRAPHIC
 70
     0
  0
APPID
  2
ACATTRIBSERVICES
 70
     0
  0
APPID
  2
GENIUS_GENSCREG_15
 70
     0
  0
APPID
  2
GENIUS_GENODEF_13
 70
     0
  0
APPID
  2
GENIUS_GENOBJ-N-SDF_13
 70
     0
  0
APPID
  2
GENIUS_GENREC_14
 70
     0
  0
APPID
  2
GENIUS_GENOBJ-N-REC_13
 70
     0
  0
APPID
  2
GENIUS_GENDIMSH_14
 70
     0
  0
APPID
  2
GENIUS_GENOBJ-N-DIM_13
 70
     0
  0
APPID
  2
GENIUS_GENDIM_13
 70
     0
  0
APPID
  2
GENIUS_GENDTOL_13
 70
     0
  0
APPID
  2
GENIUS_GENOLIS_13
 70
     0
  0
APPID
  2
GENIUS_GENOENT_13
 70
     0
  0
APPID
  2
GENIUS_GENOBJ-F-FEM_13
 70
     0
  0
APPID
  2
GENIUS_GENOREF_13
 70
     0
  0
APPID
  2
GENIUS_GEFFEM_13
 70
     0
  0
APPID
  2
GENIUS_GEFFEMP_13
 70
     0
  0
APPID
  2
AD_DRAW
 70
     0
  0
APPID
  2
DESIGNERASSEMBLIES
 70
     0
  0
APPID
  2
ACADM_DIM_EDIT
 70
     0
  0
APPID
  2
AMDT_DM_ADJ
 70
     0
  0
APPID
  2
ITEMNAME
 70
     0
  0
APPID
  2
GENIUS_GENOBJ-N-FIL_13
 70
     0
  0
APPID
  2
GENIUS_GENFIL_13
 70
     0
  0
APPID
  2
GENIUS_GENOBJ-N-CHA_13
 70
     0
  0
APPID
  2
ACAECLAYERSTANDARD
 70
     0
  0
APPID
  2
ACAD_NAV_VCDISPLAY
 70
     0
  0
APPID
  2
ACAD_PSEXT
 70
     0
  0
APPID
  2
ACAD_DSTYLE_DIMJAG
 70
     0
  0
APPID
  2
ACAD_DSTYLE_DIMBREAK
 70
     0
  0
APPID
  2
ACAD_EXEMPT_FROM_CAD_STANDARDS
 70
     0
  0
APPID
  2
ACAD_DSTYLE_DIMINSPECT
 70
     0
  0
APPID
  2
ACAD_MLEADERVER
 70
     0
  0
ENDTAB
  0
TABLE
  2
DIMSTYLE
 70
    23
  0
DIMSTYLE
  2
BIGT
 70
     0
  3

  4

  5
OPEN
  6

  7

 40
1.0
 41
2.2299999999999991
 42
0.5
 43
7.0
 44
1.0
 45
0.0
 46
0.0
 47
0.0
 48
0.01
140
2.7999999999999989
141
0.0
142
0.0
143
25.399999999999999
144
1.0
145
0.0
146
1.0
147
1.0
 71
     0
 72
     0
 73
     0
 74
     0
 75
     0
 76
     0
 77
     3
 78
     9
170
     0
171
     2
172
     1
173
     0
174
     1
175
     0
176
   256
177
   256
178
    40
  0
DIMSTYLE
  2
AM_ISO
 70
     0
  3

  4
"
  5

  6

  7

 40
1.0
 41
2.5
 42
1.0
 43
10.0
 44
1.0
 45
0.0
 46
0.0
 47
0.1
 48
0.1
140
3.5
141
0.0
142
0.0
143
0.0393701
144
1.0
145
0.0
146
0.71
147
1.5
 71
     0
 72
     0
 73
     0
 74
     0
 75
     0
 76
     0
 77
     1
 78
     8
170
     0
171
     2
172
     1
173
     0
174
     0
175
     0
176
   256
177
   256
178
     2
  0
DIMSTYLE
  2
AM_ISO$3
 70
     0
  3

  4
"
  5

  6

  7

 40
1.0
 41
2.5
 42
1.0
 43
10.0
 44
1.0
 45
0.0
 46
0.0
 47
0.1
 48
0.1
140
3.5
141
0.0
142
0.0
143
0.0393701
144
1.0
145
0.0
146
0.71
147
1.5
 71
     0
 72
     0
 73
     0
 74
     1
 75
     0
 76
     0
 77
     1
 78
     8
170
     0
171
     2
172
     0
173
     0
174
     0
175
     0
176
   256
177
   256
178
     2
  0
DIMSTYLE
  2
AM_ISO$4
 70
     0
  3

  4
"
  5

  6

  7

 40
1.0
 41
2.5
 42
1.0
 43
10.0
 44
1.0
 45
0.0
 46
0.0
 47
0.1
 48
0.1
140
3.5
141
0.0
142
0.0
143
0.0393701
144
1.0
145
0.0
146
0.71
147
1.5
 71
     0
 72
     0
 73
     0
 74
     1
 75
     0
 76
     0
 77
     1
 78
     8
170
     0
171
     2
172
     0
173
     0
174
     0
175
     0
176
   256
177
   256
178
     2
  0
DIMSTYLE
  2
AM_ISO$6
 70
     0
  3

  4
"
  5

  6

  7

 40
1.0
 41
2.5
 42
1.0
 43
10.0
 44
1.0
 45
0.0
 46
0.0
 47
0.1
 48
0.1
140
3.5
141
0.0
142
0.0
143
0.0393701
144
1.0
145
0.0
146
0.71
147
1.5
 71
     0
 72
     0
 73
     0
 74
     0
 75
     0
 76
     0
 77
     0
 78
     8
170
     0
171
     2
172
     1
173
     0
174
     0
175
     0
176
   256
177
   256
178
     2
  0
DIMSTYLE
  2
AM_ISO$7
 70
     0
  3

  4
"
  5

  6

  7

 40
1.0
 41
2.5
 42
1.0
 43
10.0
 44
1.0
 45
0.0
 46
0.0
 47
0.1
 48
0.1
140
5.0
141
0.0
142
0.0
143
0.0393701
144
1.0
145
0.0
146
0.71
147
1.5
 71
     0
 72
     0
 73
     0
 74
     0
 75
     0
 76
     0
 77
     1
 78
     8
170
     0
171
     2
172
     1
173
     0
174
     0
175
     0
176
   256
177
   256
178
     2
  0
DIMSTYLE
  2
AM_ISO$SF
 70
     0
  3

  4
"
  5

  6

  7

 40
1.0
 41
2.5
 42
1.0
 43
10.0
 44
1.0
 45
0.0
 46
0.0
 47
0.1
 48
0.1
140
3.5
141
0.0
142
0.0
143
0.0393701
144
1.0
145
0.0
146
0.71
147
1.5
 71
     0
 72
     0
 73
     0
 74
     0
 75
     1
 76
     1
 77
     1
 78
     8
170
     0
171
     2
172
     1
173
     0
174
     0
175
     0
176
   256
177
   256
178
     2
  0
DIMSTYLE
  2
AM_ISO$SH
 70
     0
  3

  4
"
  5

  6
GENAXEH
  7

 40
1.0
 41
2.5
 42
1.0
 43
10.0
 44
1.0
 45
0.0
 46
0.0
 47
0.1
 48
0.1
140
3.5
141
0.0
142
0.0
143
0.0393701
144
2.0
145
0.0
146
0.71
147
1.5
 71
     0
 72
     0
 73
     0
 74
     0
 75
     1
 76
     1
 77
     1
 78
     8
170
     0
171
     2
172
     1
173
     1
174
     0
175
     0
176
   256
177
   256
178
     2
  0
ENDTAB
  0
ENDSEC
  0
SECTION
  2
BLOCKS
  0
BLOCK
  8
0
  2
$MODEL_SPACE
 70
     0
 10
0.0
 20
0.0
 30
0.0
  3
$MODEL_SPACE
  1

  0
ENDBLK
  5
1C
  8
0
  0
BLOCK
 67
     1
  8
0
  2
$PAPER_SPACE
 70
     0
 10
0.0
 20
0.0
 30
0.0
  3
$PAPER_SPACE
  1

  0
ENDBLK
  5
19
 67
     1
  8
0
  0
BLOCK
  8
0
  2
_OPEN
 70
     0
 10
0.0
 20
0.0
 30
0.0
  3
_OPEN
  1

  0
LINE
  5
3E1A
  8
0
  6
BYBLOCK
 62
     0
 10
-1.0
 20
0.1666666666666666
 30
0.0
 11
0.0
 21
0.0
 31
0.0
  0
LINE
  5
3E1B
  8
0
  6
BYBLOCK
 62
     0
 10
-1.0
 20
-0.1666666666666666
 30
0.0
 11
0.0
 21
0.0
 31
0.0
  0
LINE
  5
3E1C
  8
0
  6
BYBLOCK
 62
     0
 10
0.0
 20
0.0
 30
0.0
 11
-1.0
 21
0.0
 31
0.0
  0
ENDBLK
  5
3E1D
  8
0
  0
BLOCK
  8
0
  2
GENAXEH
 70
     0
 10
0.0
 20
0.0
 30
0.0
  3
GENAXEH
  1

  0
LINE
  5
3E45
  8
0
 10
-1.0
 20
0.0
 30
0.0
 11
1.0
 21
0.0
 31
0.0
  0
ENDBLK
  5
3E46
  8
0
  0
ENDSEC
  0
SECTION
  2
ENTITIES
  0
LINE
  5
42B5
  8
240
  6
CONTINUOUS
 10
-8.437767386513439
 20
-5.2377422712409434
 30
0.0
 11
-15.100499999999871
 21
-11.900474884727361
 31
0.0
  0
LINE
  5
42B6
  8
241
  6
CONTINUOUS
 10
-2.6973979520757951
 20
0.785469875671309
 30
0.0
 11
-6.6990265837889842
 21
-3.2161587560418732
 31
0.0
  0
LINE
  5
42B7
  8
241
  6
CONTINUOUS
 10
-7.9878678277465012
 20
-4.5049999999993897
 30
0.0
 11
-8.5791887427507501
 21
-5.0963209150036359
 31
0.0
  0
LINE
  5
42B8
  8
241
  6
CONTINUOUS
 10
-8.437767386513439
 20
-5.2377422712409434
 30
0.0
 11
-15.62705986422271
 21
1.951550206468144
 31
0.0
  0
ARC
  5
42B9
  8
240
  6
CONTINUOUS
 10
-38.671796769724502
 20
-13.699974884727389
 30
0.0
 40
4.0
 50
59.999999999999439
 51
90.0
  0
ARC
  5
42BA
  8
240
  6
CONTINUOUS
 10
-38.671796769724502
 20
13.70002511527264
 30
0.0
 40
4.0
 50
270.0
 51
300.00000000000188
  0
LINE
  5
42BB
  8
241
  6
CONTINUOUS
 10
-41.000000000000021
 20
-9.9999748847274077
 30
0.0
 11
-41.000000000000021
 21
10.000025115272591
 31
0.0
  0
ARC
  5
42BC
  8
240
  6
CONTINUOUS
 10
-40.492893218813421
 20
-10.19997488472738
 30
0.0
 40
0.5
 50
90.0
 51
134.99999999999881
  0
ARC
  5
42BD
  8
240
  6
CONTINUOUS
 10
-40.492893218813421
 20
10.200025115272631
 30
0.0
 40
0.5
 50
225.00000000000111
 51
270.0
  0
LINE
  5
42BE
  8
240
  6
CONTINUOUS
 10
-121.0
 20
-9.9999999999999432
 30
0.0
 11
-121.0
 21
10.00000000000005
 31
0.0
  0
LINE
  5
42BF
  8
240
  6
CONTINUOUS
 10
-40.49289321881345
 20
-9.6999748847273946
 30
0.0
 11
-38.671796769724502
 21
-9.6999748847273946
 31
0.0
  0
LINE
  5
42C0
  8
240
  6
CONTINUOUS
 10
-40.49289321881345
 20
9.700025115272636
 30
0.0
 11
-38.671796769724502
 21
9.700025115272636
 31
0.0
  0
LINE
  5
42C1
  8
240
  6
CONTINUOUS
 10
-41.000025115272592
 20
-9.9999999999999805
 30
0.0
 11
-40.846446609406712
 21
-9.8464214941341197
 31
0.0
  0
LINE
  5
42C2
  8
240
  6
CONTINUOUS
 10
-36.671796769724523
 20
-10.235873269589661
 30
0.0
 11
-33.788622197944662
 21
-11.900474884727361
 31
0.0
  0
LINE
  5
42C3
  8
240
  6
CONTINUOUS
 10
-33.788622197944662
 20
-11.900474884727361
 30
0.0
 11
-15.100499999999871
 21
-11.900474884727361
 31
0.0
  0
LINE
  5
42C4
  8
241
  6
CONTINUOUS
 10
-37.600000000000051
 20
-9.8462427087182505
 30
0.0
 11
-37.600000000000051
 21
9.8462929392634368
 31
0.0
  0
LINE
  5
42C5
  8
241
  6
CONTINUOUS
 10
-33.788622197944647
 20
-11.754207060736571
 30
0.0
 11
-33.788622197944647
 21
11.75425729128176
 31
0.0
  0
LINE
  5
42C6
  8
241
  6
CONTINUOUS
 10
-40.699999999999932
 20
-9.7448850241651712
 30
0.0
 11
-40.699999999999932
 21
9.7449352547102954
 31
0.0
  0
LINE
  5
42C7
  8
245
  6
CENTER2
 10
-125.554457029703
 20
0.0000000000000568
 30
0.0
 11
2.0761860660290941
 21
0.0
 31
0.0
  0
LINE
  5
42C8
  8
240
  6
CONTINUOUS
 10
-121.0
 20
10.00000000000005
 30
0.0
 11
-41.000025115272571
 21
10.000000000000011
 31
0.0
  0
LINE
  5
42C9
  8
240
  6
CONTINUOUS
 10
-121.0
 20
-9.9999999999999432
 30
0.0
 11
-41.000025115272592
 21
-9.9999999999999805
 31
0.0
  0
TEXT
  5
42CA
  8
241
  6
CONTINUOUS
 10
-119.0
 20
49.0
 30
0.0
 40
5.0
  1
ST20-RC121-40+RC12400
  7
YOKO
 11
-119.0
 21
49.0
 31
0.0
 73
     1
  0
LINE
  5
42CB
  8
240
  6
CONTINUOUS
 10
-36.671796769724381
 20
10.23592350013495
 30
0.0
 11
-33.788622197944612
 21
11.900525115272609
 31
0.0
  0
LINE
  5
42CC
  8
240
  6
CONTINUOUS
 10
-33.788622197944612
 20
11.900525115272609
 30
0.0
 11
-9.4038723980351406
 21
11.9005251152726
 31
0.0
  0
ARC
  5
42CD
  8
241
  6
CONTINUOUS
 10
-13.39998024270073
 20
3.9095706961200549
 30
0.0
 40
2.9654220405357479
 50
138.67847025397509
 51
221.32152974602479
1001
GENIUS_GENODEF_13
1002
{
1000
HIER
1070
     0
1002
}
1002
{
1000
MANEDIT
1070
     0
1002
}
1002
{
1000
NOSEL
1070
     0
1002
}
1002
{
1000
BEHIND
1070
     0
1002
}
1002
{
1000
OTHER
1070
     0
1002
}
1002
{
1000
REACTOR
1002
}
1001
GENIUS_GENOBJ-N-FIL_13
1002
{
1000
OWNER
1000
GEN
1002
}
  0
LINE
  5
42CE
  8
250
  6
CONTINUOUS
 10
-39.999999999999957
 20
10.200025115272631
 30
0.0
 11
-39.999999999999957
 21
28.264391383621959
 31
0.0
  0
LINE
  5
42CF
  8
250
  6
CONTINUOUS
 10
0.0
 20
4.6163356200910908
 30
0.0
 11
0.0000000000000015
 21
28.264391383621959
 31
0.0
  0
LINE
  5
42D0
  8
250
  6
CONTINUOUS
 10
-37.769999999999968
 20
27.264391383621948
 30
0.0
 11
-2.2299999999999982
 21
27.264391383621948
 31
0.0
  0
LINE
  5
42D1
  8
250
  6
CONTINUOUS
 10
-7.5175522354633983
 20
12.20000000000004
 30
0.0
 11
20.497330459604569
 21
12.200000000000021
 31
0.0
  0
LINE
  5
42D2
  8
250
  6
CONTINUOUS
 10
19.497330459604559
 20
9.9700000000000344
 30
0.0
 11
19.497330459604559
 21
-6.67619047619048
 31
0.0
  0
LINE
  5
42D3
  8
250
  6
CONTINUOUS
 10
0.0
 20
4.6163356200910339
 30
0.0
 11
0.0000000000000019
 21
35.264391383621962
 31
0.0
  0
LINE
  5
42D4
  8
250
  6
CONTINUOUS
 10
-121.0
 20
10.50000000000005
 30
0.0
 11
-121.0
 21
35.264391383621962
 31
0.0
  0
LINE
  5
42D5
  8
250
  6
CONTINUOUS
 10
-2.2299999999999982
 20
34.26439138362197
 30
0.0
 11
-118.77
 21
34.26439138362197
 31
0.0
  0
TEXT
  5
42D6
  8
250
  6
CONTINUOUS
 10
-22.66666666666665
 20
28.264391383621959
 30
0.0
 40
2.799999999999998
  1
40
  0
LINE
  5
42D7
  8
250
  6
CONTINUOUS
 10
-2.2299999999999982
 20
27.636058050288629
 30
0.0
 11
0.0000000000000014
 21
27.264391383621948
 31
0.0
  0
LINE
  5
42D8
  8
250
  6
CONTINUOUS
 10
-2.2299999999999982
 20
26.892724716955289
 30
0.0
 11
0.0000000000000014
 21
27.264391383621948
 31
0.0
  0
LINE
  5
42D9
  8
250
  6
CONTINUOUS
 10
0.0000000000000014
 20
27.264391383621948
 30
0.0
 11
-2.2299999999999982
 21
27.264391383621948
 31
0.0
  0
LINE
  5
42DA
  8
250
  6
CONTINUOUS
 10
-37.769999999999968
 20
26.892724716955289
 30
0.0
 11
-39.999999999999957
 21
27.264391383621948
 31
0.0
  0
LINE
  5
42DB
  8
250
  6
CONTINUOUS
 10
-37.769999999999968
 20
27.636058050288629
 30
0.0
 11
-39.999999999999957
 21
27.264391383621948
 31
0.0
  0
LINE
  5
42DC
  8
250
  6
CONTINUOUS
 10
-39.999999999999957
 20
27.264391383621948
 30
0.0
 11
-37.769999999999968
 21
27.264391383621948
 31
0.0
  0
TEXT
  5
42DD
  8
250
  6
CONTINUOUS
 10
18.497330459604559
 20
-5.961904761904762
 30
0.0
 40
3.0
  1
\U+2205
 50
90.0
  0
TEXT
  5
42DE
  8
250
  6
CONTINUOUS
 10
18.397330459604561
 20
-3.2476190476190481
 30
0.0
 40
2.799999999999998
  1
24.4
 50
90.0
  0
LINE
  5
42DF
  8
250
  6
CONTINUOUS
 10
19.12566379293791
 20
9.9700000000000344
 30
0.0
 11
19.497330459604559
 21
12.20000000000004
 31
0.0
  0
LINE
  5
42E0
  8
250
  6
CONTINUOUS
 10
19.868997126271239
 20
9.9700000000000344
 30
0.0
 11
19.497330459604559
 21
12.20000000000004
 31
0.0
  0
LINE
  5
42E1
  8
250
  6
CONTINUOUS
 10
19.497330459604559
 20
12.20000000000004
 30
0.0
 11
19.497330459604559
 21
9.9700000000000344
 31
0.0
  0
TEXT
  5
42E2
  8
250
  6
CONTINUOUS
 10
-64.299999999999983
 20
35.264391383621962
 30
0.0
 40
2.799999999999998
  1
121
  0
LINE
  5
42E3
  8
250
  6
CONTINUOUS
 10
-118.77
 20
33.892724716955293
 30
0.0
 11
-121.0
 21
34.26439138362197
 31
0.0
  0
LINE
  5
42E4
  8
250
  6
CONTINUOUS
 10
-118.77
 20
34.636058050288618
 30
0.0
 11
-121.0
 21
34.26439138362197
 31
0.0
  0
LINE
  5
42E5
  8
250
  6
CONTINUOUS
 10
-121.0
 20
34.26439138362197
 30
0.0
 11
-118.77
 21
34.26439138362197
 31
0.0
  0
LINE
  5
42E6
  8
250
  6
CONTINUOUS
 10
-2.2299999999999982
 20
34.636058050288618
 30
0.0
 11
0.0000000000000018
 21
34.26439138362197
 31
0.0
  0
LINE
  5
42E7
  8
250
  6
CONTINUOUS
 10
-2.2299999999999982
 20
33.892724716955293
 30
0.0
 11
0.0000000000000018
 21
34.26439138362197
 31
0.0
  0
LINE
  5
42E8
  8
250
  6
CONTINUOUS
 10
0.0000000000000018
 20
34.26439138362197
 30
0.0
 11
-2.2299999999999982
 21
34.26439138362197
 31
0.0
  0
LINE
  5
42E9
  8
240
  6
CONTINUOUS
 10
-41.000025115272571
 20
10.000000000000011
 30
0.0
 11
-40.846446609406712
 21
9.846421494134157
 31
0.0
  0
LINE
  5
42EA
  8
250
  6
CONTINUOUS
 10
-102.6964474240736
 20
-11.56538414133121
 30
0.0
 11
-101.40777229
 21
-9.9999999999999432
 31
0.0
  0
LINE
  5
42EB
  8
250
  6
CONTINUOUS
 10
-102.119097154773
 20
-11.89871747447234
 30
0.0
 11
-101.40777229
 21
-9.9999999999999432
 31
0.0
  0
LINE
  5
42EC
  8
250
  6
CONTINUOUS
 10
-101.40777229
 20
-9.9999999999999432
 30
0.0
 11
-102.40777228942331
 21
-11.73205080790177
 31
0.0
  0
LINE
  5
42ED
  8
250
  6
CONTINUOUS
 10
-102.40777228942331
 20
-11.73205080790177
 30
0.0
 11
-107.85083394999999
 21
-21.15971015999995
 31
0.0
1001
ACAD
1000
DSTYLE
1002
{
1070
     6
1000
OPEN
1070
    41
1040
2.0
1070
    42
1040
2.0
1070
    44
1040
2.0
1070
   140
1040
4.0
1070
   343
1005
594
1002
}
  0
TEXT
  5
42EE
  8
250
  6
CONTINUOUS
 10
-120.38416728999999
 20
-20.15971015999995
 30
0.0
 40
2.7999999999999989
  1
ST20
  7
YOKO
1001
ITEMNAME
1000
LNSP3
  0
LINE
  5
42EF
  8
250
  6
CONTINUOUS
 10
-107.85083394999999
 20
-21.15971015999995
 30
0.0
 11
-122.78416729
 21
-21.15971015999995
 31
0.0
1001
ITEMNAME
1000
LNSP2
  0
LINE
  5
42F0
  8
247
  6
CONTINUOUS
 10
-114.25000000007
 20
-5.999999999999944
 30
0.0
 11
-107.55769230803
 21
-5.999999999999944
 31
0.0
  0
ARC
  5
42F1
  8
247
  6
CONTINUOUS
 10
-114.25000000007
 20
-4.250000000069976
 30
0.0
 40
1.7499999999299991
 50
90.0
 51
270.0
  0
ARC
  5
42F2
  8
247
  6
CONTINUOUS
 10
-107.55769230803
 20
-4.250000000069976
 30
0.0
 40
1.7499999999299991
 50
270.0
 51
90.0
  0
LINE
  5
42F3
  8
247
  6
CONTINUOUS
 10
-113.38461538471999
 20
-2.5000000001400071
 30
0.0
 11
-114.24485154196201
 21
-5.5000000000199529
 31
0.0
  0
LINE
  5
42F4
  8
247
  6
CONTINUOUS
 10
-112.48498381833581
 20
-3.9230769231598419
 30
0.0
 11
-113.7926761259758
 21
-3.9230769231598419
 31
0.0
  0
ARC
  5
42F5
  8
247
  6
CONTINUOUS
 10
-112.1451438160898
 20
-3.0495986677028122
 30
0.0
 40
0.5538165441895349
 50
342.99788967529531
 51
82.924166218512752
  0
ARC
  5
42F6
  8
247
  6
CONTINUOUS
 10
-112.5668783230288
 20
-2.9360330444657752
 30
0.0
 40
0.9904354236226808
 50
274.74293685220141
 51
343.84922627326648
1001
GENIUS_GENOBJ-N-FIL_13
1002
{
1000
OWNER
1000
GEN
1002
}
1001
GENIUS_GENODEF_13
1002
{
1000
HIER
1070
     0
1002
}
1002
{
1000
MANEDIT
1070
     0
1002
}
1002
{
1000
NOSEL
1070
     0
1002
}
1002
{
1000
BEHIND
1070
     0
1002
}
1002
{
1000
OTHER
1070
     0
1002
}
1002
{
1000
REACTOR
1002
}
  0
LINE
  5
42F7
  8
247
  6
CONTINUOUS
 10
-112.937159234322
 20
-5.5000000000199529
 30
0.0
 11
-114.24485154196201
 21
-5.5000000000199529
 31
0.0
  0
LINE
  5
42F8
  8
247
  6
CONTINUOUS
 10
-113.38461538471999
 20
-2.5000000001400071
 30
0.0
 11
-112.07692307708
 21
-2.5000000001400071
 31
0.0
  0
ARC
  5
42F9
  8
247
  6
CONTINUOUS
 10
-112.5609196365469
 20
-4.4820242326654247
 30
0.0
 40
0.5640818586791229
 50
335.9909416525216
 51
82.263443459069066
  0
ARC
  5
42FA
  8
247
  6
CONTINUOUS
 10
-113.03826268534699
 20
-4.4874290391864529
 30
0.0
 40
1.0176059446230981
 50
275.70198516425808
 51
347.27733843682222
1001
GENIUS_GENOBJ-N-FIL_13
1002
{
1000
OWNER
1000
GEN
1002
}
1001
GENIUS_GENODEF_13
1002
{
1000
HIER
1070
     0
1002
}
1002
{
1000
MANEDIT
1070
     0
1002
}
1002
{
1000
NOSEL
1070
     0
1002
}
1002
{
1000
BEHIND
1070
     0
1002
}
1002
{
1000
OTHER
1070
     0
1002
}
1002
{
1000
REACTOR
1002
}
  0
LINE
  5
42FB
  8
247
  6
CONTINUOUS
 10
-111.283313080542
 20
-5.5000000000199529
 30
0.0
 11
-110.4230769233
 21
-2.5000000001400071
 31
0.0
  0
LINE
  5
42FC
  8
247
  6
CONTINUOUS
 10
-108.00000000032
 20
-2.5000000001400071
 30
0.0
 11
-108.5657366194566
 21
-2.5000000001400071
 31
0.0
  0
LINE
  5
42FD
  8
247
  6
CONTINUOUS
 10
-109.4615384618
 20
-5.5000000000199529
 30
0.0
 11
-108.84615384644
 21
-5.5000000000199529
 31
0.0
  0
ARC
  5
42FE
  8
247
  6
CONTINUOUS
 10
-107.70879120912279
 20
-4.5832851359733144
 30
0.0
 40
2.2526500823422122
 50
112.35948814153021
 51
164.99324854284609
  0
ARC
  5
42FF
  8
247
  6
CONTINUOUS
 10
-108.3740694792132
 20
-3.3083126551945861
 30
0.0
 40
0.8906723995727782
 50
4.9945893190753781
 51
65.166328957300493
1001
GENIUS_GENOBJ-N-FIL_13
1002
{
1000
OWNER
1000
GEN
1002
}
1001
GENIUS_GENODEF_13
1002
{
1000
HIER
1070
     0
1002
}
1002
{
1000
MANEDIT
1070
     0
1002
}
1002
{
1000
NOSEL
1070
     0
1002
}
1002
{
1000
BEHIND
1070
     0
1002
}
1002
{
1000
OTHER
1070
     0
1002
}
1002
{
1000
REACTOR
1002
}
  0
ARC
  5
4300
  8
247
  6
CONTINUOUS
 10
-109.2264588862126
 20
-4.1601458886677287
 30
0.0
 40
1.392781735586712
 50
285.84609655578072
 51
352.32513700416251
  0
ARC
  5
4301
  8
247
  6
CONTINUOUS
 10
-108.6422127258403
 20
-4.459243431527228
 30
0.0
 40
1.324563662670287
 50
159.71360167048999
 51
231.7887456564122
1001
GENIUS_GENOBJ-N-FIL_13
1002
{
1000
OWNER
1000
GEN
1002
}
1001
GENIUS_GENODEF_13
1002
{
1000
HIER
1070
     0
1002
}
1002
{
1000
MANEDIT
1070
     0
1002
}
1002
{
1000
NOSEL
1070
     0
1002
}
1002
{
1000
BEHIND
1070
     0
1002
}
1002
{
1000
OTHER
1070
     0
1002
}
1002
{
1000
REACTOR
1002
}
  0
LINE
  5
4302
  8
247
  6
CONTINUOUS
 10
-108.53846153876
 20
-4.346153846219921
 30
0.0
 11
-107.84615384647999
 21
-4.346153846219921
 31
0.0
  0
LINE
  5
4303
  8
247
  6
CONTINUOUS
 10
-114.25000000007
 20
-2.5000000001400071
 30
0.0
 11
-113.57692307702
 21
-2.5000000001400071
 31
0.0
  0
LINE
  5
4322
  8
241
  6
CONTINUOUS
 10
-9.5941259347219177
 20
11.900525115272609
 30
0.0
 11
-15.62705986422271
 21
5.8675911857719667
 31
0.0
  0
LINE
  5
4323
  8
250
  6
CONTINUOUS
 10
5.781004471717238
 20
29.16746617204609
 30
0.0
 11
58.613093322656368
 21
29.167466172045842
 31
0.0
1001
ITEMNAME
1000
LNSP2
  0
LINE
  5
4324
  8
250
  6
CONTINUOUS
 10
-1.863633934655692
 20
15.79434721118051
 30
0.0
 11
5.781004471717238
 21
29.16746617204609
 31
0.0
1001
ACAD
1000
DSTYLE
1002
{
1070
    40
1040
1.0
1002
}
  0
LINE
  5
4325
  8
250
  6
CONTINUOUS
 10
-1.5409665900230221
 20
15.60989695821562
 30
0.0
 11
-2.9703354524450538
 21
13.8583431433845
 31
0.0
  0
LINE
  5
4326
  8
250
  6
CONTINUOUS
 10
-2.1863012792883598
 20
15.97879746414541
 30
0.0
 11
-2.9703354524450538
 21
13.8583431433845
 31
0.0
  0
LINE
  5
4327
  8
250
  6
CONTINUOUS
 10
-2.9703354524450538
 20
13.8583431433845
 30
0.0
 11
-1.863633934655692
 21
15.79434721118051
 31
0.0
  0
TEXT
  5
4328
  8
250
  6
CONTINUOUS
 10
8.0476711383839081
 20
30.167466172046119
 30
0.0
 40
2.799999999999998
  1
INSERT MODEL:RC12400
  7
YOKO
1001
ITEMNAME
1000
LNSP3
  0
TEXT
  5
4329
  8
250
  6
CONTINUOUS
 10
6.901004471717239
 20
25.367466172046079
 30
0.0
 40
2.799999999999998
  1
üiOPTIONüj
  7
YOKO
1001
ITEMNAME
1000
LNSP4
  0
LINE
  5
4360
  8
241
  6
CONTINUOUS
 10
-0.0878679656440229
 20
4.5631240867188083
 30
0.0
 11
-1.1498586873827601
 21
5.6251148084563658
 31
0.0
  0
ARC
  5
4361
  8
241
  6
CONTINUOUS
 10
-0.3000000000000116
 20
4.3509920523628622
 30
0.0
 40
0.3
 50
359.99999999999591
 51
44.999999999992802
  0
ARC
  5
4362
  8
241
  6
CONTINUOUS
 10
-0.3000000000000685
 20
3.4681493398881709
 30
0.0
 40
0.3
 50
314.99999999999852
 51
359.99999999999591
  0
LINE
  5
4363
  8
241
  6
CONTINUOUS
 10
-0.0000000000000287
 20
4.35099205236284
 30
0.0
 11
-0.0000000000000855
 21
3.4681493398881491
 31
0.0
  0
ARC
  5
4364
  8
241
  6
CONTINUOUS
 10
-8.8559920523562283
 20
12.02414139224557
 30
0.0
 40
0.3
 50
89.999999999995111
 51
134.99999999999309
  0
ARC
  5
4365
  8
241
  6
CONTINUOUS
 10
-7.9731493398815303
 20
12.024141392245509
 30
0.0
 40
0.3
 50
44.999999999999133
 51
89.999999999995111
  0
LINE
  5
4366
  8
241
  6
CONTINUOUS
 10
-8.8559920523562141
 20
12.32414139224556
 30
0.0
 11
-7.9731493398815161
 21
12.32414139224551
 31
0.0
  0
ARC
  5
436A
  8
241
  6
CONTINUOUS
 10
-7.9731493398827382
 20
-4.2049999999933467
 30
0.0
 40
0.3
 50
269.99999999999511
 51
314.99999999999312
  0
ARC
  5
436B
  8
241
  6
CONTINUOUS
 10
-8.8559920523574363
 20
-4.2049999999932899
 30
0.0
 40
0.3
 50
224.9999999999994
 51
269.99999999999511
  0
LINE
  5
436C
  8
241
  6
CONTINUOUS
 10
-7.9731493398827524
 20
-4.5049999999933439
 30
0.0
 11
-8.8559920523574505
 21
-4.504999999993287
 31
0.0
  0
LINE
  5
436D
  8
241
  6
CONTINUOUS
 10
-5.2904698756670419
 20
9.7657259967433134
 30
0.0
 11
-7.7610173055251428
 21
12.23627342660185
 31
0.0
  0
LINE
  5
436F
  8
241
  6
CONTINUOUS
 10
-1.2904698756646551
 20
5.6251148084566358
 30
0.0
 11
-1.1498586873827601
 21
5.6251148084563658
 31
0.0
  0
LINE
  5
4370
  8
241
  6
CONTINUOUS
 10
-5.2904698756646829
 20
9.6251148084566083
 30
0.0
 11
-5.2904698756670419
 21
9.7657259967433134
 31
0.0
  0
ARC
  5
4371
  8
241
  6
CONTINUOUS
 10
-1.2904698756646831
 20
9.6251148084566225
 30
0.0
 40
4.0
 50
180.0
 51
270.0
  0
LINE
  5
4372
  8
241
  6
CONTINUOUS
 10
-9.0681240867121744
 20
12.236273426601549
 30
0.0
 11
-10.130114808448271
 21
11.174282704865
 31
0.0
  0
LINE
  5
4373
  8
241
  6
CONTINUOUS
 10
-14.270725996734599
 20
7.0336715165804327
 30
0.0
 11
-16.035497685076919
 21
5.2688998282385713
 31
0.0
  0
LINE
  5
4375
  8
241
  6
CONTINUOUS
 10
-10.130114808449999
 20
11.03367151658091
 30
0.0
 11
-10.130114808448271
 21
11.174282704865
 31
0.0
  0
LINE
  5
4376
  8
241
  6
CONTINUOUS
 10
-14.130114808449971
 20
7.0336715165809016
 30
0.0
 11
-14.270725996734599
 21
7.0336715165804327
 31
0.0
  0
ARC
  5
4377
  8
241
  6
CONTINUOUS
 10
-14.130114808449999
 20
11.03367151658091
 30
0.0
 40
4.0
 50
270.0
 51
0.0
  0
LINE
  5
4378
  8
241
  6
CONTINUOUS
 10
-16.035497685091968
 20
2.5502415640307321
 30
0.0
 11
-15.679282704858389
 21
2.1940265837973021
 31
0.0
  0
LINE
  5
4379
  8
241
  6
CONTINUOUS
 10
-11.53867151657381
 20
-1.946584604489018
 30
0.0
 11
-9.0681240867138229
 21
-4.4171320343496481
 31
0.0
  0
LINE
  5
437B
  8
241
  6
CONTINUOUS
 10
-15.538671516574309
 20
2.1940265837955688
 30
0.0
 11
-15.679282704858389
 21
2.1940265837973021
 31
0.0
  0
LINE
  5
437C
  8
241
  6
CONTINUOUS
 10
-11.538671516574279
 20
-1.8059734162044021
 30
0.0
 11
-11.53867151657381
 21
-1.946584604489018
 31
0.0
  0
ARC
  5
437D
  8
241
  6
CONTINUOUS
 10
-15.538671516574279
 20
-1.8059734162044161
 30
0.0
 40
4.0
 50
0.0
 51
90.0
  0
LINE
  5
437E
  8
241
  6
CONTINUOUS
 10
-7.7610173055267921
 20
-4.4171320343493568
 30
0.0
 11
-6.6990265837906966
 21
-3.3551413126128078
 31
0.0
  0
LINE
  5
437F
  8
241
  6
CONTINUOUS
 10
-2.5584153955043689
 20
0.7854698756717724
 30
0.0
 11
-0.0878679656437387
 21
3.2560173055317629
 31
0.0
  0
LINE
  5
4381
  8
241
  6
CONTINUOUS
 10
-6.6990265837889629
 20
-3.2145301243287241
 30
0.0
 11
-6.6990265837906966
 21
-3.3551413126128078
 31
0.0
  0
LINE
  5
4382
  8
241
  6
CONTINUOUS
 10
-2.6990265837889922
 20
0.7854698756713036
 30
0.0
 11
-2.5584153955043689
 21
0.7854698756717724
 31
0.0
  0
ARC
  5
4383
  8
241
  6
CONTINUOUS
 10
-2.6990265837889642
 20
-3.2145301243286961
 30
0.0
 40
4.0
 50
90.0
 51
180.0
  0
CIRCLE
  5
438B
  8
241
  6
CONTINUOUS
 10
-8.414570696119485
 20
3.9095706961261039
 30
0.0
 40
3.0
  0
VIEWPORT
  5
22
 67
     1
  8
0
 10
261.51769911504419
 20
148.5
 30
0.0
 40
523.0353982300885
 41
297.0
 68
     1
 69
     1
1001
ACAD
1000
MVIEW
1002
{
1070
    16
1010
0.0
1020
0.0
1030
0.0
1010
0.0
1020
0.0
1030
1.0
1040
0.0
1040
297.0
1040
261.51769911504419
1040
148.5
1040
50.0
1040
0.0
1040
0.0
1070
     0
1070
   100
1070
     1
1070
     1
1070
     0
1070
     0
1070
     0
1070
     0
1040
0.0
1040
0.0
1040
0.0
1040
1.0
1040
1.0
1040
10.0
1040
10.0
1070
     0
1002
{
1002
}
1002
}
1001
GENIUS_GENODEF_13
1002
{
1000
HIER
1070
     0
1002
}
1002
{
1000
MANEDIT
1070
     0
1002
}
1002
{
1000
NOSEL
1070
     0
1002
}
1002
{
1000
BEHIND
1070
     0
1002
}
1002
{
1000
OTHER
1070
     0
1002
}
1002
{
1000
REACTOR
1002
}
1001
GENIUS_GENOBJ-N-SDF_13
1002
{
1000
OWNER
1000
GEN
1002
}
1001
GENIUS_GENSCREG_15
1000
PF
1040
1.0
1000
DF
1040
1.0
1000
MIN
1011
0.0
1021
0.0
1031
0.0
1021
0.0
1031
0.0
1000
MAX
1011
523.0353982300885
1021
0.0
1031
0.0
1021
297.0
1031
0.0
1000
FLAGS
1070
     4
  0
ENDSEC
  0
EOF
