ISO-10303-21;
HEADER;
FILE_DESCRIPTION((''),'1');
FILE_NAME('W:/Translate/BIG-HP/\X2\30C030A630F330ED30FC30C930C730FC30BF\X0\/201309/ST/11_\X2\FF86FF6DFF70FF8DFF9EFF8BFF9EFF70FF81FF6CFF6FFF78\X0\NBS/ST20-NBS8-100.stp','2013-09-25T05:59:55',(''),(''),'Spatial Interop R18','Kubotek KeyCreator V8.5.1 (14335)',' ');
FILE_SCHEMA(('CONFIG_CONTROL_DESIGN'));
ENDSEC;
DATA;
#1=DESIGN_CONTEXT('',#27,'design');
#2=APPLICATION_PROTOCOL_DEFINITION('INTERNATIONAL STANDARD','config_control_design',1994,#27);
#3=PRODUCT_CATEGORY_RELATIONSHIP('NONE','NONE',#28,#29);
#4=DATE_AND_TIME(#30,#31);
#5=DATE_TIME_ROLE('creation_date');
#6=DATE_TIME_ROLE('classification_date');
#7=PERSON_AND_ORGANIZATION_ROLE('creator');
#8=PERSON_AND_ORGANIZATION_ROLE('design_supplier');
#9=PERSON_AND_ORGANIZATION_ROLE('classification_officer');
#10=PERSON_AND_ORGANIZATION_ROLE('design_owner');
#11=APPROVAL_PERSON_ORGANIZATION(#32,#33,#34);
#12=APPROVAL_DATE_TIME(#4,#33);
#13=CC_DESIGN_APPROVAL(#33,(#35,#36,#37));
#14=CC_DESIGN_DATE_AND_TIME_ASSIGNMENT(#4,#5,(#37));
#15=CC_DESIGN_DATE_AND_TIME_ASSIGNMENT(#4,#6,(#35));
#16=CC_DESIGN_PERSON_AND_ORGANIZATION_ASSIGNMENT(#32,#10,(#38));
#17=CC_DESIGN_PERSON_AND_ORGANIZATION_ASSIGNMENT(#32,#7,(#37));
#18=CC_DESIGN_PERSON_AND_ORGANIZATION_ASSIGNMENT(#32,#7,(#36));
#19=CC_DESIGN_PERSON_AND_ORGANIZATION_ASSIGNMENT(#32,#8,(#36));
#20=CC_DESIGN_SECURITY_CLASSIFICATION(#35,(#36));
#21=CC_DESIGN_PERSON_AND_ORGANIZATION_ASSIGNMENT(#32,#9,(#35));
#22=SHAPE_DEFINITION_REPRESENTATION(#39,#40);
#23= (GEOMETRIC_REPRESENTATION_CONTEXT(3)GLOBAL_UNCERTAINTY_ASSIGNED_CONTEXT((#43))GLOBAL_UNIT_ASSIGNED_CONTEXT((#45,#46,#47))REPRESENTATION_CONTEXT('NONE','WORKSPACE'));
#27=APPLICATION_CONTEXT('CONFIGURATION CONTROLLED 3D DESIGNS OF MECHANICAL PARTS AND ASSEMBLIES');
#28=PRODUCT_CATEGORY('part','NONE');
#29=PRODUCT_RELATED_PRODUCT_CATEGORY('detail',' ',(#38));
#30=CALENDAR_DATE(2013,25,8);
#31=LOCAL_TIME(14,59,55.0,#49);
#32=PERSON_AND_ORGANIZATION(#50,#51);
#33=APPROVAL(#52,'SOLID MODEL');
#34=APPROVAL_ROLE('APPROVED');
#35=SECURITY_CLASSIFICATION('','',#53);
#36=PRODUCT_DEFINITION_FORMATION_WITH_SPECIFIED_SOURCE(' ','NONE',#38,.NOT_KNOWN.);
#37=PRODUCT_DEFINITION('NONE','NONE',#36,#1);
#38=PRODUCT('1','1','PART-1-DESC',(#54));
#39=PRODUCT_DEFINITION_SHAPE('NONE','NONE',#37);
#40=ADVANCED_BREP_SHAPE_REPRESENTATION('1',(#55,#56),#23);
#43=UNCERTAINTY_MEASURE_WITH_UNIT(LENGTH_MEASURE(1.0E-006),#45,'','');
#45= (CONVERSION_BASED_UNIT('MILLIMETRE',#59)LENGTH_UNIT()NAMED_UNIT(#62));
#46= (NAMED_UNIT(#64)PLANE_ANGLE_UNIT()SI_UNIT($,.RADIAN.));
#47= (NAMED_UNIT(#64)SOLID_ANGLE_UNIT()SI_UNIT($,.STERADIAN.));
#49=COORDINATED_UNIVERSAL_TIME_OFFSET(9,0,.AHEAD.);
#50=PERSON('','UNSPECIFIED',$,$,$,$);
#51=ORGANIZATION('UNSPECIFIED','UNSPECIFIED','UNSPECIFIED');
#52=APPROVAL_STATUS('approved');
#53=SECURITY_CLASSIFICATION_LEVEL('unclassified');
#54=MECHANICAL_CONTEXT('',#27,'mechanical');
#55=MANIFOLD_SOLID_BREP('1',#70);
#56=AXIS2_PLACEMENT_3D('',#71,#72,#73);
#59=LENGTH_MEASURE_WITH_UNIT(LENGTH_MEASURE(1.0),#74);
#62=DIMENSIONAL_EXPONENTS(1.0,0.0,0.0,0.0,0.0,0.0,0.0);
#64=DIMENSIONAL_EXPONENTS(0.0,0.0,0.0,0.0,0.0,0.0,0.0);
#70=CLOSED_SHELL('',(#75,#76,#77,#78,#79,#80,#81,#82,#83));
#71=CARTESIAN_POINT('',(0.0,0.0,0.0));
#72=DIRECTION('',(0.0,0.0,1.0));
#73=DIRECTION('',(1.0,0.0,0.0));
#74= (NAMED_UNIT(#62)LENGTH_UNIT()SI_UNIT(.MILLI.,.METRE.));
#75=ADVANCED_FACE('',(#85),#86,.T.);
#76=ADVANCED_FACE('',(#87,#88),#89,.T.);
#77=ADVANCED_FACE('',(#90,#91),#92,.T.);
#78=ADVANCED_FACE('',(#93,#94),#95,.T.);
#79=ADVANCED_FACE('',(#96,#97),#98,.T.);
#80=ADVANCED_FACE('',(#99,#100),#101,.T.);
#81=ADVANCED_FACE('',(#102,#103),#104,.T.);
#82=ADVANCED_FACE('',(#105,#106),#107,.T.);
#83=ADVANCED_FACE('',(#108),#109,.T.);
#85=FACE_OUTER_BOUND('',#110,.T.);
#86=PLANE('',#111);
#87=FACE_BOUND('',#112,.T.);
#88=FACE_BOUND('',#113,.T.);
#89=CYLINDRICAL_SURFACE('',#114,10.0);
#90=FACE_OUTER_BOUND('',#115,.T.);
#91=FACE_BOUND('',#116,.T.);
#92=PLANE('',#117);
#93=FACE_BOUND('',#118,.T.);
#94=FACE_BOUND('',#119,.T.);
#95=CYLINDRICAL_SURFACE('',#120,12.25);
#96=FACE_BOUND('',#121,.T.);
#97=FACE_OUTER_BOUND('',#122,.T.);
#98=PLANE('',#123);
#99=FACE_BOUND('',#124,.T.);
#100=FACE_BOUND('',#125,.T.);
#101=CYLINDRICAL_SURFACE('',#126,8.0);
#102=FACE_OUTER_BOUND('',#127,.T.);
#103=FACE_BOUND('',#128,.T.);
#104=PLANE('',#129);
#105=FACE_BOUND('',#130,.T.);
#106=FACE_BOUND('',#131,.T.);
#107=CYLINDRICAL_SURFACE('',#132,12.5);
#108=FACE_OUTER_BOUND('',#133,.T.);
#109=PLANE('',#134);
#110=EDGE_LOOP('',(#135));
#111=AXIS2_PLACEMENT_3D('',#136,#137,#138);
#112=EDGE_LOOP('',(#139));
#113=EDGE_LOOP('',(#140));
#114=AXIS2_PLACEMENT_3D('',#141,#142,#143);
#115=EDGE_LOOP('',(#144));
#116=EDGE_LOOP('',(#145));
#117=AXIS2_PLACEMENT_3D('',#146,#147,#148);
#118=EDGE_LOOP('',(#149));
#119=EDGE_LOOP('',(#150));
#120=AXIS2_PLACEMENT_3D('',#151,#152,#153);
#121=EDGE_LOOP('',(#154));
#122=EDGE_LOOP('',(#155));
#123=AXIS2_PLACEMENT_3D('',#156,#157,#158);
#124=EDGE_LOOP('',(#159));
#125=EDGE_LOOP('',(#160));
#126=AXIS2_PLACEMENT_3D('',#161,#162,#163);
#127=EDGE_LOOP('',(#164));
#128=EDGE_LOOP('',(#165));
#129=AXIS2_PLACEMENT_3D('',#166,#167,#168);
#130=EDGE_LOOP('',(#169));
#131=EDGE_LOOP('',(#170));
#132=AXIS2_PLACEMENT_3D('',#171,#172,#173);
#133=EDGE_LOOP('',(#174));
#134=AXIS2_PLACEMENT_3D('',#175,#176,#177);
#135=ORIENTED_EDGE('',*,*,#178,.F.);
#136=CARTESIAN_POINT('',(-7.71527483462833E-015,4.99999999999998,126.0));
#137=DIRECTION('',(-6.12323399573677E-017,-1.22464679914735E-016,1.0));
#138=DIRECTION('',(1.23259516440783E-032,-1.0,-1.22464679914735E-016));
#139=ORIENTED_EDGE('',*,*,#179,.F.);
#140=ORIENTED_EDGE('',*,*,#178,.T.);
#141=CARTESIAN_POINT('',(-4.65365783675994E-015,-9.30731567351988E-015,76.0));
#142=DIRECTION('',(-6.12323399573677E-017,-1.22464679914735E-016,1.0));
#143=DIRECTION('',(-1.23259516440783E-032,1.0,1.22464679914735E-016));
#144=ORIENTED_EDGE('',*,*,#180,.F.);
#145=ORIENTED_EDGE('',*,*,#179,.T.);
#146=CARTESIAN_POINT('',(-1.59204083889156E-015,11.125,26.0));
#147=DIRECTION('',(-6.12323399573677E-017,-1.22464679914735E-016,1.0));
#148=DIRECTION('',(1.23259516440783E-032,-1.0,-1.22464679914735E-016));
#149=ORIENTED_EDGE('',*,*,#181,.F.);
#150=ORIENTED_EDGE('',*,*,#180,.T.);
#151=CARTESIAN_POINT('',(-1.27057105411538E-015,-2.54114210823076E-015,20.75));
#152=DIRECTION('',(-6.12323399573677E-017,-1.22464679914735E-016,1.0));
#153=DIRECTION('',(-1.23259516440783E-032,1.0,1.22464679914735E-016));
#154=ORIENTED_EDGE('',*,*,#182,.F.);
#155=ORIENTED_EDGE('',*,*,#181,.T.);
#156=CARTESIAN_POINT('',(-9.49101269339199E-016,10.125,15.5));
#157=DIRECTION('',(6.12323399573677E-017,1.22464679914735E-016,-1.0));
#158=DIRECTION('',(-1.23259516440783E-032,1.0,1.22464679914735E-016));
#159=ORIENTED_EDGE('',*,*,#183,.F.);
#160=ORIENTED_EDGE('',*,*,#182,.T.);
#161=CARTESIAN_POINT('',(-8.11328504435122E-016,-1.62265700887024E-015,13.25));
#162=DIRECTION('',(-6.12323399573677E-017,-1.22464679914735E-016,1.0));
#163=DIRECTION('',(-1.23259516440783E-032,1.0,1.22464679914735E-016));
#164=ORIENTED_EDGE('',*,*,#184,.F.);
#165=ORIENTED_EDGE('',*,*,#183,.T.);
#166=CARTESIAN_POINT('',(-6.73555739531044E-016,10.25,11.0));
#167=DIRECTION('',(-6.12323399573677E-017,-1.22464679914735E-016,1.0));
#168=DIRECTION('',(1.23259516440783E-032,-1.0,-1.22464679914735E-016));
#169=ORIENTED_EDGE('',*,*,#185,.F.);
#170=ORIENTED_EDGE('',*,*,#184,.T.);
#171=CARTESIAN_POINT('',(-3.36777869765522E-016,-6.73555739531043E-016,5.5));
#172=DIRECTION('',(-6.12323399573677E-017,-1.22464679914735E-016,1.0));
#173=DIRECTION('',(-1.23259516440783E-032,1.0,1.22464679914735E-016));
#174=ORIENTED_EDGE('',*,*,#185,.T.);
#175=CARTESIAN_POINT('',(0.0,6.25,0.0));
#176=DIRECTION('',(6.12323399573677E-017,1.22464679914735E-016,-1.0));
#177=DIRECTION('',(-1.23259516440783E-032,1.0,1.22464679914735E-016));
#178=EDGE_CURVE('',#186,#186,#187,.T.);
#179=EDGE_CURVE('',#188,#188,#189,.T.);
#180=EDGE_CURVE('',#190,#190,#191,.T.);
#181=EDGE_CURVE('',#192,#192,#193,.T.);
#182=EDGE_CURVE('',#194,#194,#195,.T.);
#183=EDGE_CURVE('',#196,#196,#197,.T.);
#184=EDGE_CURVE('',#198,#198,#199,.T.);
#185=EDGE_CURVE('',#200,#200,#201,.T.);
#186=VERTEX_POINT('',#202);
#187=CIRCLE('',#203,10.0);
#188=VERTEX_POINT('',#204);
#189=CIRCLE('',#205,10.0);
#190=VERTEX_POINT('',#206);
#191=CIRCLE('',#207,12.25);
#192=VERTEX_POINT('',#208);
#193=CIRCLE('',#209,12.25);
#194=VERTEX_POINT('',#210);
#195=CIRCLE('',#211,8.0);
#196=VERTEX_POINT('',#212);
#197=CIRCLE('',#213,8.0);
#198=VERTEX_POINT('',#214);
#199=CIRCLE('',#215,12.5);
#200=VERTEX_POINT('',#216);
#201=CIRCLE('',#217,12.5);
#202=CARTESIAN_POINT('',(-7.71527483462833E-015,9.99999999999998,126.0));
#203=AXIS2_PLACEMENT_3D('',#218,#219,#220);
#204=CARTESIAN_POINT('',(-1.59204083889156E-015,10.0,26.0));
#205=AXIS2_PLACEMENT_3D('',#221,#222,#223);
#206=CARTESIAN_POINT('',(-1.59204083889156E-015,12.25,26.0));
#207=AXIS2_PLACEMENT_3D('',#224,#225,#226);
#208=CARTESIAN_POINT('',(-9.49101269339199E-016,12.25,15.5));
#209=AXIS2_PLACEMENT_3D('',#227,#228,#229);
#210=CARTESIAN_POINT('',(-9.49101269339199E-016,8.0,15.5));
#211=AXIS2_PLACEMENT_3D('',#230,#231,#232);
#212=CARTESIAN_POINT('',(-6.73555739531044E-016,8.0,11.0));
#213=AXIS2_PLACEMENT_3D('',#233,#234,#235);
#214=CARTESIAN_POINT('',(-6.73555739531044E-016,12.5,11.0));
#215=AXIS2_PLACEMENT_3D('',#236,#237,#238);
#216=CARTESIAN_POINT('',(0.0,12.5,0.0));
#217=AXIS2_PLACEMENT_3D('',#239,#240,#241);
#218=CARTESIAN_POINT('',(-7.71527483462833E-015,-1.54305496692566E-014,126.0));
#219=DIRECTION('',(6.12323399573677E-017,1.22464679914735E-016,-1.0));
#220=DIRECTION('',(-1.23259516440783E-032,1.0,1.22464679914735E-016));
#221=CARTESIAN_POINT('',(-1.59204083889156E-015,-3.18408167778312E-015,26.0));
#222=DIRECTION('',(6.12323399573677E-017,1.22464679914735E-016,-1.0));
#223=DIRECTION('',(-1.23259516440783E-032,1.0,1.22464679914735E-016));
#224=CARTESIAN_POINT('',(-1.59204083889156E-015,-3.18408167778312E-015,26.0));
#225=DIRECTION('',(6.12323399573677E-017,1.22464679914735E-016,-1.0));
#226=DIRECTION('',(-1.23259516440783E-032,1.0,1.22464679914735E-016));
#227=CARTESIAN_POINT('',(-9.49101269339199E-016,-1.8982025386784E-015,15.5));
#228=DIRECTION('',(6.12323399573677E-017,1.22464679914735E-016,-1.0));
#229=DIRECTION('',(-1.23259516440783E-032,1.0,1.22464679914735E-016));
#230=CARTESIAN_POINT('',(-9.49101269339199E-016,-1.8982025386784E-015,15.5));
#231=DIRECTION('',(6.12323399573677E-017,1.22464679914735E-016,-1.0));
#232=DIRECTION('',(-1.23259516440783E-032,1.0,1.22464679914735E-016));
#233=CARTESIAN_POINT('',(-6.73555739531044E-016,-1.34711147906209E-015,11.0));
#234=DIRECTION('',(6.12323399573677E-017,1.22464679914735E-016,-1.0));
#235=DIRECTION('',(-1.23259516440783E-032,1.0,1.22464679914735E-016));
#236=CARTESIAN_POINT('',(-6.73555739531044E-016,-1.34711147906209E-015,11.0));
#237=DIRECTION('',(6.12323399573677E-017,1.22464679914735E-016,-1.0));
#238=DIRECTION('',(-1.23259516440783E-032,1.0,1.22464679914735E-016));
#239=CARTESIAN_POINT('',(0.0,0.0,0.0));
#240=DIRECTION('',(6.12323399573677E-017,1.22464679914735E-016,-1.0));
#241=DIRECTION('',(-1.23259516440783E-032,1.0,1.22464679914735E-016));
ENDSEC;
END-ISO-10303-21;
