  0
SECTION
  2
HEADER
  9
$ACADVER
  1
AC1009
  9
$INSBASE
 10
0.0
 20
0.0
 30
0.0
  9
$EXTMIN
 10
-42.000000000000107
 20
-21.159710159999999
 30
0.0
  9
$EXTMAX
 10
83.454361690008383
 20
54.000000000000021
 30
0.0
  9
$LIMMIN
 10
0.0
 20
0.0
  9
$LIMMAX
 10
297.0
 20
210.0
  9
$ORTHOMODE
 70
     1
  9
$REGENMODE
 70
     1
  9
$FILLMODE
 70
     1
  9
$QTEXTMODE
 70
     0
  9
$MIRRTEXT
 70
     1
  9
$DRAGMODE
 70
     2
  9
$LTSCALE
 40
10.0
  9
$OSMODE
 70
    35
  9
$ATTMODE
 70
     1
  9
$TEXTSIZE
 40
3.0
  9
$TRACEWID
 40
1.0
  9
$TEXTSTYLE
  7
YOKO
  9
$CLAYER
  8
240
  9
$CELTYPE
  6
BYLAYER
  9
$CECOLOR
 62
   256
  9
$DIMSCALE
 40
1.0
  9
$DIMASZ
 40
2.2299999999999991
  9
$DIMEXO
 40
0.5
  9
$DIMDLI
 40
7.0
  9
$DIMRND
 40
0.0
  9
$DIMDLE
 40
0.0
  9
$DIMEXE
 40
1.0
  9
$DIMTP
 40
0.0
  9
$DIMTM
 40
0.01
  9
$DIMTXT
 40
2.7999999999999989
  9
$DIMCEN
 40
0.0
  9
$DIMTSZ
 40
0.0
  9
$DIMTOL
 70
     0
  9
$DIMLIM
 70
     0
  9
$DIMTIH
 70
     0
  9
$DIMTOH
 70
     0
  9
$DIMSE1
 70
     0
  9
$DIMSE2
 70
     0
  9
$DIMTAD
 70
     3
  9
$DIMZIN
 70
     9
  9
$DIMBLK
  1
OPEN
  9
$DIMASO
 70
     1
  9
$DIMSHO
 70
     1
  9
$DIMPOST
  1

  9
$DIMAPOST
  1

  9
$DIMALT
 70
     0
  9
$DIMALTD
 70
     2
  9
$DIMALTF
 40
25.399999999999999
  9
$DIMLFAC
 40
1.0
  9
$DIMTOFL
 70
     1
  9
$DIMTVP
 40
0.0
  9
$DIMTIX
 70
     1
  9
$DIMSOXD
 70
     0
  9
$DIMSAH
 70
     0
  9
$DIMBLK1
  1

  9
$DIMBLK2
  1

  9
$DIMSTYLE
  2
BIGT
  9
$DIMCLRD
 70
   256
  9
$DIMCLRE
 70
   256
  9
$DIMCLRT
 70
    40
  9
$DIMTFAC
 40
1.0
  9
$DIMGAP
 40
1.0
  9
$LUNITS
 70
     2
  9
$LUPREC
 70
     6
  9
$SKETCHINC
 40
1.0
  9
$FILLETRAD
 40
0.0
  9
$AUNITS
 70
     0
  9
$AUPREC
 70
     6
  9
$MENU
  1
.
  9
$ELEVATION
 40
0.0
  9
$PELEVATION
 40
0.0
  9
$THICKNESS
 40
0.0
  9
$LIMCHECK
 70
     0
  9
$BLIPMODE
 70
     0
  9
$CHAMFERA
 40
0.2
  9
$CHAMFERB
 40
0.2
  9
$SKPOLY
 70
     0
  9
$TDCREATE
 40
2457736.6633993522
  9
$TDUPDATE
 40
2457738.5678150812
  9
$TDINDWG
 40
0.0399467477
  9
$TDUSRTIMER
 40
0.039946713
  9
$USRTIMER
 70
     1
  9
$ANGBASE
 50
0.0
  9
$ANGDIR
 70
     0
  9
$PDMODE
 70
     1
  9
$PDSIZE
 40
0.0
  9
$PLINEWID
 40
0.0
  9
$COORDS
 70
     1
  9
$SPLFRAME
 70
     0
  9
$SPLINETYPE
 70
     6
  9
$SPLINESEGS
 70
     4
  9
$ATTDIA
 70
     1
  9
$ATTREQ
 70
     1
  9
$HANDLING
 70
     1
  9
$HANDSEED
  5
49DB
  9
$SURFTAB1
 70
     6
  9
$SURFTAB2
 70
     6
  9
$SURFTYPE
 70
     6
  9
$SURFU
 70
     6
  9
$SURFV
 70
     6
  9
$UCSNAME
  2

  9
$UCSORG
 10
0.0
 20
0.0
 30
0.0
  9
$UCSXDIR
 10
1.0
 20
0.0
 30
0.0
  9
$UCSYDIR
 10
0.0
 20
1.0
 30
0.0
  9
$PUCSNAME
  2

  9
$PUCSORG
 10
0.0
 20
0.0
 30
0.0
  9
$PUCSXDIR
 10
1.0
 20
0.0
 30
0.0
  9
$PUCSYDIR
 10
0.0
 20
1.0
 30
0.0
  9
$USERI1
 70
     1
  9
$USERI2
 70
     0
  9
$USERI3
 70
     0
  9
$USERI4
 70
     0
  9
$USERI5
 70
     0
  9
$USERR1
 40
0.0
  9
$USERR2
 40
0.0
  9
$USERR3
 40
0.0
  9
$USERR4
 40
0.0
  9
$USERR5
 40
0.0
  9
$WORLDVIEW
 70
     1
  9
$SHADEDGE
 70
     3
  9
$SHADEDIF
 70
    70
  9
$TILEMODE
 70
     1
  9
$MAXACTVP
 70
    16
  9
$PLIMCHECK
 70
     0
  9
$PEXTMIN
 10
1.0000000000000000E+020
 20
1.0000000000000000E+020
 30
1.0000000000000000E+020
  9
$PEXTMAX
 10
-1.0000000000000000E+020
 20
-1.0000000000000000E+020
 30
-1.0000000000000000E+020
  9
$PLIMMIN
 10
0.0
 20
0.0
  9
$PLIMMAX
 10
420.0
 20
297.0
  9
$UNITMODE
 70
     0
  9
$VISRETAIN
 70
     1
  9
$PLINEGEN
 70
     0
  9
$PSLTSCALE
 70
     1
  0
ENDSEC
  0
SECTION
  2
TABLES
  0
TABLE
  2
VPORT
 70
     1
  0
VPORT
  2
*ACTIVE
 70
     0
 10
0.0
 20
0.0
 11
1.0
 21
1.0
 12
20.729977917227139
 22
17.698270026147132
 13
0.0
 23
0.0
 14
7.0
 24
7.0
 15
7.0
 25
7.0
 16
0.0
 26
0.0
 36
1.0
 17
0.0
 27
0.0
 37
0.0
 40
81.880200006081282
 41
1.5388026607538801
 42
50.0
 43
0.0
 44
0.0
 50
0.0
 51
0.0
 71
     0
 72
  2000
 73
     1
 74
     0
 75
     1
 76
     1
 77
     0
 78
     0
  0
ENDTAB
  0
TABLE
  2
LTYPE
 70
    13
  0
LTYPE
  2
CONTINUOUS
 70
     0
  3
Solid line
 72
    65
 73
     0
 40
0.0
  0
LTYPE
  2
CENTER2
 70
     0
  3
___ _ ___ _ ___ _ ___ _ ___ _ ___ _ ___ _ ___ _
 72
    65
 73
     4
 40
1.125
 49
0.75
 49
-0.125
 49
0.125
 49
-0.125
  0
LTYPE
  2
HIDDEN2
 70
     0
  3
_ _ _ _ _ _ _ _ _ _ _ _ _ _ _ _ _ _ _ _ _ _ _ _
 72
    65
 73
     2
 40
0.1875
 49
0.125
 49
-0.0625
  0
LTYPE
  2
PHANTOM2
 70
     0
  3
___ _ _ ___ _ _ ___ _ _ ___ _ _ ___ _ _ ___ _ _
 72
    65
 73
     6
 40
1.25
 49
0.625
 49
-0.125
 49
0.125
 49
-0.125
 49
0.125
 49
-0.125
  0
LTYPE
  2
AM_ISO02W050
 70
     0
  3
__ __ __ __ __ __ __ __ __ __ __ __ __ __ __
 72
    65
 73
     2
 40
7.5
 49
6.0
 49
-1.5
  0
LTYPE
  2
AMCONSTR
 70
     0
  3
_______________________
 72
    65
 73
     2
 40
9999.0
 49
9999.0
 49
0.0
  0
LTYPE
  2
ACISOWELD
 70
     0
  3
_ _ _ _ _
 72
    65
 73
     2
 40
2.0
 49
2.0
 49
-1.0
  0
LTYPE
  2
ACISOTGB
 70
     0
  3
__ . . __ . .
 72
    65
 73
     6
 40
9.0
 49
4.0
 49
-1.0
 49
1.0
 49
-1.0
 49
1.0
 49
-1.0
  0
LTYPE
  2
ACISOTGL
 70
     0
  3
_ _ _ _ _
 72
    65
 73
     2
 40
3.0
 49
2.0
 49
-1.0
  0
LTYPE
  2
ACJISTGB
 70
     0
  3
__ . . __ . .
 72
    65
 73
     6
 40
9.0
 49
4.0
 49
-1.0
 49
1.0
 49
-1.0
 49
1.0
 49
-1.0
  0
LTYPE
  2
ACJISTGL
 70
     0
  3
_ _ _ _ _
 72
    65
 73
     2
 40
3.0
 49
2.0
 49
-1.0
  0
ENDTAB
  0
TABLE
  2
LAYER
 70
    10
  0
LAYER
  2
0
 70
     0
 62
     7
  6
CONTINUOUS
  0
LAYER
  2
DEFPOINTS
 70
     0
 62
     7
  6
CONTINUOUS
  0
LAYER
  2
245
 70
     0
 62
     2
  6
CENTER2
  0
LAYER
  2
240
 70
     0
 62
     4
  6
CONTINUOUS
  0
LAYER
  2
241
 70
     0
 62
   211
  6
CONTINUOUS
  0
LAYER
  2
243
 70
     0
 62
   211
  6
HIDDEN2
  0
LAYER
  2
246
 70
     0
 62
     3
  6
PHANTOM2
  0
LAYER
  2
247
 70
     0
 62
    60
  6
CONTINUOUS
  0
LAYER
  2
250
 70
     0
 62
     3
  6
CONTINUOUS
  0
ENDTAB
  0
TABLE
  2
STYLE
 70
     6
  0
STYLE
  2
STANDARD
 70
     0
 40
0.0
 41
1.0
 50
0.0
 71
     0
 42
3.0
  3
romans.shx
  4
extfont.shx
  0
STYLE
  2
ACISOTS
 70
     0
 40
1.0
 41
1.0
 50
0.0
 71
     0
 42
3.0
  3
amgdt.shx
  4
extfont.shx
  0
STYLE
  2
ACISOGDT
 70
     0
 40
0.0
 41
1.0
 50
0.0
 71
     0
 42
3.0
  3
amgdt.shx
  4
extfont.shx
  0
STYLE
  2
ACJISTS
 70
     0
 40
1.0
 41
1.0
 50
0.0
 71
     0
 42
3.0
  3
amgdt.shx
  4
extfont.shx
  0
STYLE
  2
ACJISGDT
 70
     0
 40
0.0
 41
1.0
 50
0.0
 71
     0
 42
3.0
  3
amgdt.shx
  4
extfont.shx
  0
STYLE
  2
YOKO
 70
     0
 40
0.0
 41
1.0
 50
0.0
 71
     0
 42
3.0
  3
romans.shx
  4
extfont.shx
  0
ENDTAB
  0
TABLE
  2
VIEW
 70
     0
  0
ENDTAB
  0
TABLE
  2
UCS
 70
     0
  0
ENDTAB
  0
TABLE
  2
APPID
 70
    46
  0
APPID
  2
ACAD
 70
     0
  0
APPID
  2
GLOBAL
 70
     0
  0
APPID
  2
DETAIL
 70
     0
  0
APPID
  2
GRPNAME
 70
     0
  0
APPID
  2
GPARA
 70
     0
  0
APPID
  2
MCAD_NO_VIS
 70
     0
  0
APPID
  2
ACAD_TEMP_GRAPHIC
 70
     0
  0
APPID
  2
ACATTRIBSERVICES
 70
     0
  0
APPID
  2
GENIUS_GENSCREG_15
 70
     0
  0
APPID
  2
GENIUS_GENODEF_13
 70
     0
  0
APPID
  2
GENIUS_GENOBJ-N-SDF_13
 70
     0
  0
APPID
  2
GENIUS_GENREC_14
 70
     0
  0
APPID
  2
GENIUS_GENOBJ-N-REC_13
 70
     0
  0
APPID
  2
GENIUS_GENDIMSH_14
 70
     0
  0
APPID
  2
GENIUS_GENOBJ-N-DIM_13
 70
     0
  0
APPID
  2
GENIUS_GENDIM_13
 70
     0
  0
APPID
  2
GENIUS_GENDTOL_13
 70
     0
  0
APPID
  2
GENIUS_GENOLIS_13
 70
     0
  0
APPID
  2
GENIUS_GENOENT_13
 70
     0
  0
APPID
  2
GENIUS_GENOBJ-F-FEM_13
 70
     0
  0
APPID
  2
GENIUS_GENOREF_13
 70
     0
  0
APPID
  2
GENIUS_GEFFEM_13
 70
     0
  0
APPID
  2
GENIUS_GEFFEMP_13
 70
     0
  0
APPID
  2
AD_DRAW
 70
     0
  0
APPID
  2
DESIGNERASSEMBLIES
 70
     0
  0
APPID
  2
ACADM_DIM_EDIT
 70
     0
  0
APPID
  2
AMDT_DM_ADJ
 70
     0
  0
APPID
  2
ITEMNAME
 70
     0
  0
APPID
  2
GENIUS_GENOBJ-N-FIL_13
 70
     0
  0
APPID
  2
GENIUS_GENFIL_13
 70
     0
  0
APPID
  2
GENIUS_GENOBJ-N-CHA_13
 70
     0
  0
APPID
  2
ACAD_NAV_VCDISPLAY
 70
     0
  0
APPID
  2
GENIUS_GENOBJ-N-CRS_13
 70
     0
  0
APPID
  2
ACAD_PSEXT
 70
     0
  0
APPID
  2
GENIUS_GENOBJ-N-HTC_13
 70
     0
  0
APPID
  2
GENIUS_GENHATCH_13
 70
     0
  0
APPID
  2
ACAD_DSTYLE_DIMINSPECT
 70
     0
  0
APPID
  2
ACAD_EXEMPT_FROM_CAD_STANDARDS
 70
     0
  0
APPID
  2
ACAD_DSTYLE_DIMJAG
 70
     0
  0
APPID
  2
ACAD_DSTYLE_DIMBREAK
 70
     0
  0
APPID
  2
ACAECLAYERSTANDARD
 70
     0
  0
APPID
  2
ACAD_MLEADERVER
 70
     0
  0
APPID
  2
ACAD_DSTYLE_DIMARC_LENGTH_
 70
     0
  0
APPID
  2
ACAD_DSTYLE_DIM_LINETYPE
 70
     0
  0
APPID
  2
ACAD_DSTYLE_DIM_EXT1_LINETYPE
 70
     0
  0
APPID
  2
ACAD_DSTYLE_DIM_EXT2_LINETYPE
 70
     0
  0
ENDTAB
  0
TABLE
  2
DIMSTYLE
 70
    23
  0
DIMSTYLE
  2
BIGT
 70
     0
  3

  4

  5
OPEN
  6

  7

 40
1.0
 41
2.2299999999999991
 42
0.5
 43
7.0
 44
1.0
 45
0.0
 46
0.0
 47
0.0
 48
0.01
140
2.7999999999999989
141
0.0
142
0.0
143
25.399999999999999
144
1.0
145
0.0
146
1.0
147
1.0
 71
     0
 72
     0
 73
     0
 74
     0
 75
     0
 76
     0
 77
     3
 78
     9
170
     0
171
     2
172
     1
173
     0
174
     1
175
     0
176
   256
177
   256
178
    40
  0
DIMSTYLE
  2
AM_ISO
 70
     0
  3

  4
"
  5

  6

  7

 40
1.0
 41
2.5
 42
1.0
 43
10.0
 44
1.0
 45
0.0
 46
0.0
 47
0.1
 48
0.1
140
3.5
141
0.0
142
0.0
143
0.0393701
144
1.0
145
0.0
146
0.71
147
1.5
 71
     0
 72
     0
 73
     0
 74
     0
 75
     0
 76
     0
 77
     1
 78
     8
170
     0
171
     2
172
     1
173
     0
174
     0
175
     0
176
   256
177
   256
178
     2
  0
DIMSTYLE
  2
AM_ISO$3
 70
     0
  3

  4
"
  5

  6

  7

 40
1.0
 41
2.5
 42
1.0
 43
10.0
 44
1.0
 45
0.0
 46
0.0
 47
0.1
 48
0.1
140
3.5
141
0.0
142
0.0
143
0.0393701
144
1.0
145
0.0
146
0.71
147
1.5
 71
     0
 72
     0
 73
     0
 74
     1
 75
     0
 76
     0
 77
     1
 78
     8
170
     0
171
     2
172
     0
173
     0
174
     0
175
     0
176
   256
177
   256
178
     2
  0
DIMSTYLE
  2
AM_ISO$4
 70
     0
  3

  4
"
  5

  6

  7

 40
1.0
 41
2.5
 42
1.0
 43
10.0
 44
1.0
 45
0.0
 46
0.0
 47
0.1
 48
0.1
140
3.5
141
0.0
142
0.0
143
0.0393701
144
1.0
145
0.0
146
0.71
147
1.5
 71
     0
 72
     0
 73
     0
 74
     1
 75
     0
 76
     0
 77
     1
 78
     8
170
     0
171
     2
172
     0
173
     0
174
     0
175
     0
176
   256
177
   256
178
     2
  0
DIMSTYLE
  2
AM_ISO$6
 70
     0
  3

  4
"
  5

  6

  7

 40
1.0
 41
2.5
 42
1.0
 43
10.0
 44
1.0
 45
0.0
 46
0.0
 47
0.1
 48
0.1
140
3.5
141
0.0
142
0.0
143
0.0393701
144
1.0
145
0.0
146
0.71
147
1.5
 71
     0
 72
     0
 73
     0
 74
     0
 75
     0
 76
     0
 77
     0
 78
     8
170
     0
171
     2
172
     1
173
     0
174
     0
175
     0
176
   256
177
   256
178
     2
  0
DIMSTYLE
  2
AM_ISO$7
 70
     0
  3

  4
"
  5

  6

  7

 40
1.0
 41
2.5
 42
1.0
 43
10.0
 44
1.0
 45
0.0
 46
0.0
 47
0.1
 48
0.1
140
5.0
141
0.0
142
0.0
143
0.0393701
144
1.0
145
0.0
146
0.71
147
1.5
 71
     0
 72
     0
 73
     0
 74
     0
 75
     0
 76
     0
 77
     1
 78
     8
170
     0
171
     2
172
     1
173
     0
174
     0
175
     0
176
   256
177
   256
178
     2
  0
DIMSTYLE
  2
AM_ISO$SF
 70
     0
  3

  4
"
  5

  6

  7

 40
1.0
 41
2.5
 42
1.0
 43
10.0
 44
1.0
 45
0.0
 46
0.0
 47
0.1
 48
0.1
140
3.5
141
0.0
142
0.0
143
0.0393701
144
1.0
145
0.0
146
0.71
147
1.5
 71
     0
 72
     0
 73
     0
 74
     0
 75
     1
 76
     1
 77
     1
 78
     8
170
     0
171
     2
172
     1
173
     0
174
     0
175
     0
176
   256
177
   256
178
     2
  0
DIMSTYLE
  2
AM_ISO$SH
 70
     0
  3

  4
"
  5

  6
GENAXEH
  7

 40
1.0
 41
2.5
 42
1.0
 43
10.0
 44
1.0
 45
0.0
 46
0.0
 47
0.1
 48
0.1
140
3.5
141
0.0
142
0.0
143
0.0393701
144
2.0
145
0.0
146
0.71
147
1.5
 71
     0
 72
     0
 73
     0
 74
     0
 75
     1
 76
     1
 77
     1
 78
     8
170
     0
171
     2
172
     1
173
     1
174
     0
175
     0
176
   256
177
   256
178
     2
  0
DIMSTYLE
  2
BIGT$2
 70
     0
  3

  4

  5
OPEN
  6

  7

 40
1.0
 41
2.2299999999999991
 42
0.5
 43
7.0
 44
1.0
 45
0.0
 46
0.0
 47
0.0
 48
0.01
140
2.7999999999999989
141
0.0
142
0.0
143
25.399999999999999
144
1.0
145
0.0
146
1.0
147
1.0
 71
     0
 72
     0
 73
     0
 74
     0
 75
     0
 76
     0
 77
     3
 78
     9
170
     0
171
     2
172
     1
173
     0
174
     0
175
     0
176
   256
177
   256
178
    40
  0
DIMSTYLE
  2
BIGT$3
 70
     0
  3

  4

  5
OPEN
  6

  7

 40
1.0
 41
2.2299999999999991
 42
0.5
 43
2.5
 44
1.0
 45
0.0
 46
0.0
 47
0.0
 48
0.01
140
2.7999999999999989
141
0.0
142
0.0
143
25.399999999999999
144
1.0
145
0.0
146
1.0
147
1.0
 71
     0
 72
     0
 73
     0
 74
     0
 75
     0
 76
     0
 77
     3
 78
     9
170
     0
171
     2
172
     1
173
     0
174
     0
175
     0
176
   256
177
   256
178
    40
  0
DIMSTYLE
  2
BIGT$7
 70
     0
  3

  4

  5
OPEN
  6

  7

 40
0.0
 41
2.2299999999999991
 42
0.5
 43
7.0
 44
1.0
 45
0.0
 46
0.0
 47
0.0
 48
0.01
140
2.7999999999999989
141
0.0
142
0.0
143
25.399999999999999
144
1.0
145
0.0
146
1.0
147
1.0
 71
     0
 72
     0
 73
     0
 74
     0
 75
     0
 76
     0
 77
     3
 78
     9
170
     0
171
     2
172
     0
173
     0
174
     0
175
     0
176
   256
177
   256
178
    40
  0
DIMSTYLE
  2
BIGT$6
 70
     0
  3

  4

  5
OPEN
  6

  7

 40
1.0
 41
2.2299999999999991
 42
0.5
 43
2.5
 44
1.0
 45
0.0
 46
0.0
 47
0.0
 48
0.01
140
2.7999999999999989
141
0.0
142
0.0
143
25.399999999999999
144
1.0
145
0.0
146
1.0
147
1.0
 71
     0
 72
     0
 73
     0
 74
     0
 75
     0
 76
     0
 77
     3
 78
     9
170
     0
171
     2
172
     1
173
     0
174
     0
175
     0
176
   256
177
   256
178
    40
  0
DIMSTYLE
  2
BIGT$0
 70
     0
  3

  4

  5
OPEN
  6

  7

 40
1.0
 41
2.2299999999999991
 42
0.5
 43
7.0
 44
1.0
 45
0.0
 46
0.0
 47
0.0
 48
0.01
140
2.7999999999999989
141
0.0
142
0.0
143
25.399999999999999
144
1.0
145
0.0
146
1.0
147
1.0
 71
     0
 72
     0
 73
     0
 74
     0
 75
     0
 76
     0
 77
     3
 78
     9
170
     0
171
     2
172
     1
173
     0
174
     1
175
     0
176
   256
177
   256
178
    40
  0
DIMSTYLE
  2
BIGT$4
 70
     0
  3

  4

  5
OPEN
  6

  7

 40
1.0
 41
2.2299999999999991
 42
0.5
 43
2.5
 44
1.0
 45
0.0
 46
0.0
 47
0.0
 48
0.01
140
2.7999999999999989
141
0.0
142
0.0
143
25.399999999999999
144
1.0
145
0.0
146
1.0
147
1.0
 71
     0
 72
     0
 73
     0
 74
     0
 75
     0
 76
     0
 77
     3
 78
     9
170
     0
171
     2
172
     1
173
     0
174
     0
175
     0
176
   256
177
   256
178
    40
  0
DIMSTYLE
  2
BIGT$SH
 70
     0
  3

  4

  5
OPEN
  6

  7

 40
1.0
 41
2.2299999999999991
 42
0.5
 43
7.0
 44
1.0
 45
0.0
 46
0.0
 47
0.0
 48
0.0
140
2.7999999999999989
141
0.0
142
0.0
143
25.399999999999999
144
1.0
145
0.0
146
1.0
147
1.0
 71
     0
 72
     0
 73
     0
 74
     0
 75
     0
 76
     0
 77
     3
 78
     9
170
     0
171
     2
172
     1
173
     0
174
     0
175
     0
176
   256
177
   256
178
    40
  0
DIMSTYLE
  2
BIGT$SF
 70
     0
  3

  4

  5
OPEN
  6

  7

 40
1.0
 41
2.2299999999999991
 42
0.5
 43
7.0
 44
1.0
 45
0.0
 46
0.0
 47
0.0
 48
0.0
140
2.7999999999999989
141
0.0
142
0.0
143
25.399999999999999
144
1.0
145
0.0
146
1.0
147
1.0
 71
     0
 72
     0
 73
     0
 74
     0
 75
     0
 76
     0
 77
     3
 78
     9
170
     0
171
     2
172
     1
173
     0
174
     0
175
     0
176
   256
177
   256
178
    40
  0
DIMSTYLE
  2
TECHNICAL_OSAKA
 70
     0
  3

  4
"
  5
OPEN30
  6

  7

 40
1.0
 41
2.5
 42
1.0
 43
10.0
 44
1.0
 45
0.0
 46
0.0
 47
0.1
 48
0.1
140
2.7999999999999989
141
0.0
142
0.0
143
0.0393701
144
1.0
145
0.0
146
0.71
147
1.5
 71
     0
 72
     0
 73
     0
 74
     0
 75
     0
 76
     0
 77
     3
 78
     8
170
     0
171
     2
172
     1
173
     0
174
     0
175
     0
176
   256
177
   256
178
    40
  0
DIMSTYLE
  2
TECHNICAL_OSAKA$3
 70
     0
  3

  4
"
  5
OPEN30
  6

  7

 40
1.0
 41
2.5
 42
1.0
 43
10.0
 44
1.0
 45
0.0
 46
0.0
 47
0.1
 48
0.1
140
2.7999999999999989
141
0.0
142
0.0
143
0.0393701
144
1.0
145
0.0
146
0.71
147
1.5
 71
     0
 72
     0
 73
     0
 74
     1
 75
     0
 76
     0
 77
     3
 78
     8
170
     0
171
     2
172
     0
173
     0
174
     0
175
     0
176
   256
177
   256
178
    40
  0
DIMSTYLE
  2
TECHNICAL_OSAKA$4
 70
     0
  3

  4
"
  5
OPEN30
  6

  7

 40
1.0
 41
2.5
 42
1.0
 43
10.0
 44
1.0
 45
0.0
 46
0.0
 47
0.1
 48
0.1
140
2.7999999999999989
141
0.0
142
0.0
143
0.0393701
144
1.0
145
0.0
146
0.71
147
1.5
 71
     0
 72
     0
 73
     0
 74
     1
 75
     0
 76
     0
 77
     3
 78
     8
170
     0
171
     2
172
     0
173
     0
174
     0
175
     0
176
   256
177
   256
178
    40
  0
DIMSTYLE
  2
TECHNICAL_OSAKA$6
 70
     0
  3

  4
"
  5
OPEN30
  6

  7

 40
1.0
 41
2.5
 42
1.0
 43
10.0
 44
1.0
 45
0.0
 46
0.0
 47
0.1
 48
0.1
140
2.7999999999999989
141
0.0
142
0.0
143
0.0393701
144
1.0
145
0.0
146
0.71
147
1.5
 71
     0
 72
     0
 73
     0
 74
     0
 75
     0
 76
     0
 77
     0
 78
     8
170
     0
171
     2
172
     1
173
     0
174
     0
175
     0
176
   256
177
   256
178
    40
  0
DIMSTYLE
  2
TECHNICAL_OSAKA$7
 70
     0
  3

  4
"
  5
OPEN30
  6

  7

 40
1.0
 41
2.5
 42
1.0
 43
10.0
 44
1.0
 45
0.0
 46
0.0
 47
0.1
 48
0.1
140
2.7999999999999989
141
0.0
142
0.0
143
0.0393701
144
1.0
145
0.0
146
0.71
147
1.5
 71
     0
 72
     0
 73
     0
 74
     0
 75
     0
 76
     0
 77
     3
 78
     8
170
     0
171
     2
172
     1
173
     0
174
     0
175
     0
176
   256
177
   256
178
    40
  0
DIMSTYLE
  2
TECHNICAL_OSAKA$SF
 70
     0
  3

  4
"
  5
OPEN30
  6
OPEN30
  7
OPEN30
 40
1.0
 41
2.5
 42
1.0
 43
10.0
 44
1.0
 45
0.0
 46
0.0
 47
0.1
 48
0.1
140
3.5
141
0.0
142
0.0
143
0.0393701
144
1.0
145
0.0
146
0.71
147
1.5
 71
     0
 72
     0
 73
     0
 74
     0
 75
     1
 76
     1
 77
     3
 78
     8
170
     0
171
     2
172
     1
173
     0
174
     0
175
     0
176
   256
177
   256
178
    40
  0
DIMSTYLE
  2
TECHNICAL_OSAKA$SH
 70
     0
  3

  4
"
  5
OPEN30
  6
GENAXEH
  7
OPEN30
 40
1.0
 41
2.5
 42
1.0
 43
10.0
 44
1.0
 45
0.0
 46
0.0
 47
0.1
 48
0.1
140
3.5
141
0.0
142
0.0
143
0.0393701
144
2.0
145
0.0
146
0.71
147
1.5
 71
     0
 72
     0
 73
     0
 74
     0
 75
     1
 76
     1
 77
     3
 78
     8
170
     0
171
     2
172
     1
173
     1
174
     0
175
     0
176
   256
177
   256
178
    40
  0
ENDTAB
  0
ENDSEC
  0
SECTION
  2
BLOCKS
  0
BLOCK
  8
0
  2
$MODEL_SPACE
 70
     0
 10
0.0
 20
0.0
 30
0.0
  3
$MODEL_SPACE
  1

  0
ENDBLK
  5
1C
  8
0
  0
BLOCK
 67
     1
  8
0
  2
$PAPER_SPACE
 70
     0
 10
0.0
 20
0.0
 30
0.0
  3
$PAPER_SPACE
  1

  0
ENDBLK
  5
19
 67
     1
  8
0
  0
BLOCK
  8
0
  2
_OPEN
 70
     0
 10
0.0
 20
0.0
 30
0.0
  3
_OPEN
  1

  0
LINE
  5
48DE
  8
0
  6
BYBLOCK
 62
     0
 10
-1.0
 20
0.1666666666666666
 30
0.0
 11
0.0
 21
0.0
 31
0.0
  0
LINE
  5
48DF
  8
0
  6
BYBLOCK
 62
     0
 10
-1.0
 20
-0.1666666666666666
 30
0.0
 11
0.0
 21
0.0
 31
0.0
  0
LINE
  5
48E0
  8
0
  6
BYBLOCK
 62
     0
 10
0.0
 20
0.0
 30
0.0
 11
-1.0
 21
0.0
 31
0.0
  0
ENDBLK
  5
48E1
  8
0
  0
BLOCK
  8
0
  2
GENAXEH
 70
     0
 10
0.0
 20
0.0
 30
0.0
  3
GENAXEH
  1

  0
LINE
  5
4919
  8
0
 10
-1.0
 20
0.0
 30
0.0
 11
1.0
 21
0.0
 31
0.0
  0
ENDBLK
  5
491A
  8
0
  0
BLOCK
  8
0
  2
_OPEN30
 70
     0
 10
0.0
 20
0.0
 30
0.0
  3
_OPEN30
  1

  0
LINE
  5
4955
  8
0
  6
BYBLOCK
 62
     0
 10
-1.0
 20
0.26794919
 30
0.0
 11
0.0
 21
0.0
 31
0.0
  0
LINE
  5
4956
  8
0
  6
BYBLOCK
 62
     0
 10
0.0
 20
0.0
 30
0.0
 11
-1.0
 21
-0.26794919
 31
0.0
  0
LINE
  5
4957
  8
0
  6
BYBLOCK
 62
     0
 10
0.0
 20
0.0
 30
0.0
 11
-1.0
 21
0.0
 31
0.0
  0
ENDBLK
  5
4958
  8
0
  0
BLOCK
  8
0
  2
*U3
 70
     1
 10
0.0
 20
0.0
 30
0.0
  3
*U3
  1

  0
TEXT
  5
4486
  8
250
 10
80.25436168666667
 20
29.094157549999998
 30
0.0
 40
2.799999999999998
  1
MGT6
  7
YOKO
  0
ENDBLK
  5
4487
  8
0
  0
BLOCK
  8
0
  2
*U7
 70
     1
 10
0.0
 20
0.0
 30
0.0
  3
*U7
  1

  0
TEXT
  5
49D8
  8
250
 10
29.766666666666548
 20
36.0
 30
0.0
 40
2.7999999999999989
  1
65
  0
ENDBLK
  5
49DA
  8
0
  0
ENDSEC
  0
SECTION
  2
ENTITIES
  0
LINE
  5
42CC
  8
245
  6
CENTER2
 10
-42.000000000000107
 20
0.0
 30
0.0
 11
66.731190193063526
 21
0.0
 31
0.0
1001
GENIUS_GENOREF_13
1005
4391
  0
LINE
  5
431B
  8
240
  6
CONTINUOUS
 10
-0.0000000000001137
 20
-18.000000000001918
 30
0.0
 11
57.000000000013557
 21
-17.999999999999901
 31
0.0
  0
LINE
  5
4351
  8
241
  6
CONTINUOUS
 10
37.700000000015109
 20
-18.0
 30
0.0
 11
37.700000000015109
 21
18.000000000000629
 31
0.0
  0
LINE
  5
4352
  8
241
  6
CONTINUOUS
 10
39.300000000013661
 20
-18.0
 30
0.0
 11
39.300000000013661
 21
18.000000000000579
 31
0.0
  0
LINE
  5
4353
  8
241
  6
CONTINUOUS
 10
40.700000000009652
 20
-18.0
 30
0.0
 11
40.700000000009759
 21
18.000000000000529
 31
0.0
  0
LINE
  5
4354
  8
241
  6
CONTINUOUS
 10
42.300000000013647
 20
-18.0
 30
0.0
 11
42.30000000001364
 21
18.00000000000048
 31
0.0
  0
LINE
  5
435E
  8
240
  6
CONTINUOUS
 10
-3.6165601532449041
 20
10.00000000000364
 30
0.0
 11
-0.0000000000001137
 21
10.00000000000364
 31
0.0
  0
LINE
  5
435F
  8
240
  6
CONTINUOUS
 10
-4.5000000000001128
 20
8.4698372999973799
 30
0.0
 11
-3.6165601532449041
 21
10.00000000000364
 31
0.0
  0
LINE
  5
4360
  8
240
  6
CONTINUOUS
 10
-34.000000000000107
 20
9.5000000000036362
 30
0.0
 11
-4.5000000000001128
 21
8.4698372999973799
 31
0.0
  0
LINE
  5
4368
  8
240
  6
CONTINUOUS
 10
-34.000000000000107
 20
9.5000000000036362
 30
0.0
 11
-34.2886751345942
 21
10.00000000000364
 31
0.0
  0
LINE
  5
4369
  8
240
  6
CONTINUOUS
 10
-37.999999999999048
 20
10.00000000000364
 30
0.0
 11
-40.000000000000107
 21
8.8452994616253005
 31
0.0
  0
LINE
  5
436A
  8
240
  6
CONTINUOUS
 10
-0.0000000000001137
 20
10.00000000000364
 30
0.0
 11
-0.0000000000001137
 21
18.000000000001869
 31
0.0
  0
LINE
  5
436B
  8
240
  6
CONTINUOUS
 10
-37.999999999999048
 20
10.00000000000364
 30
0.0
 11
-34.2886751345942
 21
10.00000000000364
 31
0.0
  0
LINE
  5
436F
  8
240
  6
CONTINUOUS
 10
-0.0000000000001137
 20
-9.999999999996362
 30
0.0
 11
-0.0000000000001137
 21
-18.000000000001918
 31
0.0
  0
LINE
  5
4371
  8
240
  6
CONTINUOUS
 10
-40.000000000000107
 20
8.8452994616253005
 30
0.0
 11
-40.000000000000107
 21
-8.8452994616162091
 31
0.0
  0
LINE
  5
4372
  8
240
  6
CONTINUOUS
 10
-37.999999999995893
 20
-9.999999999996362
 30
0.0
 11
-0.0000000000001137
 21
-9.999999999996362
 31
0.0
  0
LINE
  5
4373
  8
240
  6
CONTINUOUS
 10
-37.999999999995893
 20
-9.999999999996362
 30
0.0
 11
-40.000000000000107
 21
-8.8452994616162073
 31
0.0
  0
POINT
  5
4391
  8
0
 10
-17426.23713893021
 20
1321.1121550151111
 30
0.0
1001
GENIUS_GENOBJ-N-CRS_13
1002
{
1000
OWNER
1000
GEN
1002
}
1001
GENIUS_GENOLIS_13
1002
{
1000
ENT
1005
0
1005
0
1005
0
1005
42CC
1002
}
1001
GENIUS_GENOENT_13
1002
{
1000
MYREF
1005
4391
1002
}
1002
{
1000
GRP
1005
0
1002
}
1001
GENIUS_GENODEF_13
1002
{
1000
HIER
1070
    10
1002
}
1002
{
1000
MANEDIT
1070
     1
1002
}
1002
{
1000
NOSEL
1070
     0
1002
}
1002
{
1000
BEHIND
1070
     0
1002
}
1002
{
1000
OTHER
1070
     0
1002
}
1002
{
1000
REACTOR
1002
}
  0
LINE
  5
43CC
  8
241
  6
CONTINUOUS
 10
57.000000000013351
 20
-17.91295929517997
 30
0.0
 11
57.000000000013408
 21
18.0
 31
0.0
  0
LINE
  5
43D1
  8
240
  6
CONTINUOUS
 10
65.00000000000756
 20
15.856406460549669
 30
0.0
 11
65.000000000009209
 21
-15.856406460549611
 31
0.0
  0
LINE
  5
43D2
  8
240
  6
CONTINUOUS
 10
57.000000000013557
 20
-17.999999999999901
 30
0.0
 11
65.000000000009209
 21
-15.856406460549611
 31
0.0
  0
LINE
  5
43D6
  8
241
  6
CONTINUOUS
 10
49.000000000008832
 20
18.000000000000259
 30
0.0
 11
49.0000000000054
 21
-17.799999999999901
 31
0.0
  0
LINE
  5
43F0
  8
240
  6
CONTINUOUS
 10
57.000000000013387
 20
18.0
 30
0.0
 11
65.000000000009209
 21
15.856406460549669
 31
0.0
  0
LINE
  5
43F4
  8
240
  6
CONTINUOUS
 10
-0.0000000000001137
 20
18.000000000001869
 30
0.0
 11
57.000000000013387
 21
18.0
 31
0.0
  0
LINE
  5
4480
  8
246
  6
PHANTOM2
 10
-3.6165601532449041
 20
10.00000000000364
 30
0.0
 11
-34.2886751345942
 21
10.00000000000364
 31
0.0
  0
LINE
  5
4481
  8
241
  6
CONTINUOUS
 10
-0.0000000000001137
 20
-9.999999999996362
 30
0.0
 11
-0.0000000000001119
 21
10.00000000000364
 31
0.0
  0
LINE
  5
4482
  8
241
  6
CONTINUOUS
 10
-37.999999999995893
 20
-9.999999999996362
 30
0.0
 11
-37.999999999999048
 21
10.00000000000364
 31
0.0
  0
INSERT
  5
44E5
  8
250
  6
CONTINUOUS
  2
*U3
 10
-9.9999999999916156
 20
0.0
 30
0.0
  0
LINE
  5
44E6
  8
250
  6
CONTINUOUS
 10
67.987695020008388
 20
28.094157549999998
 30
0.0
 11
83.454361690008383
 21
28.094157549999998
 31
0.0
1001
ITEMNAME
1000
LNSP2
  0
POLYLINE
  5
44E7
  8
250
  6
CONTINUOUS
 66
     1
 10
0.0
 20
0.0
 30
0.0
1001
ACAD
1000
DSTYLE
1002
{
1070
     6
1000
OPEN
1070
    41
1040
2.0
1070
    42
1040
2.0
1070
    44
1040
2.0
1070
    79
1070
     2
1070
   140
1040
4.0
1070
   179
1070
     3
1070
   371
1070
    -1
1070
   372
1070
    -1
1002
}
  0
VERTEX
  5
44E8
  8
250
  6
CONTINUOUS
 10
62.468544249067939
 20
18.534707988111808
 30
0.0
  0
VERTEX
  5
44E9
  8
250
  6
CONTINUOUS
 10
67.987695020008388
 20
28.094157549999998
 30
0.0
  0
SEQEND
  5
44EA
  8
250
  6
CONTINUOUS
  0
LINE
  5
44EB
  8
250
  6
CONTINUOUS
 10
62.757219383753259
 20
18.36804132160189
 30
0.0
 11
61.468544250008378
 21
16.802657180000001
 31
0.0
  0
LINE
  5
44EC
  8
250
  6
CONTINUOUS
 10
62.179869114382647
 20
18.701374654621748
 30
0.0
 11
61.468544250008378
 21
16.802657180000001
 31
0.0
  0
LINE
  5
44ED
  8
250
  6
CONTINUOUS
 10
61.468544250008378
 20
16.802657180000001
 30
0.0
 11
62.468544249067939
 21
18.534707988111808
 31
0.0
  0
LINE
  5
44EE
  8
243
  6
HIDDEN2
 10
16.500000000008381
 20
8.0
 30
0.0
 11
58.500000000008377
 21
8.0
 31
0.0
  0
LINE
  5
44EF
  8
245
  6
CENTER2
 10
31.000000000008381
 20
19.0
 30
0.0
 11
31.000000000008381
 21
7.0
 31
0.0
  0
LINE
  5
44F0
  8
243
  6
HIDDEN2
 10
65.000000000008384
 20
11.199999999999999
 30
0.0
 11
58.500000000008377
 21
11.199999999999999
 31
0.0
  0
LINE
  5
44F1
  8
243
  6
HIDDEN2
 10
16.500000000008381
 20
-8.0
 30
0.0
 11
58.500000000008377
 21
-8.0
 31
0.0
  0
LINE
  5
44F2
  8
243
  6
HIDDEN2
 10
58.500000000008377
 20
-11.199999999999999
 30
0.0
 11
58.500000000008377
 21
11.199999999999999
 31
0.0
  0
LINE
  5
44F3
  8
243
  6
HIDDEN2
 10
65.000000000008384
 20
-11.199999999999999
 30
0.0
 11
58.500000000008377
 21
-11.199999999999999
 31
0.0
  0
LINE
  5
4534
  8
250
  6
CONTINUOUS
 10
-0.0000000000001128
 20
18.500000000001862
 30
0.0
 11
-0.0000000000001128
 21
36.0
 31
0.0
  0
LINE
  5
4535
  8
250
  6
CONTINUOUS
 10
64.999999999999872
 20
16.37404455075724
 30
0.0
 11
64.999999999999886
 21
36.0
 31
0.0
  0
LINE
  5
4536
  8
250
  6
CONTINUOUS
 10
2.2299999999998872
 20
35.0
 30
0.0
 11
62.769999999999889
 21
35.0
 31
0.0
  0
LINE
  5
4537
  8
250
  6
CONTINUOUS
 10
2.2299999999998872
 20
34.62833333333333
 30
0.0
 11
-0.0000000000001128
 21
35.0
 31
0.0
  0
LINE
  5
4538
  8
250
  6
CONTINUOUS
 10
2.2299999999998872
 20
35.37166666666667
 30
0.0
 11
-0.0000000000001128
 21
35.0
 31
0.0
  0
LINE
  5
4539
  8
250
  6
CONTINUOUS
 10
-0.0000000000001128
 20
35.0
 30
0.0
 11
2.2299999999998872
 21
35.0
 31
0.0
  0
LINE
  5
453A
  8
250
  6
CONTINUOUS
 10
62.769999999999889
 20
35.37166666666667
 30
0.0
 11
64.999999999999886
 21
35.0
 31
0.0
  0
LINE
  5
453B
  8
250
  6
CONTINUOUS
 10
62.769999999999889
 20
34.62833333333333
 30
0.0
 11
64.999999999999886
 21
35.0
 31
0.0
  0
LINE
  5
453C
  8
250
  6
CONTINUOUS
 10
64.999999999999886
 20
35.0
 30
0.0
 11
62.769999999999889
 21
35.0
 31
0.0
  0
INSERT
  5
453D
  8
240
  2
*U7
 10
0.0
 20
0.0
 30
0.0
  0
TEXT
  5
453E
  8
241
  6
CONTINUOUS
 10
-40.000000000000107
 20
49.0
 30
0.0
 40
5.0
  1
ST20-MGT6-65
  7
YOKO
 11
-40.000000000000107
 21
49.0
 31
0.0
 73
     1
  0
LINE
  5
453F
  8
250
  6
CONTINUOUS
 10
57.500000000013408
 20
-17.999999999996358
 30
0.0
 11
77.999999999999886
 21
-17.999999999996358
 31
0.0
  0
LINE
  5
4540
  8
250
  6
CONTINUOUS
 10
57.500000000013408
 20
18.000000000003642
 30
0.0
 11
77.999999999999886
 21
18.000000000003642
 31
0.0
  0
LINE
  5
4541
  8
250
  6
CONTINUOUS
 10
76.999999999999886
 20
-15.76999999999636
 30
0.0
 11
76.999999999999886
 21
15.770000000003639
 31
0.0
  0
LINE
  5
4542
  8
250
  6
CONTINUOUS
 10
77.371666666666556
 20
-15.76999999999636
 30
0.0
 11
76.999999999999886
 21
-17.999999999996358
 31
0.0
  0
LINE
  5
4543
  8
250
  6
CONTINUOUS
 10
76.628333333333217
 20
-15.76999999999636
 30
0.0
 11
76.999999999999886
 21
-17.999999999996358
 31
0.0
  0
LINE
  5
4544
  8
250
  6
CONTINUOUS
 10
76.999999999999886
 20
-17.999999999996358
 30
0.0
 11
76.999999999999886
 21
-15.76999999999636
 31
0.0
  0
LINE
  5
4545
  8
250
  6
CONTINUOUS
 10
76.628333333333217
 20
15.770000000003639
 30
0.0
 11
76.999999999999886
 21
18.000000000003642
 31
0.0
  0
LINE
  5
4546
  8
250
  6
CONTINUOUS
 10
77.371666666666556
 20
15.770000000003639
 30
0.0
 11
76.999999999999886
 21
18.000000000003642
 31
0.0
  0
LINE
  5
4547
  8
250
  6
CONTINUOUS
 10
76.999999999999886
 20
18.000000000003642
 30
0.0
 11
76.999999999999886
 21
15.770000000003639
 31
0.0
  0
TEXT
  5
4548
  8
250
  6
CONTINUOUS
 10
75.999999999999872
 20
-3.9333333333296951
 30
0.0
 40
2.7999999999999989
  1
\U+220536
 50
90.0
1001
ACAD
1000
MTEXTBEGIN
1070
    73
1070
     1
1070
    44
1040
1.0
1070
    74
1070
     0
1000
MTEXTEND
  0
LINE
  5
457A
  8
250
  6
CONTINUOUS
 10
-21.696447424073721
 20
-11.565384141331259
 30
0.0
 11
-20.407772290000111
 21
-10.0
 31
0.0
  0
LINE
  5
457B
  8
250
  6
CONTINUOUS
 10
-21.119097154773112
 20
-11.89871747447239
 30
0.0
 11
-20.407772290000111
 21
-10.0
 31
0.0
  0
LINE
  5
457C
  8
250
  6
CONTINUOUS
 10
-20.407772290000111
 20
-10.0
 30
0.0
 11
-21.40777228942342
 21
-11.73205080790183
 31
0.0
  0
LINE
  5
457D
  8
250
  6
CONTINUOUS
 10
-21.40777228942342
 20
-11.73205080790183
 30
0.0
 11
-26.850833950000119
 21
-21.159710159999999
 31
0.0
1001
ACAD
1000
DSTYLE
1002
{
1070
     6
1000
OPEN
1070
    41
1040
2.0
1070
    42
1040
2.0
1070
    44
1040
2.0
1070
   140
1040
4.0
1070
   343
1005
594
1002
}
  0
TEXT
  5
457E
  8
250
  6
CONTINUOUS
 10
-39.384167290000121
 20
-20.159710159999999
 30
0.0
 40
2.7999999999999989
  1
ST20
  7
YOKO
1001
ITEMNAME
1000
LNSP3
  0
LINE
  5
457F
  8
250
  6
CONTINUOUS
 10
-26.850833950000119
 20
-21.159710159999999
 30
0.0
 11
-41.784167290000113
 21
-21.159710159999999
 31
0.0
1001
ITEMNAME
1000
LNSP2
  0
LINE
  5
4580
  8
247
  6
CONTINUOUS
 10
-33.250000000070123
 20
-6.0
 30
0.0
 11
-26.55769230803012
 21
-6.0
 31
0.0
  0
ARC
  5
4581
  8
247
  6
CONTINUOUS
 10
-33.250000000070123
 20
-4.2500000000700311
 30
0.0
 40
1.7499999999299991
 50
90.0
 51
270.0
  0
ARC
  5
4582
  8
247
  6
CONTINUOUS
 10
-26.55769230803012
 20
-4.2500000000700311
 30
0.0
 40
1.7499999999299991
 50
270.0
 51
90.0
  0
LINE
  5
4583
  8
247
  6
CONTINUOUS
 10
-32.384615384720121
 20
-2.5000000001400622
 30
0.0
 11
-33.24485154196212
 21
-5.500000000020008
 31
0.0
  0
LINE
  5
4584
  8
247
  6
CONTINUOUS
 10
-31.484983818335941
 20
-3.9230769231598961
 30
0.0
 11
-32.79267612597593
 21
-3.9230769231598961
 31
0.0
  0
ARC
  5
4585
  8
247
  6
CONTINUOUS
 10
-31.145143816089899
 20
-3.0495986677028659
 30
0.0
 40
0.5538165441895349
 50
342.99788967529531
 51
82.924166218512752
  0
ARC
  5
4586
  8
247
  6
CONTINUOUS
 10
-31.566878323028899
 20
-2.9360330444658298
 30
0.0
 40
0.9904354236226808
 50
274.74293685220141
 51
343.84922627326642
1001
GENIUS_GENOBJ-N-FIL_13
1002
{
1000
OWNER
1000
GEN
1002
}
1001
GENIUS_GENODEF_13
1002
{
1000
HIER
1070
     0
1002
}
1002
{
1000
MANEDIT
1070
     0
1002
}
1002
{
1000
NOSEL
1070
     0
1002
}
1002
{
1000
BEHIND
1070
     0
1002
}
1002
{
1000
OTHER
1070
     0
1002
}
1002
{
1000
REACTOR
1002
}
  0
LINE
  5
4587
  8
247
  6
CONTINUOUS
 10
-31.93715923432212
 20
-5.500000000020008
 30
0.0
 11
-33.24485154196212
 21
-5.500000000020008
 31
0.0
  0
LINE
  5
4588
  8
247
  6
CONTINUOUS
 10
-32.384615384720121
 20
-2.5000000001400622
 30
0.0
 11
-31.07692307708011
 21
-2.5000000001400622
 31
0.0
  0
ARC
  5
4589
  8
247
  6
CONTINUOUS
 10
-31.56091963654708
 20
-4.4820242326654798
 30
0.0
 40
0.5640818586791229
 50
335.9909416525216
 51
82.263443459069066
  0
ARC
  5
458A
  8
247
  6
CONTINUOUS
 10
-32.038262685347178
 20
-4.4874290391865079
 30
0.0
 40
1.0176059446230981
 50
275.70198516425808
 51
347.27733843682222
1001
GENIUS_GENOBJ-N-FIL_13
1002
{
1000
OWNER
1000
GEN
1002
}
1001
GENIUS_GENODEF_13
1002
{
1000
HIER
1070
     0
1002
}
1002
{
1000
MANEDIT
1070
     0
1002
}
1002
{
1000
NOSEL
1070
     0
1002
}
1002
{
1000
BEHIND
1070
     0
1002
}
1002
{
1000
OTHER
1070
     0
1002
}
1002
{
1000
REACTOR
1002
}
  0
LINE
  5
458B
  8
247
  6
CONTINUOUS
 10
-30.283313080542118
 20
-5.500000000020008
 30
0.0
 11
-29.423076923300108
 21
-2.5000000001400622
 31
0.0
  0
LINE
  5
458C
  8
247
  6
CONTINUOUS
 10
-27.00000000032011
 20
-2.5000000001400622
 30
0.0
 11
-27.565736619456711
 21
-2.5000000001400622
 31
0.0
  0
LINE
  5
458D
  8
247
  6
CONTINUOUS
 10
-28.46153846180011
 20
-5.500000000020008
 30
0.0
 11
-27.846153846440121
 21
-5.500000000020008
 31
0.0
  0
ARC
  5
458E
  8
247
  6
CONTINUOUS
 10
-26.708791209122982
 20
-4.5832851359733686
 30
0.0
 40
2.2526500823422122
 50
112.35948814153021
 51
164.9932485428462
  0
ARC
  5
458F
  8
247
  6
CONTINUOUS
 10
-27.37406947921335
 20
-3.3083126551946398
 30
0.0
 40
0.8906723995727782
 50
4.9945893190753781
 51
65.166328957300493
1001
GENIUS_GENOBJ-N-FIL_13
1002
{
1000
OWNER
1000
GEN
1002
}
1001
GENIUS_GENODEF_13
1002
{
1000
HIER
1070
     0
1002
}
1002
{
1000
MANEDIT
1070
     0
1002
}
1002
{
1000
NOSEL
1070
     0
1002
}
1002
{
1000
BEHIND
1070
     0
1002
}
1002
{
1000
OTHER
1070
     0
1002
}
1002
{
1000
REACTOR
1002
}
  0
ARC
  5
4590
  8
247
  6
CONTINUOUS
 10
-28.226458886212701
 20
-4.1601458886677838
 30
0.0
 40
1.392781735586712
 50
285.84609655578072
 51
352.32513700416251
  0
ARC
  5
4591
  8
247
  6
CONTINUOUS
 10
-27.64221272584048
 20
-4.4592434315272831
 30
0.0
 40
1.324563662670287
 50
159.71360167048999
 51
231.7887456564122
1001
GENIUS_GENOBJ-N-FIL_13
1002
{
1000
OWNER
1000
GEN
1002
}
1001
GENIUS_GENODEF_13
1002
{
1000
HIER
1070
     0
1002
}
1002
{
1000
MANEDIT
1070
     0
1002
}
1002
{
1000
NOSEL
1070
     0
1002
}
1002
{
1000
BEHIND
1070
     0
1002
}
1002
{
1000
OTHER
1070
     0
1002
}
1002
{
1000
REACTOR
1002
}
  0
LINE
  5
4592
  8
247
  6
CONTINUOUS
 10
-27.538461538760121
 20
-4.346153846219976
 30
0.0
 11
-26.846153846480121
 21
-4.346153846219976
 31
0.0
  0
LINE
  5
4593
  8
247
  6
CONTINUOUS
 10
-33.250000000070152
 20
-2.5000000001400622
 30
0.0
 11
-32.57692307702019
 21
-2.5000000001400622
 31
0.0
  0
VIEWPORT
  5
22
 67
     1
  8
0
 10
261.51769911504419
 20
148.5
 30
0.0
 40
523.0353982300885
 41
297.0
 68
     1
 69
     1
1001
ACAD
1000
MVIEW
1002
{
1070
    16
1010
0.0
1020
0.0
1030
0.0
1010
0.0
1020
0.0
1030
1.0
1040
0.0
1040
297.0
1040
261.51769911504419
1040
148.5
1040
50.0
1040
0.0
1040
0.0
1070
     0
1070
   100
1070
     1
1070
     1
1070
     0
1070
     0
1070
     0
1070
     0
1040
0.0
1040
0.0
1040
0.0
1040
1.0
1040
1.0
1040
10.0
1040
10.0
1070
     0
1002
{
1002
}
1002
}
1001
GENIUS_GENODEF_13
1002
{
1000
HIER
1070
     0
1002
}
1002
{
1000
MANEDIT
1070
     0
1002
}
1002
{
1000
NOSEL
1070
     0
1002
}
1002
{
1000
BEHIND
1070
     0
1002
}
1002
{
1000
OTHER
1070
     0
1002
}
1002
{
1000
REACTOR
1002
}
1001
GENIUS_GENOBJ-N-SDF_13
1002
{
1000
OWNER
1000
GEN
1002
}
1001
GENIUS_GENSCREG_15
1000
PF
1040
1.0
1000
DF
1040
1.0
1000
MIN
1011
0.0
1021
0.0
1031
0.0
1021
0.0
1031
0.0
1000
MAX
1011
523.0353982300885
1021
0.0
1031
0.0
1021
297.0
1031
0.0
1000
FLAGS
1070
     4
  0
ENDSEC
  0
EOF
