  0
SECTION
  2
HEADER
  9
$ACADVER
  1
AC1009
  9
$INSBASE
 10
0.0
 20
0.0
 30
0.0
  9
$EXTMIN
 10
-3.302359309229244
 20
-21.159710159999999
 30
0.0
  9
$EXTMAX
 10
115.0038986104466
 20
52.367745696509012
 30
0.0
  9
$LIMMIN
 10
0.0
 20
0.0
  9
$LIMMAX
 10
297.0
 20
210.0
  9
$ORTHOMODE
 70
     0
  9
$REGENMODE
 70
     1
  9
$FILLMODE
 70
     1
  9
$QTEXTMODE
 70
     0
  9
$MIRRTEXT
 70
     1
  9
$DRAGMODE
 70
     2
  9
$LTSCALE
 40
10.0
  9
$OSMODE
 70
    35
  9
$ATTMODE
 70
     1
  9
$TEXTSIZE
 40
3.0
  9
$TRACEWID
 40
1.0
  9
$TEXTSTYLE
  7
YOKO
  9
$CLAYER
  8
240
  9
$CELTYPE
  6
BYLAYER
  9
$CECOLOR
 62
   256
  9
$DIMSCALE
 40
1.0
  9
$DIMASZ
 40
2.2299999999999991
  9
$DIMEXO
 40
0.5
  9
$DIMDLI
 40
7.0
  9
$DIMRND
 40
0.0
  9
$DIMDLE
 40
0.0
  9
$DIMEXE
 40
1.0
  9
$DIMTP
 40
0.0
  9
$DIMTM
 40
0.01
  9
$DIMTXT
 40
2.7999999999999989
  9
$DIMCEN
 40
0.0
  9
$DIMTSZ
 40
0.0
  9
$DIMTOL
 70
     0
  9
$DIMLIM
 70
     0
  9
$DIMTIH
 70
     0
  9
$DIMTOH
 70
     0
  9
$DIMSE1
 70
     0
  9
$DIMSE2
 70
     0
  9
$DIMTAD
 70
     3
  9
$DIMZIN
 70
     9
  9
$DIMBLK
  1
OPEN
  9
$DIMASO
 70
     1
  9
$DIMSHO
 70
     1
  9
$DIMPOST
  1

  9
$DIMAPOST
  1

  9
$DIMALT
 70
     0
  9
$DIMALTD
 70
     2
  9
$DIMALTF
 40
25.399999999999999
  9
$DIMLFAC
 40
1.0
  9
$DIMTOFL
 70
     1
  9
$DIMTVP
 40
0.0
  9
$DIMTIX
 70
     1
  9
$DIMSOXD
 70
     0
  9
$DIMSAH
 70
     0
  9
$DIMBLK1
  1

  9
$DIMBLK2
  1

  9
$DIMSTYLE
  2
BIGT
  9
$DIMCLRD
 70
   256
  9
$DIMCLRE
 70
   256
  9
$DIMCLRT
 70
    40
  9
$DIMTFAC
 40
1.0
  9
$DIMGAP
 40
1.0
  9
$LUNITS
 70
     2
  9
$LUPREC
 70
     6
  9
$SKETCHINC
 40
1.0
  9
$FILLETRAD
 40
0.0
  9
$AUNITS
 70
     0
  9
$AUPREC
 70
     6
  9
$MENU
  1
.
  9
$ELEVATION
 40
0.0
  9
$PELEVATION
 40
0.0
  9
$THICKNESS
 40
0.0
  9
$LIMCHECK
 70
     0
  9
$BLIPMODE
 70
     0
  9
$CHAMFERA
 40
0.2
  9
$CHAMFERB
 40
0.2
  9
$SKPOLY
 70
     0
  9
$TDCREATE
 40
2457736.750439838
  9
$TDUPDATE
 40
2457738.5674373852
  9
$TDINDWG
 40
0.0060141667
  9
$TDUSRTIMER
 40
0.0060141204
  9
$USRTIMER
 70
     1
  9
$ANGBASE
 50
0.0
  9
$ANGDIR
 70
     0
  9
$PDMODE
 70
     1
  9
$PDSIZE
 40
0.0
  9
$PLINEWID
 40
0.0
  9
$COORDS
 70
     1
  9
$SPLFRAME
 70
     0
  9
$SPLINETYPE
 70
     6
  9
$SPLINESEGS
 70
     4
  9
$ATTDIA
 70
     1
  9
$ATTREQ
 70
     1
  9
$HANDLING
 70
     1
  9
$HANDSEED
  5
45E4
  9
$SURFTAB1
 70
     6
  9
$SURFTAB2
 70
     6
  9
$SURFTYPE
 70
     6
  9
$SURFU
 70
     6
  9
$SURFV
 70
     6
  9
$UCSNAME
  2

  9
$UCSORG
 10
0.0
 20
0.0
 30
0.0
  9
$UCSXDIR
 10
1.0
 20
0.0
 30
0.0
  9
$UCSYDIR
 10
0.0
 20
1.0
 30
0.0
  9
$PUCSNAME
  2

  9
$PUCSORG
 10
0.0
 20
0.0
 30
0.0
  9
$PUCSXDIR
 10
1.0
 20
0.0
 30
0.0
  9
$PUCSYDIR
 10
0.0
 20
1.0
 30
0.0
  9
$USERI1
 70
     1
  9
$USERI2
 70
     0
  9
$USERI3
 70
     0
  9
$USERI4
 70
     0
  9
$USERI5
 70
     0
  9
$USERR1
 40
0.0
  9
$USERR2
 40
0.0
  9
$USERR3
 40
0.0
  9
$USERR4
 40
0.0
  9
$USERR5
 40
0.0
  9
$WORLDVIEW
 70
     1
  9
$SHADEDGE
 70
     3
  9
$SHADEDIF
 70
    70
  9
$TILEMODE
 70
     1
  9
$MAXACTVP
 70
    16
  9
$PLIMCHECK
 70
     0
  9
$PEXTMIN
 10
1.0000000000000000E+020
 20
1.0000000000000000E+020
 30
1.0000000000000000E+020
  9
$PEXTMAX
 10
-1.0000000000000000E+020
 20
-1.0000000000000000E+020
 30
-1.0000000000000000E+020
  9
$PLIMMIN
 10
0.0
 20
0.0
  9
$PLIMMAX
 10
420.0
 20
297.0
  9
$UNITMODE
 70
     0
  9
$VISRETAIN
 70
     1
  9
$PLINEGEN
 70
     0
  9
$PSLTSCALE
 70
     1
  0
ENDSEC
  0
SECTION
  2
TABLES
  0
TABLE
  2
VPORT
 70
     1
  0
VPORT
  2
*ACTIVE
 70
     0
 10
0.0
 20
0.0
 11
1.0
 21
1.0
 12
55.48453970875174
 22
19.72204799368393
 13
0.0
 23
0.0
 14
7.0
 24
7.0
 15
7.0
 25
7.0
 16
0.0
 26
0.0
 36
1.0
 17
0.0
 27
0.0
 37
0.0
 40
144.99111843347009
 41
1.525683060109289
 42
50.0
 43
0.0
 44
0.0
 50
0.0
 51
0.0
 71
     0
 72
  2000
 73
     1
 74
     0
 75
     0
 76
     1
 77
     0
 78
     0
  0
ENDTAB
  0
TABLE
  2
LTYPE
 70
    16
  0
LTYPE
  2
CONTINUOUS
 70
     0
  3
Solid line
 72
    65
 73
     0
 40
0.0
  0
LTYPE
  2
CENTER2
 70
     0
  3
___ _ ___ _ ___ _ ___ _ ___ _ ___ _ ___ _ ___ _
 72
    65
 73
     4
 40
1.125
 49
0.75
 49
-0.125
 49
0.125
 49
-0.125
  0
LTYPE
  2
HIDDEN2
 70
     0
  3
_ _ _ _ _ _ _ _ _ _ _ _ _ _ _ _ _ _ _ _ _ _ _ _
 72
    65
 73
     2
 40
0.1875
 49
0.125
 49
-0.0625
  0
LTYPE
  2
PHANTOM2
 70
     0
  3
___ _ _ ___ _ _ ___ _ _ ___ _ _ ___ _ _ ___ _ _
 72
    65
 73
     6
 40
1.25
 49
0.625
 49
-0.125
 49
0.125
 49
-0.125
 49
0.125
 49
-0.125
  0
LTYPE
  2
AM_ISO02W050
 70
     0
  3
__ __ __ __ __ __ __ __ __ __ __ __ __ __ __
 72
    65
 73
     2
 40
7.5
 49
6.0
 49
-1.5
  0
LTYPE
  2
AMCONSTR
 70
     0
  3
_______________________
 72
    65
 73
     2
 40
9999.0
 49
9999.0
 49
0.0
  0
LTYPE
  2
ACISOWELD
 70
     0
  3
_ _ _ _ _
 72
    65
 73
     2
 40
2.0
 49
2.0
 49
-1.0
  0
LTYPE
  2
ACISOTGB
 70
     0
  3
__ . . __ . .
 72
    65
 73
     6
 40
9.0
 49
4.0
 49
-1.0
 49
1.0
 49
-1.0
 49
1.0
 49
-1.0
  0
LTYPE
  2
ACISOTGL
 70
     0
  3
_ _ _ _ _
 72
    65
 73
     2
 40
3.0
 49
2.0
 49
-1.0
  0
LTYPE
  2
ACJISTGB
 70
     0
  3
__ . . __ . .
 72
    65
 73
     6
 40
9.0
 49
4.0
 49
-1.0
 49
1.0
 49
-1.0
 49
1.0
 49
-1.0
  0
LTYPE
  2
ACJISTGL
 70
     0
  3
_ _ _ _ _
 72
    65
 73
     2
 40
3.0
 49
2.0
 49
-1.0
  0
ENDTAB
  0
TABLE
  2
LAYER
 70
     8
  0
LAYER
  2
0
 70
     0
 62
     7
  6
CONTINUOUS
  0
LAYER
  2
DEFPOINTS
 70
     0
 62
     7
  6
CONTINUOUS
  0
LAYER
  2
245
 70
     0
 62
     2
  6
CENTER2
  0
LAYER
  2
240
 70
     0
 62
     4
  6
CONTINUOUS
  0
LAYER
  2
241
 70
     0
 62
   211
  6
CONTINUOUS
  0
LAYER
  2
243
 70
     0
 62
   211
  6
HIDDEN2
  0
LAYER
  2
247
 70
     0
 62
    60
  6
CONTINUOUS
  0
LAYER
  2
250
 70
     0
 62
     3
  6
CONTINUOUS
  0
ENDTAB
  0
TABLE
  2
STYLE
 70
     8
  0
STYLE
  2
STANDARD
 70
     0
 40
0.0
 41
1.0
 50
0.0
 71
     0
 42
3.0
  3
romans.shx
  4
extfont.shx
  0
STYLE
  2
ACISOTS
 70
     0
 40
1.0
 41
1.0
 50
0.0
 71
     0
 42
3.0
  3
amgdt.shx
  4
extfont.shx
  0
STYLE
  2
ACISOGDT
 70
     0
 40
0.0
 41
1.0
 50
0.0
 71
     0
 42
3.0
  3
amgdt.shx
  4
extfont.shx
  0
STYLE
  2
ACJISTS
 70
     0
 40
1.0
 41
1.0
 50
0.0
 71
     0
 42
3.0
  3
amgdt.shx
  4
extfont.shx
  0
STYLE
  2
ACJISGDT
 70
     0
 40
0.0
 41
1.0
 50
0.0
 71
     0
 42
3.0
  3
amgdt.shx
  4
extfont.shx
  0
STYLE
  2
YOKO
 70
     0
 40
0.0
 41
1.0
 50
0.0
 71
     0
 42
3.0
  3
romans.shx
  4
extfont.shx
  0
ENDTAB
  0
TABLE
  2
VIEW
 70
     0
  0
ENDTAB
  0
TABLE
  2
UCS
 70
     0
  0
ENDTAB
  0
TABLE
  2
APPID
 70
    41
  0
APPID
  2
ACAD
 70
     0
  0
APPID
  2
GLOBAL
 70
     0
  0
APPID
  2
DETAIL
 70
     0
  0
APPID
  2
GRPNAME
 70
     0
  0
APPID
  2
GPARA
 70
     0
  0
APPID
  2
MCAD_NO_VIS
 70
     0
  0
APPID
  2
ACAD_TEMP_GRAPHIC
 70
     0
  0
APPID
  2
ACATTRIBSERVICES
 70
     0
  0
APPID
  2
GENIUS_GENSCREG_15
 70
     0
  0
APPID
  2
GENIUS_GENODEF_13
 70
     0
  0
APPID
  2
GENIUS_GENOBJ-N-SDF_13
 70
     0
  0
APPID
  2
GENIUS_GENREC_14
 70
     0
  0
APPID
  2
GENIUS_GENOBJ-N-REC_13
 70
     0
  0
APPID
  2
GENIUS_GENDIMSH_14
 70
     0
  0
APPID
  2
GENIUS_GENOBJ-N-DIM_13
 70
     0
  0
APPID
  2
GENIUS_GENDIM_13
 70
     0
  0
APPID
  2
GENIUS_GENDTOL_13
 70
     0
  0
APPID
  2
GENIUS_GENOLIS_13
 70
     0
  0
APPID
  2
GENIUS_GENOENT_13
 70
     0
  0
APPID
  2
GENIUS_GENOBJ-F-FEM_13
 70
     0
  0
APPID
  2
GENIUS_GENOREF_13
 70
     0
  0
APPID
  2
GENIUS_GEFFEM_13
 70
     0
  0
APPID
  2
GENIUS_GEFFEMP_13
 70
     0
  0
APPID
  2
AD_DRAW
 70
     0
  0
APPID
  2
DESIGNERASSEMBLIES
 70
     0
  0
APPID
  2
ACADM_DIM_EDIT
 70
     0
  0
APPID
  2
AMDT_DM_ADJ
 70
     0
  0
APPID
  2
ITEMNAME
 70
     0
  0
APPID
  2
GENIUS_GENOBJ-N-FIL_13
 70
     0
  0
APPID
  2
GENIUS_GENFIL_13
 70
     0
  0
APPID
  2
GENIUS_GENOBJ-N-CHA_13
 70
     0
  0
APPID
  2
ACAD_NAV_VCDISPLAY
 70
     0
  0
APPID
  2
ACAD_DSTYLE_DIMJAG
 70
     0
  0
APPID
  2
ACAD_DSTYLE_DIMBREAK
 70
     0
  0
APPID
  2
ACAECLAYERSTANDARD
 70
     0
  0
APPID
  2
ACAD_EXEMPT_FROM_CAD_STANDARDS
 70
     0
  0
APPID
  2
ACAD_MLEADERVER
 70
     0
  0
APPID
  2
ACAD_DSTYLE_DIMARC_LENGTH_
 70
     0
  0
APPID
  2
ACAD_DSTYLE_DIM_LINETYPE
 70
     0
  0
APPID
  2
ACAD_DSTYLE_DIM_EXT1_LINETYPE
 70
     0
  0
APPID
  2
ACAD_DSTYLE_DIM_EXT2_LINETYPE
 70
     0
  0
ENDTAB
  0
TABLE
  2
DIMSTYLE
 70
    29
  0
DIMSTYLE
  2
BIGT
 70
     0
  3

  4

  5
OPEN
  6

  7

 40
1.0
 41
2.2299999999999991
 42
0.5
 43
7.0
 44
1.0
 45
0.0
 46
0.0
 47
0.0
 48
0.01
140
2.7999999999999989
141
0.0
142
0.0
143
25.399999999999999
144
1.0
145
0.0
146
1.0
147
1.0
 71
     0
 72
     0
 73
     0
 74
     0
 75
     0
 76
     0
 77
     3
 78
     9
170
     0
171
     2
172
     1
173
     0
174
     1
175
     0
176
   256
177
   256
178
    40
  0
DIMSTYLE
  2
AM_ISO
 70
     0
  3

  4
"
  5

  6

  7

 40
1.0
 41
2.5
 42
1.0
 43
10.0
 44
1.0
 45
0.0
 46
0.0
 47
0.1
 48
0.1
140
3.5
141
0.0
142
0.0
143
0.0393701
144
1.0
145
0.0
146
0.71
147
1.5
 71
     0
 72
     0
 73
     0
 74
     0
 75
     0
 76
     0
 77
     1
 78
     8
170
     0
171
     2
172
     1
173
     0
174
     0
175
     0
176
   256
177
   256
178
     2
  0
DIMSTYLE
  2
AM_ISO$3
 70
     0
  3

  4
"
  5

  6

  7

 40
1.0
 41
2.5
 42
1.0
 43
10.0
 44
1.0
 45
0.0
 46
0.0
 47
0.1
 48
0.1
140
3.5
141
0.0
142
0.0
143
0.0393701
144
1.0
145
0.0
146
0.71
147
1.5
 71
     0
 72
     0
 73
     0
 74
     1
 75
     0
 76
     0
 77
     1
 78
     8
170
     0
171
     2
172
     0
173
     0
174
     0
175
     0
176
   256
177
   256
178
     2
  0
DIMSTYLE
  2
AM_ISO$4
 70
     0
  3

  4
"
  5

  6

  7

 40
1.0
 41
2.5
 42
1.0
 43
10.0
 44
1.0
 45
0.0
 46
0.0
 47
0.1
 48
0.1
140
3.5
141
0.0
142
0.0
143
0.0393701
144
1.0
145
0.0
146
0.71
147
1.5
 71
     0
 72
     0
 73
     0
 74
     1
 75
     0
 76
     0
 77
     1
 78
     8
170
     0
171
     2
172
     0
173
     0
174
     0
175
     0
176
   256
177
   256
178
     2
  0
DIMSTYLE
  2
AM_ISO$6
 70
     0
  3

  4
"
  5

  6

  7

 40
1.0
 41
2.5
 42
1.0
 43
10.0
 44
1.0
 45
0.0
 46
0.0
 47
0.1
 48
0.1
140
3.5
141
0.0
142
0.0
143
0.0393701
144
1.0
145
0.0
146
0.71
147
1.5
 71
     0
 72
     0
 73
     0
 74
     0
 75
     0
 76
     0
 77
     0
 78
     8
170
     0
171
     2
172
     1
173
     0
174
     0
175
     0
176
   256
177
   256
178
     2
  0
DIMSTYLE
  2
AM_ISO$7
 70
     0
  3

  4
"
  5

  6

  7

 40
1.0
 41
2.5
 42
1.0
 43
10.0
 44
1.0
 45
0.0
 46
0.0
 47
0.1
 48
0.1
140
5.0
141
0.0
142
0.0
143
0.0393701
144
1.0
145
0.0
146
0.71
147
1.5
 71
     0
 72
     0
 73
     0
 74
     0
 75
     0
 76
     0
 77
     1
 78
     8
170
     0
171
     2
172
     1
173
     0
174
     0
175
     0
176
   256
177
   256
178
     2
  0
DIMSTYLE
  2
AM_ISO$SF
 70
     0
  3

  4
"
  5

  6

  7

 40
1.0
 41
2.5
 42
1.0
 43
10.0
 44
1.0
 45
0.0
 46
0.0
 47
0.1
 48
0.1
140
3.5
141
0.0
142
0.0
143
0.0393701
144
1.0
145
0.0
146
0.71
147
1.5
 71
     0
 72
     0
 73
     0
 74
     0
 75
     1
 76
     1
 77
     1
 78
     8
170
     0
171
     2
172
     1
173
     0
174
     0
175
     0
176
   256
177
   256
178
     2
  0
DIMSTYLE
  2
AM_ISO$SH
 70
     0
  3

  4
"
  5

  6
GENAXEH
  7

 40
1.0
 41
2.5
 42
1.0
 43
10.0
 44
1.0
 45
0.0
 46
0.0
 47
0.1
 48
0.1
140
3.5
141
0.0
142
0.0
143
0.0393701
144
2.0
145
0.0
146
0.71
147
1.5
 71
     0
 72
     0
 73
     0
 74
     0
 75
     1
 76
     1
 77
     1
 78
     8
170
     0
171
     2
172
     1
173
     1
174
     0
175
     0
176
   256
177
   256
178
     2
  0
DIMSTYLE
  2
BIGT$2
 70
     0
  3

  4

  5
OPEN
  6

  7

 40
1.0
 41
2.2299999999999991
 42
0.5
 43
7.0
 44
1.0
 45
0.0
 46
0.0
 47
0.0
 48
0.01
140
2.7999999999999989
141
0.0
142
0.0
143
25.399999999999999
144
1.0
145
0.0
146
1.0
147
1.0
 71
     0
 72
     0
 73
     0
 74
     0
 75
     0
 76
     0
 77
     3
 78
     9
170
     0
171
     2
172
     1
173
     0
174
     0
175
     0
176
   256
177
   256
178
    40
  0
DIMSTYLE
  2
BIGT$3
 70
     0
  3

  4

  5
OPEN
  6

  7

 40
1.0
 41
2.2299999999999991
 42
0.5
 43
2.5
 44
1.0
 45
0.0
 46
0.0
 47
0.0
 48
0.01
140
2.7999999999999989
141
0.0
142
0.0
143
25.399999999999999
144
1.0
145
0.0
146
1.0
147
1.0
 71
     0
 72
     0
 73
     0
 74
     0
 75
     0
 76
     0
 77
     3
 78
     9
170
     0
171
     2
172
     1
173
     0
174
     0
175
     0
176
   256
177
   256
178
    40
  0
DIMSTYLE
  2
BIGT$7
 70
     0
  3

  4

  5
OPEN
  6

  7

 40
0.0
 41
2.2299999999999991
 42
0.5
 43
7.0
 44
1.0
 45
0.0
 46
0.0
 47
0.0
 48
0.01
140
2.7999999999999989
141
0.0
142
0.0
143
25.399999999999999
144
1.0
145
0.0
146
1.0
147
1.0
 71
     0
 72
     0
 73
     0
 74
     0
 75
     0
 76
     0
 77
     3
 78
     9
170
     0
171
     2
172
     0
173
     0
174
     0
175
     0
176
   256
177
   256
178
    40
  0
DIMSTYLE
  2
BIGT$6
 70
     0
  3

  4

  5
OPEN
  6

  7

 40
1.0
 41
2.2299999999999991
 42
0.5
 43
2.5
 44
1.0
 45
0.0
 46
0.0
 47
0.0
 48
0.01
140
2.7999999999999989
141
0.0
142
0.0
143
25.399999999999999
144
1.0
145
0.0
146
1.0
147
1.0
 71
     0
 72
     0
 73
     0
 74
     0
 75
     0
 76
     0
 77
     3
 78
     9
170
     0
171
     2
172
     1
173
     0
174
     0
175
     0
176
   256
177
   256
178
    40
  0
DIMSTYLE
  2
BIGT$0
 70
     0
  3

  4

  5
OPEN
  6

  7

 40
1.0
 41
2.2299999999999991
 42
0.5
 43
7.0
 44
1.0
 45
0.0
 46
0.0
 47
0.0
 48
0.01
140
2.7999999999999989
141
0.0
142
0.0
143
25.399999999999999
144
1.0
145
0.0
146
1.0
147
1.0
 71
     0
 72
     0
 73
     0
 74
     0
 75
     0
 76
     0
 77
     3
 78
     9
170
     0
171
     2
172
     1
173
     0
174
     1
175
     0
176
   256
177
   256
178
    40
  0
DIMSTYLE
  2
BIGT$4
 70
     0
  3

  4

  5
OPEN
  6

  7

 40
1.0
 41
2.2299999999999991
 42
0.5
 43
2.5
 44
1.0
 45
0.0
 46
0.0
 47
0.0
 48
0.01
140
2.7999999999999989
141
0.0
142
0.0
143
25.399999999999999
144
1.0
145
0.0
146
1.0
147
1.0
 71
     0
 72
     0
 73
     0
 74
     0
 75
     0
 76
     0
 77
     3
 78
     9
170
     0
171
     2
172
     1
173
     0
174
     0
175
     0
176
   256
177
   256
178
    40
  0
DIMSTYLE
  2
BIGT$SH
 70
     0
  3

  4

  5
OPEN
  6

  7

 40
1.0
 41
2.2299999999999991
 42
0.5
 43
7.0
 44
1.0
 45
0.0
 46
0.0
 47
0.0
 48
0.0
140
2.7999999999999989
141
0.0
142
0.0
143
25.399999999999999
144
1.0
145
0.0
146
1.0
147
1.0
 71
     0
 72
     0
 73
     0
 74
     0
 75
     0
 76
     0
 77
     3
 78
     9
170
     0
171
     2
172
     1
173
     0
174
     0
175
     0
176
   256
177
   256
178
    40
  0
DIMSTYLE
  2
BIGT$SF
 70
     0
  3

  4

  5
OPEN
  6

  7

 40
1.0
 41
2.2299999999999991
 42
0.5
 43
7.0
 44
1.0
 45
0.0
 46
0.0
 47
0.0
 48
0.0
140
2.7999999999999989
141
0.0
142
0.0
143
25.399999999999999
144
1.0
145
0.0
146
1.0
147
1.0
 71
     0
 72
     0
 73
     0
 74
     0
 75
     0
 76
     0
 77
     3
 78
     9
170
     0
171
     2
172
     1
173
     0
174
     0
175
     0
176
   256
177
   256
178
    40
  0
DIMSTYLE
  2
TECHNICAL_OSAKA
 70
     0
  3

  4
"
  5
OPEN30
  6

  7

 40
1.0
 41
2.5
 42
1.0
 43
10.0
 44
1.0
 45
0.0
 46
0.0
 47
0.1
 48
0.1
140
2.7999999999999989
141
0.0
142
0.0
143
0.0393701
144
1.0
145
0.0
146
0.71
147
1.5
 71
     0
 72
     0
 73
     0
 74
     0
 75
     0
 76
     0
 77
     3
 78
     8
170
     0
171
     2
172
     1
173
     0
174
     0
175
     0
176
   256
177
   256
178
    40
  0
DIMSTYLE
  2
TECHNICAL_OSAKA$3
 70
     0
  3

  4
"
  5
OPEN30
  6

  7

 40
1.0
 41
2.5
 42
1.0
 43
10.0
 44
1.0
 45
0.0
 46
0.0
 47
0.1
 48
0.1
140
2.7999999999999989
141
0.0
142
0.0
143
0.0393701
144
1.0
145
0.0
146
0.71
147
1.5
 71
     0
 72
     0
 73
     0
 74
     1
 75
     0
 76
     0
 77
     3
 78
     8
170
     0
171
     2
172
     0
173
     0
174
     0
175
     0
176
   256
177
   256
178
    40
  0
DIMSTYLE
  2
TECHNICAL_OSAKA$4
 70
     0
  3

  4
"
  5
OPEN30
  6

  7

 40
1.0
 41
2.5
 42
1.0
 43
10.0
 44
1.0
 45
0.0
 46
0.0
 47
0.1
 48
0.1
140
2.7999999999999989
141
0.0
142
0.0
143
0.0393701
144
1.0
145
0.0
146
0.71
147
1.5
 71
     0
 72
     0
 73
     0
 74
     1
 75
     0
 76
     0
 77
     3
 78
     8
170
     0
171
     2
172
     0
173
     0
174
     0
175
     0
176
   256
177
   256
178
    40
  0
DIMSTYLE
  2
TECHNICAL_OSAKA$6
 70
     0
  3

  4
"
  5
OPEN30
  6

  7

 40
1.0
 41
2.5
 42
1.0
 43
10.0
 44
1.0
 45
0.0
 46
0.0
 47
0.1
 48
0.1
140
2.7999999999999989
141
0.0
142
0.0
143
0.0393701
144
1.0
145
0.0
146
0.71
147
1.5
 71
     0
 72
     0
 73
     0
 74
     0
 75
     0
 76
     0
 77
     0
 78
     8
170
     0
171
     2
172
     1
173
     0
174
     0
175
     0
176
   256
177
   256
178
    40
  0
DIMSTYLE
  2
TECHNICAL_OSAKA$7
 70
     0
  3

  4
"
  5
OPEN30
  6

  7

 40
1.0
 41
2.5
 42
1.0
 43
10.0
 44
1.0
 45
0.0
 46
0.0
 47
0.1
 48
0.1
140
2.7999999999999989
141
0.0
142
0.0
143
0.0393701
144
1.0
145
0.0
146
0.71
147
1.5
 71
     0
 72
     0
 73
     0
 74
     0
 75
     0
 76
     0
 77
     3
 78
     8
170
     0
171
     2
172
     1
173
     0
174
     0
175
     0
176
   256
177
   256
178
    40
  0
DIMSTYLE
  2
TECHNICAL_OSAKA$SF
 70
     0
  3

  4
"
  5
OPEN30
  6
OPEN30
  7
OPEN30
 40
1.0
 41
2.5
 42
1.0
 43
10.0
 44
1.0
 45
0.0
 46
0.0
 47
0.1
 48
0.1
140
3.5
141
0.0
142
0.0
143
0.0393701
144
1.0
145
0.0
146
0.71
147
1.5
 71
     0
 72
     0
 73
     0
 74
     0
 75
     1
 76
     1
 77
     3
 78
     8
170
     0
171
     2
172
     1
173
     0
174
     0
175
     0
176
   256
177
   256
178
    40
  0
DIMSTYLE
  2
TECHNICAL_OSAKA$SH
 70
     0
  3

  4
"
  5
OPEN30
  6
GENAXEH
  7
OPEN30
 40
1.0
 41
2.5
 42
1.0
 43
10.0
 44
1.0
 45
0.0
 46
0.0
 47
0.1
 48
0.1
140
3.5
141
0.0
142
0.0
143
0.0393701
144
2.0
145
0.0
146
0.71
147
1.5
 71
     0
 72
     0
 73
     0
 74
     0
 75
     1
 76
     1
 77
     3
 78
     8
170
     0
171
     2
172
     1
173
     1
174
     0
175
     0
176
   256
177
   256
178
    40
  0
ENDTAB
  0
ENDSEC
  0
SECTION
  2
BLOCKS
  0
BLOCK
  8
0
  2
$MODEL_SPACE
 70
     0
 10
0.0
 20
0.0
 30
0.0
  3
$MODEL_SPACE
  1

  0
ENDBLK
  5
1C
  8
0
  0
BLOCK
 67
     1
  8
0
  2
$PAPER_SPACE
 70
     0
 10
0.0
 20
0.0
 30
0.0
  3
$PAPER_SPACE
  1

  0
ENDBLK
  5
19
 67
     1
  8
0
  0
BLOCK
  8
0
  2
_OPEN
 70
     0
 10
0.0
 20
0.0
 30
0.0
  3
_OPEN
  1

  0
LINE
  5
44EB
  8
0
  6
BYBLOCK
 62
     0
 10
-1.0
 20
0.1666666666666666
 30
0.0
 11
0.0
 21
0.0
 31
0.0
  0
LINE
  5
44EC
  8
0
  6
BYBLOCK
 62
     0
 10
-1.0
 20
-0.1666666666666666
 30
0.0
 11
0.0
 21
0.0
 31
0.0
  0
LINE
  5
44ED
  8
0
  6
BYBLOCK
 62
     0
 10
0.0
 20
0.0
 30
0.0
 11
-1.0
 21
0.0
 31
0.0
  0
ENDBLK
  5
44EE
  8
0
  0
BLOCK
  8
0
  2
GENAXEH
 70
     0
 10
0.0
 20
0.0
 30
0.0
  3
GENAXEH
  1

  0
LINE
  5
4526
  8
0
 10
-1.0
 20
0.0
 30
0.0
 11
1.0
 21
0.0
 31
0.0
  0
ENDBLK
  5
4527
  8
0
  0
BLOCK
  8
0
  2
_OPEN30
 70
     0
 10
0.0
 20
0.0
 30
0.0
  3
_OPEN30
  1

  0
LINE
  5
4562
  8
0
  6
BYBLOCK
 62
     0
 10
-1.0
 20
0.26794919
 30
0.0
 11
0.0
 21
0.0
 31
0.0
  0
LINE
  5
4563
  8
0
  6
BYBLOCK
 62
     0
 10
0.0
 20
0.0
 30
0.0
 11
-1.0
 21
-0.26794919
 31
0.0
  0
LINE
  5
4564
  8
0
  6
BYBLOCK
 62
     0
 10
0.0
 20
0.0
 30
0.0
 11
-1.0
 21
0.0
 31
0.0
  0
ENDBLK
  5
4565
  8
0
  0
BLOCK
  8
0
  2
*U4
 70
     1
 10
0.0
 20
0.0
 30
0.0
  3
*U4
  1

  0
TEXT
  5
432E
  8
250
 10
9.033377304578428
 20
-11.479999999999981
 30
0.0
 40
2.799999999999998
  1
max.\U+03C64.05
 50
90.0
  0
ENDBLK
  5
432F
  8
0
  0
BLOCK
  8
0
  2
*U5
 70
     1
 10
0.0
 20
0.0
 30
0.0
  3
*U5
  1

  0
TEXT
  5
4332
  8
250
 10
15.99999999999998
 20
-3.9333336633333271
 30
0.0
 40
2.799999999999998
  1
\U+2205
 50
90.0
  0
TEXT
  5
4333
  8
250
 10
15.99999999999998
 20
-1.400000329999991
 30
0.0
 40
2.799999999999998
  1
12
 50
90.0
  0
ENDBLK
  5
4334
  8
0
  0
ENDSEC
  0
SECTION
  2
ENTITIES
  0
LINE
  5
4291
  8
240
  6
CONTINUOUS
 10
67.999999999995694
 20
9.9999999999996767
 30
0.0
 11
67.999999999997954
 21
6.7500000000000062
 31
0.0
  0
LINE
  5
4299
  8
240
  6
CONTINUOUS
 10
-0.0000000000068213
 20
10.000000000000661
 30
0.0
 11
67.999999999995694
 21
9.9999999999996767
 31
0.0
  0
LINE
  5
429A
  8
240
  6
CONTINUOUS
 10
-0.0000000000068213
 20
10.000000000000661
 30
0.0
 11
0.0000000000068213
 21
-10.000000000000661
 31
0.0
  0
LINE
  5
42A2
  8
240
  6
CONTINUOUS
 10
67.999999999995694
 20
-9.9999999999998153
 30
0.0
 11
67.999999999997996
 21
-6.749999999999984
 31
0.0
  0
LINE
  5
42AA
  8
240
  6
CONTINUOUS
 10
0.0000000000068213
 20
-10.000000000000661
 30
0.0
 11
67.999999999995694
 21
-9.9999999999998153
 31
0.0
  0
LINE
  5
42AE
  8
241
  6
CONTINUOUS
 10
52.799999999990412
 20
-9.9999999999999716
 30
0.0
 11
52.799999999990412
 21
9.9999999999998561
 31
0.0
  0
LINE
  5
42AF
  8
241
  6
CONTINUOUS
 10
53.999999999992617
 20
-10.00000000000003
 30
0.0
 11
53.999999999992617
 21
9.9999999999999112
 31
0.0
  0
LINE
  5
42B0
  8
241
  6
CONTINUOUS
 10
54.999999999992561
 20
-10.00000000000003
 30
0.0
 11
54.999999999992561
 21
9.9999999999999112
 31
0.0
  0
LINE
  5
42B1
  8
241
  6
CONTINUOUS
 10
56.19999999999272
 20
-9.9999999999999112
 30
0.0
 11
56.19999999999272
 21
9.9999999999998028
 31
0.0
  0
LINE
  5
42C1
  8
245
  6
CENTER2
 10
-3.302359309229244
 20
0.0
 30
0.0
 11
92.813080160961363
 21
0.0
 31
0.0
1001
GRPNAME
1000
0000002V
  0
TEXT
  5
42D7
  8
241
  6
CONTINUOUS
 10
-0.7834397015346825
 20
48.367745696508983
 30
0.0
 40
4.0
  1
ST20-MGT3-90
  7
YOKO
  0
LINE
  5
4316
  8
250
  6
CONTINUOUS
 10
-0.0000000000061395
 20
10.500000000000661
 30
0.0
 11
-0.0000000000061379
 21
36.000778046257153
 31
0.0
  0
LINE
  5
4317
  8
250
  6
CONTINUOUS
 10
89.999999999996064
 20
6.5000000500000077
 30
0.0
 11
89.999999999996064
 21
36.000778046257153
 31
0.0
  0
LINE
  5
4318
  8
250
  6
CONTINUOUS
 10
2.2299999999938609
 20
35.000778046257153
 30
0.0
 11
87.769999999996074
 21
35.000778046257153
 31
0.0
  0
TEXT
  5
4319
  8
250
  6
CONTINUOUS
 10
42.333333333328291
 20
36.000778046257153
 30
0.0
 40
2.799999999999998
  1
90
  0
LINE
  5
431A
  8
250
  6
CONTINUOUS
 10
87.769999999996074
 20
28.372444712923819
 30
0.0
 11
89.999999999996064
 21
28.00077804625715
 31
0.0
  0
LINE
  5
431B
  8
250
  6
CONTINUOUS
 10
87.769999999996074
 20
27.62911137959048
 30
0.0
 11
89.999999999996064
 21
28.00077804625715
 31
0.0
  0
LINE
  5
431C
  8
250
  6
CONTINUOUS
 10
89.999999999996064
 20
28.00077804625715
 30
0.0
 11
87.769999999996074
 21
28.00077804625715
 31
0.0
  0
LINE
  5
431D
  8
250
  6
CONTINUOUS
 10
2.2299999999938609
 20
34.629111379590491
 30
0.0
 11
-0.0000000000061379
 21
35.000778046257153
 31
0.0
  0
LINE
  5
431E
  8
250
  6
CONTINUOUS
 10
2.2299999999938609
 20
35.372444712923823
 30
0.0
 11
-0.0000000000061379
 21
35.000778046257153
 31
0.0
  0
LINE
  5
431F
  8
250
  6
CONTINUOUS
 10
-0.0000000000061379
 20
35.000778046257153
 30
0.0
 11
2.2299999999938609
 21
35.000778046257153
 31
0.0
  0
LINE
  5
4392
  8
240
  6
CONTINUOUS
 10
67.999999999997996
 20
-6.749999999999984
 30
0.0
 11
73.933974596209509
 21
-6.749999999999984
 31
0.0
  0
ARC
  5
4393
  8
240
  6
CONTINUOUS
 10
75.030940107669863
 20
-5.6500000000000812
 30
0.0
 40
0.4
 50
90.0
 51
150.0
1001
GENIUS_GENODEF_13
1002
{
1000
HIER
1070
     0
1002
}
1002
{
1000
MANEDIT
1070
     0
1002
}
1002
{
1000
NOSEL
1070
     0
1002
}
1002
{
1000
BEHIND
1070
     0
1002
}
1002
{
1000
OTHER
1070
     0
1002
}
1002
{
1000
REACTOR
1002
}
1001
GENIUS_GENOBJ-N-FIL_13
1002
{
1000
OWNER
1000
GEN
1002
}
  0
LINE
  5
4394
  8
240
  6
CONTINUOUS
 10
75.499999999994685
 20
-5.249999999999984
 30
0.0
 11
75.030940107669863
 21
-5.249999999999984
 31
0.0
1001
GRPNAME
1000
00000006
  0
LINE
  5
4395
  8
240
  6
CONTINUOUS
 10
73.933974596209509
 20
-6.749999999999984
 30
0.0
 11
74.68452994615626
 21
-5.4499999999998012
 31
0.0
  0
LINE
  5
4396
  8
240
  6
CONTINUOUS
 10
73.933974596209509
 20
6.7500000000000062
 30
0.0
 11
74.68452994615626
 21
5.4499999999998243
 31
0.0
  0
LINE
  5
4397
  8
240
  6
CONTINUOUS
 10
67.999999999997954
 20
6.7500000000000062
 30
0.0
 11
73.933974596209509
 21
6.7500000000000062
 31
0.0
  0
LINE
  5
4398
  8
240
  6
CONTINUOUS
 10
75.499999999994685
 20
5.2500000000000062
 30
0.0
 11
75.030940107669863
 21
5.2500000000000062
 31
0.0
1001
GRPNAME
1000
00000006
  0
ARC
  5
4399
  8
240
  6
CONTINUOUS
 10
75.030940107669863
 20
5.6500000000000972
 30
0.0
 40
0.4
 50
209.99999999999949
 51
270.0
1001
GENIUS_GENODEF_13
1002
{
1000
HIER
1070
     0
1002
}
1002
{
1000
MANEDIT
1070
     0
1002
}
1002
{
1000
NOSEL
1070
     0
1002
}
1002
{
1000
BEHIND
1070
     0
1002
}
1002
{
1000
OTHER
1070
     0
1002
}
1002
{
1000
REACTOR
1002
}
1001
GENIUS_GENOBJ-N-FIL_13
1002
{
1000
OWNER
1000
GEN
1002
}
  0
LINE
  5
439A
  8
241
  6
CONTINUOUS
 10
74.799999999994043
 20
5.2500000000000062
 30
0.0
 11
74.799999999994043
 21
-5.249999999999984
 31
0.0
  0
LINE
  5
439B
  8
250
  6
CONTINUOUS
 10
67.999999999994685
 20
10.499999999999529
 30
0.0
 11
67.999999999994685
 21
28.999999999999979
 31
0.0
  0
LINE
  5
439C
  8
250
  6
CONTINUOUS
 10
87.769999999994681
 20
27.999999999999979
 30
0.0
 11
70.229999999994703
 21
27.999999999999979
 31
0.0
  0
TEXT
  5
439E
  8
250
  6
CONTINUOUS
 10
76.333333333328028
 20
28.999999999999979
 30
0.0
 40
2.799999999999998
  1
22
  0
LINE
  5
439F
  8
250
  6
CONTINUOUS
 10
70.229999999994703
 20
27.628333333333309
 30
0.0
 11
67.999999999994685
 21
27.999999999999979
 31
0.0
  0
LINE
  5
43A0
  8
250
  6
CONTINUOUS
 10
70.229999999994703
 20
28.371666666666631
 30
0.0
 11
67.999999999994685
 21
27.999999999999979
 31
0.0
  0
LINE
  5
43A1
  8
250
  6
CONTINUOUS
 10
67.999999999994685
 20
27.999999999999979
 30
0.0
 11
70.229999999994703
 21
27.999999999999979
 31
0.0
  0
LINE
  5
43A2
  8
250
  6
CONTINUOUS
 10
87.769999999994681
 20
35.371666666666627
 30
0.0
 11
89.999999999994685
 21
34.999999999999972
 31
0.0
  0
LINE
  5
43A3
  8
250
  6
CONTINUOUS
 10
87.769999999994681
 20
34.628333333333302
 30
0.0
 11
89.999999999994685
 21
34.999999999999972
 31
0.0
  0
LINE
  5
43A4
  8
250
  6
CONTINUOUS
 10
89.999999999994685
 20
27.999999999999979
 30
0.0
 11
87.769999999994681
 21
27.999999999999979
 31
0.0
  0
LINE
  5
43AC
  8
250
  6
CONTINUOUS
 10
70.274784057923512
 20
21.132763881701379
 30
0.0
 11
85.741450724590209
 21
21.132763881701379
 31
0.0
1001
ITEMNAME
1000
LNSP2
  0
LINE
  5
43AD
  8
250
  6
CONTINUOUS
 10
96.47056527711328
 20
21.000777046257159
 30
0.0
 11
115.0038986104466
 21
21.000777046257159
 31
0.0
1001
ITEMNAME
1000
LNSP2
  0
LINE
  5
43AE
  8
241
  6
CONTINUOUS
 10
73.954020599746542
 20
-3.649987813100064
 30
0.0
 11
73.954020599746542
 21
-3.09232921921304
 31
0.0
  0
ARC
  5
43AF
  8
241
  6
CONTINUOUS
 10
63.128703052444408
 20
0.0000000000000293
 30
0.0
 40
11.258330249194501
 50
344.05763139436988
 51
15.9423686056299
  0
ARC
  5
43B0
  8
241
  6
CONTINUOUS
 10
71.560163701879134
 20
-5.1541180517820893
 30
0.0
 40
2.827182099261595
 50
325.6339531060965
 51
32.142346755458142
  0
LINE
  5
43B1
  8
241
  6
CONTINUOUS
 10
73.954020599746542
 20
-3.6499878131001791
 30
0.0
 11
67.999999999993889
 21
-3.6499878131001751
 31
0.0
  0
LINE
  5
43B2
  8
241
  6
CONTINUOUS
 10
73.954020599746315
 20
-3.092329219213604
 30
0.0
 11
67.999999999994273
 21
-3.092329219213608
 31
0.0
  0
LINE
  5
43B3
  8
241
  6
CONTINUOUS
 10
73.954020599746542
 20
3.6499878131001222
 30
0.0
 11
73.954020599746542
 21
3.0923292192130969
 31
0.0
  0
ARC
  5
43B4
  8
241
  6
CONTINUOUS
 10
71.560163701879134
 20
5.1541180517821461
 30
0.0
 40
2.827182099261595
 50
327.85765324454189
 51
34.36604689390235
  0
LINE
  5
43B5
  8
241
  6
CONTINUOUS
 10
73.954020599746542
 20
3.6499878131002381
 30
0.0
 11
67.999999999998863
 21
3.649987813100231
 31
0.0
  0
LINE
  5
43B6
  8
241
  6
CONTINUOUS
 10
73.954020599746315
 20
3.0923292192136649
 30
0.0
 11
67.999999999998494
 21
3.0923292192136689
 31
0.0
  0
TEXT
  5
43B7
  8
250
  6
CONTINUOUS
 10
98.737231943779946
 20
22.000777046257159
 30
0.0
 40
2.799999999999998
  1
NBC4S
  7
YOKO
1001
ITEMNAME
1000
LNSP3
  0
TEXT
  5
43B8
  8
250
  6
CONTINUOUS
 10
72.54145072459022
 20
22.132763881701369
 30
0.0
 40
2.799999999999998
  1
MGT3
  7
YOKO
1001
ITEMNAME
1000
LNSP3
  0
LINE
  5
43B9
  8
250
  6
CONTINUOUS
 10
65.135954968593396
 20
11.56538414090196
 30
0.0
 11
63.84727983399862
 21
9.9999999999997549
 31
0.0
  0
LINE
  5
43BA
  8
250
  6
CONTINUOUS
 10
64.558604699403801
 20
11.898717474235291
 30
0.0
 11
63.84727983399862
 21
9.9999999999997549
 31
0.0
  0
LINE
  5
43BB
  8
250
  6
CONTINUOUS
 10
63.84727983399862
 20
9.9999999999997549
 30
0.0
 11
64.847279833998613
 21
11.73205080756863
 31
0.0
  0
LINE
  5
43BC
  8
250
  6
CONTINUOUS
 10
64.847279833998613
 20
11.73205080756863
 30
0.0
 11
70.274784057923512
 21
21.132763881701379
 31
0.0
1001
ACAD
1000
DSTYLE
1002
{
1070
   341
1005
0
1070
    41
1040
2.0
1002
}
  0
LINE
  5
43BD
  8
250
  6
CONTINUOUS
 10
88.809862640990957
 20
7.7320508588164873
 30
0.0
 11
96.47056527711328
 21
21.000777046257159
 31
0.0
1001
ACAD
1000
DSTYLE
1002
{
1070
   341
1005
0
1070
    41
1040
2.0
1070
   140
1040
2.799999999999998
1002
}
  0
LINE
  5
43BE
  8
250
  6
CONTINUOUS
 10
88.521187506396146
 20
7.8987175254831516
 30
0.0
 11
87.809862640990943
 21
6.000000051247607
 31
0.0
  0
LINE
  5
43BF
  8
250
  6
CONTINUOUS
 10
87.809862640990943
 20
6.000000051247607
 30
0.0
 11
88.809862640990957
 21
7.7320508588164847
 31
0.0
  0
LINE
  5
43C0
  8
240
  6
CONTINUOUS
 10
77.759806089994456
 20
-6.0000007099999877
 30
0.0
 11
89.999999999994472
 21
-6.0000007099999877
 31
0.0
1001
GRPNAME
1000
PASTMD0F
  0
LINE
  5
43C1
  8
240
  6
CONTINUOUS
 10
77.75980722999445
 20
6.0000000500000077
 30
0.0
 11
89.999999999994472
 21
6.0000000500000077
 31
0.0
1001
GRPNAME
1000
PASTMD0F
  0
LINE
  5
43C2
  8
240
  6
CONTINUOUS
 10
77.759806089994456
 20
-6.0000007099999877
 30
0.0
 11
77.499998469994495
 21
-6.1500007099999836
 31
0.0
  0
LINE
  5
43C3
  8
240
  6
CONTINUOUS
 10
75.499998469994523
 20
-6.1500007099999836
 30
0.0
 11
77.499998469994495
 21
-6.1500007099999836
 31
0.0
1001
GRPNAME
1000
PASTMD0J
  0
LINE
  5
43C4
  8
240
  6
CONTINUOUS
 10
75.499998469994523
 20
-5.2499999999999867
 30
0.0
 11
75.499998469994523
 21
-6.1500007099999836
 31
0.0
1001
GRPNAME
1000
PASTMD0F
  0
LINE
  5
43C5
  8
241
  6
CONTINUOUS
 10
77.499998469994495
 20
6.1500007100000058
 30
0.0
 11
77.499998469994495
 21
-6.1500007099999898
 31
0.0
1001
GRPNAME
1000
PASTMD0J
  0
LINE
  5
43C6
  8
240
  6
CONTINUOUS
 10
75.499998469994495
 20
5.2500000000000107
 30
0.0
 11
75.499998469994523
 21
6.150000710000004
 31
0.0
1001
GRPNAME
1000
PASTMD0F
  0
LINE
  5
43C7
  8
241
  6
CONTINUOUS
 10
75.499998469994495
 20
5.2500000000000151
 30
0.0
 11
75.499998469994495
 21
-5.2500000999999878
 31
0.0
  0
LINE
  5
43C8
  8
240
  6
CONTINUOUS
 10
77.75980722999445
 20
6.0000000500000077
 30
0.0
 11
77.499998469994495
 21
6.1500007100000058
 31
0.0
  0
LINE
  5
43C9
  8
240
  6
CONTINUOUS
 10
75.499998469994523
 20
6.150000710000004
 30
0.0
 11
77.499998469994495
 21
6.1500007100000058
 31
0.0
1001
GRPNAME
1000
PASTMD0J
  0
LINE
  5
43CA
  8
243
  6
HIDDEN2
 10
76.875958157785391
 20
2.7000000000000242
 30
0.0
 11
86.557385731208484
 21
3.5470151594218429
 31
0.0
1001
GRPNAME
1000
00000007
  0
LINE
  5
43CB
  8
243
  6
HIDDEN2
 10
65.999999999994543
 20
1.9999999999999989
 30
0.0
 11
88.499999999994444
 21
2.0000000000000222
 31
0.0
1001
GRPNAME
1000
00000007
  0
LINE
  5
43CC
  8
243
  6
HIDDEN2
 10
65.999999999994429
 20
2.7000000000000082
 30
0.0
 11
76.875958157785391
 21
2.7000000000000242
 31
0.0
  0
LINE
  5
43CD
  8
243
  6
HIDDEN2
 10
65.999999999994429
 20
2.7000000000000082
 30
0.0
 11
65.999999999995353
 21
-2.699999999999962
 31
0.0
  0
LINE
  5
43CE
  8
243
  6
HIDDEN2
 10
88.499999999994444
 20
3.3000000000000371
 30
0.0
 11
88.499999999994444
 21
-3.3000000000000091
 31
0.0
1001
GRPNAME
1000
00000007
  0
LINE
  5
43CF
  8
243
  6
HIDDEN2
 10
86.699999999994446
 20
3.3000000000000109
 30
0.0
 11
87.299999999994455
 21
3.299999999999998
 31
0.0
1001
GRPNAME
1000
00000007
  0
LINE
  5
43D0
  8
243
  6
HIDDEN2
 10
86.699999999994446
 20
3.3000000000000109
 30
0.0
 11
86.557385731208484
 21
3.5470151594218469
 31
0.0
1001
GRPNAME
1000
00000007
  0
LINE
  5
43D1
  8
243
  6
HIDDEN2
 10
87.699999999994503
 20
3.7000000000000122
 30
0.0
 11
88.099999999994509
 21
3.7000000000000122
 31
0.0
1001
GRPNAME
1000
00000007
  0
LINE
  5
43D2
  8
243
  6
HIDDEN2
 10
87.699999999994503
 20
3.7000000000000122
 30
0.0
 11
87.299999999994455
 21
3.299999999999998
 31
0.0
  0
LINE
  5
43D3
  8
243
  6
HIDDEN2
 10
88.099999999994509
 20
3.7000000000000122
 30
0.0
 11
88.499999999994444
 21
3.3000000000000371
 31
0.0
1001
GRPNAME
1000
00000007
  0
LINE
  5
43D4
  8
243
  6
HIDDEN2
 10
76.875958157785391
 20
-2.6999999999999829
 30
0.0
 11
86.557385731208484
 21
-3.5470151594218109
 31
0.0
1001
GRPNAME
1000
00000007
  0
LINE
  5
43D5
  8
243
  6
HIDDEN2
 10
65.999999999994515
 20
-1.9999999999999509
 30
0.0
 11
88.499999999994444
 21
-1.99999999999999
 31
0.0
1001
GRPNAME
1000
00000007
  0
LINE
  5
43D6
  8
243
  6
HIDDEN2
 10
65.999999999995353
 20
-2.699999999999962
 30
0.0
 11
76.875958157785391
 21
-2.6999999999999829
 31
0.0
  0
LINE
  5
43D7
  8
243
  6
HIDDEN2
 10
86.699999999994446
 20
-3.2999999999999798
 30
0.0
 11
87.299999999994455
 21
-3.2999999999999652
 31
0.0
1001
GRPNAME
1000
00000007
  0
LINE
  5
43D8
  8
243
  6
HIDDEN2
 10
86.699999999994446
 20
-3.2999999999999798
 30
0.0
 11
86.557385731208484
 21
-3.5470151594218149
 31
0.0
1001
GRPNAME
1000
00000007
  0
LINE
  5
43D9
  8
243
  6
HIDDEN2
 10
87.699999999994475
 20
-3.6999999999999842
 30
0.0
 11
88.099999999994466
 21
-3.6999999999999842
 31
0.0
1001
GRPNAME
1000
00000007
  0
LINE
  5
43DA
  8
243
  6
HIDDEN2
 10
87.699999999994475
 20
-3.6999999999999842
 30
0.0
 11
87.299999999994455
 21
-3.2999999999999652
 31
0.0
  0
LINE
  5
43DB
  8
243
  6
HIDDEN2
 10
88.099999999994466
 20
-3.6999999999999842
 30
0.0
 11
88.499999999994444
 21
-3.3000000000000091
 31
0.0
1001
GRPNAME
1000
00000007
  0
LINE
  5
43DC
  8
250
  6
CONTINUOUS
 10
88.999999999994472
 20
-1.99999999999999
 30
0.0
 11
101.0333773045728
 21
-1.99999999999999
 31
0.0
  0
LINE
  5
43DD
  8
250
  6
CONTINUOUS
 10
88.999999999994472
 20
2.0000000000000209
 30
0.0
 11
101.0333773045728
 21
2.0000000000000142
 31
0.0
  0
LINE
  5
43DE
  8
250
  6
CONTINUOUS
 10
100.0333773045728
 20
-3.9999999999999938
 30
0.0
 11
100.0333773045728
 21
-5.9999999999999938
 31
0.0
  0
LINE
  5
43DF
  8
250
  6
CONTINUOUS
 10
100.0333773045728
 20
4.0000000000000107
 30
0.0
 11
100.0333773045728
 21
6.0000000000000169
 31
0.0
  0
LINE
  5
43E0
  8
250
  6
CONTINUOUS
 10
100.0333773045728
 20
-1.99999999999999
 30
0.0
 11
100.0333773045728
 21
2.0000000000000142
 31
0.0
  0
INSERT
  5
43E1
  8
250
  6
CONTINUOUS
  2
_OPEN
 10
100.0333773045728
 20
-1.99999999999999
 30
0.0
 41
2.0
 42
2.0
 43
2.0
 50
90.0
  0
INSERT
  5
43E2
  8
250
  6
CONTINUOUS
  2
_OPEN
 10
100.0333773045728
 20
2.0000000000000142
 30
0.0
 41
2.0
 42
2.0
 43
2.0
 50
270.0
  0
INSERT
  5
43E3
  8
250
  6
CONTINUOUS
  2
*U4
 10
89.999999999994472
 20
0.0000000000000115
 30
0.0
  0
LINE
  5
43E4
  8
250
  6
CONTINUOUS
 10
90.499999999994486
 20
-6.0000007099999877
 30
0.0
 11
107.9999999999944
 21
-6.0000007099999948
 31
0.0
  0
LINE
  5
43E5
  8
250
  6
CONTINUOUS
 10
90.499999999994486
 20
6.0000000500000077
 30
0.0
 11
107.9999999999944
 21
6.0000000500000024
 31
0.0
  0
LINE
  5
43E6
  8
250
  6
CONTINUOUS
 10
106.9999999999944
 20
-4.0000007099999957
 30
0.0
 11
106.9999999999944
 21
4.0000000499999997
 31
0.0
  0
INSERT
  5
43E7
  8
250
  6
CONTINUOUS
  2
_OPEN
 10
106.9999999999944
 20
-6.0000007099999948
 30
0.0
 41
2.0
 42
2.0
 43
2.0
 50
270.0
  0
INSERT
  5
43E8
  8
250
  6
CONTINUOUS
  2
_OPEN
 10
106.9999999999944
 20
6.0000000500000024
 30
0.0
 41
2.0
 42
2.0
 43
2.0
 50
90.0
  0
INSERT
  5
43E9
  8
250
  6
CONTINUOUS
  2
*U5
 10
89.999999999994472
 20
0.0000000000000115
 30
0.0
  0
LINE
  5
43EA
  8
250
  6
CONTINUOUS
 10
89.098537775585754
 20
7.565384192149831
 30
0.0
 11
87.809862640990943
 21
6.0000000512476062
 31
0.0
  0
LINE
  5
43F1
  8
240
  6
CONTINUOUS
 10
90.000000000000696
 20
-6.0000007099999877
 30
0.0
 11
90.000000000000696
 21
6.0000000500000077
 31
0.0
1001
GRPNAME
1000
PASTMD0F
  0
LINE
  5
43F9
  8
241
  6
CONTINUOUS
 10
67.999999999997996
 20
-6.749999999999984
 30
0.0
 11
67.999999999997954
 21
6.7500000000000062
 31
0.0
  0
LINE
  5
441A
  8
247
  6
CONTINUOUS
 10
6.7499999999299973
 20
-6.0
 30
0.0
 11
13.442307691970001
 21
-6.0
 31
0.0
  0
ARC
  5
441B
  8
247
  6
CONTINUOUS
 10
6.7499999999299973
 20
-4.2500000000700311
 30
0.0
 40
1.7499999999299991
 50
90.0
 51
270.0
  0
ARC
  5
441C
  8
247
  6
CONTINUOUS
 10
13.442307691970001
 20
-4.2500000000700311
 30
0.0
 40
1.7499999999299991
 50
270.0
 51
90.0
  0
LINE
  5
441D
  8
247
  6
CONTINUOUS
 10
7.615384615279992
 20
-2.5000000001400622
 30
0.0
 11
6.7551484580379926
 21
-5.500000000020008
 31
0.0
  0
LINE
  5
441E
  8
247
  6
CONTINUOUS
 10
8.5150161816641798
 20
-3.9230769231598961
 30
0.0
 11
7.2073238740241834
 21
-3.9230769231598961
 31
0.0
  0
ARC
  5
441F
  8
247
  6
CONTINUOUS
 10
8.8548561839102131
 20
-3.0495986677028659
 30
0.0
 40
0.5538165441895349
 50
342.99788967529543
 51
82.924166218512795
  0
ARC
  5
4420
  8
247
  6
CONTINUOUS
 10
8.4331216769712114
 20
-2.9360330444658298
 30
0.0
 40
0.9904354236226808
 50
274.74293685220141
 51
343.84922627326642
1001
GENIUS_GENOBJ-N-FIL_13
1002
{
1000
OWNER
1000
GEN
1002
}
1001
GENIUS_GENODEF_13
1002
{
1000
HIER
1070
     0
1002
}
1002
{
1000
MANEDIT
1070
     0
1002
}
1002
{
1000
NOSEL
1070
     0
1002
}
1002
{
1000
BEHIND
1070
     0
1002
}
1002
{
1000
OTHER
1070
     0
1002
}
1002
{
1000
REACTOR
1002
}
  0
LINE
  5
4421
  8
247
  6
CONTINUOUS
 10
8.0628407656779881
 20
-5.500000000020008
 30
0.0
 11
6.7551484580379926
 21
-5.500000000020008
 31
0.0
  0
LINE
  5
4422
  8
247
  6
CONTINUOUS
 10
7.615384615279992
 20
-2.5000000001400622
 30
0.0
 11
8.9230769229200035
 21
-2.5000000001400622
 31
0.0
  0
ARC
  5
4423
  8
247
  6
CONTINUOUS
 10
8.43908036345303
 20
-4.4820242326654798
 30
0.0
 40
0.5640818586791229
 50
335.99094165252171
 51
82.263443459069109
  0
ARC
  5
4424
  8
247
  6
CONTINUOUS
 10
7.9617373146529351
 20
-4.4874290391865079
 30
0.0
 40
1.0176059446230981
 50
275.70198516425808
 51
347.27733843682228
1001
GENIUS_GENOBJ-N-FIL_13
1002
{
1000
OWNER
1000
GEN
1002
}
1001
GENIUS_GENODEF_13
1002
{
1000
HIER
1070
     0
1002
}
1002
{
1000
MANEDIT
1070
     0
1002
}
1002
{
1000
NOSEL
1070
     0
1002
}
1002
{
1000
BEHIND
1070
     0
1002
}
1002
{
1000
OTHER
1070
     0
1002
}
1002
{
1000
REACTOR
1002
}
  0
LINE
  5
4425
  8
247
  6
CONTINUOUS
 10
9.7166869194579988
 20
-5.500000000020008
 30
0.0
 11
10.576923076699989
 21
-2.5000000001400622
 31
0.0
  0
LINE
  5
4426
  8
247
  6
CONTINUOUS
 10
12.99999999968
 20
-2.5000000001400622
 30
0.0
 11
12.434263380543401
 21
-2.5000000001400622
 31
0.0
  0
LINE
  5
4427
  8
247
  6
CONTINUOUS
 10
11.538461538200011
 20
-5.500000000020008
 30
0.0
 11
12.153846153559989
 21
-5.500000000020008
 31
0.0
  0
ARC
  5
4428
  8
247
  6
CONTINUOUS
 10
13.29120879087713
 20
-4.5832851359733686
 30
0.0
 40
2.2526500823422122
 50
112.35948814152999
 51
164.99324854284609
  0
ARC
  5
4429
  8
247
  6
CONTINUOUS
 10
12.62593052078677
 20
-3.3083126551946398
 30
0.0
 40
0.8906723995727782
 50
4.9945893190753656
 51
65.166328957300507
1001
GENIUS_GENOBJ-N-FIL_13
1002
{
1000
OWNER
1000
GEN
1002
}
1001
GENIUS_GENODEF_13
1002
{
1000
HIER
1070
     0
1002
}
1002
{
1000
MANEDIT
1070
     0
1002
}
1002
{
1000
NOSEL
1070
     0
1002
}
1002
{
1000
BEHIND
1070
     0
1002
}
1002
{
1000
OTHER
1070
     0
1002
}
1002
{
1000
REACTOR
1002
}
  0
ARC
  5
442A
  8
247
  6
CONTINUOUS
 10
11.77354111378742
 20
-4.1601458886677838
 30
0.0
 40
1.392781735586712
 50
285.84609655578078
 51
352.32513700416251
  0
ARC
  5
442B
  8
247
  6
CONTINUOUS
 10
12.35778727415963
 20
-4.4592434315272831
 30
0.0
 40
1.324563662670287
 50
159.71360167049011
 51
231.78874565641229
1001
GENIUS_GENOBJ-N-FIL_13
1002
{
1000
OWNER
1000
GEN
1002
}
1001
GENIUS_GENODEF_13
1002
{
1000
HIER
1070
     0
1002
}
1002
{
1000
MANEDIT
1070
     0
1002
}
1002
{
1000
NOSEL
1070
     0
1002
}
1002
{
1000
BEHIND
1070
     0
1002
}
1002
{
1000
OTHER
1070
     0
1002
}
1002
{
1000
REACTOR
1002
}
  0
LINE
  5
442C
  8
247
  6
CONTINUOUS
 10
12.46153846124
 20
-4.346153846219976
 30
0.0
 11
13.153846153519989
 21
-4.346153846219976
 31
0.0
  0
LINE
  5
442D
  8
247
  6
CONTINUOUS
 10
6.749999999929968
 20
-2.5000000001400622
 30
0.0
 11
7.4230769229799298
 21
-2.5000000001400622
 31
0.0
  0
LINE
  5
443B
  8
250
  6
CONTINUOUS
 10
18.303552575926389
 20
-11.565384141331259
 30
0.0
 11
19.59222771
 21
-10.0
 31
0.0
  0
LINE
  5
443C
  8
250
  6
CONTINUOUS
 10
18.880902845226998
 20
-11.89871747447239
 30
0.0
 11
19.59222771
 21
-10.0
 31
0.0
  0
LINE
  5
443D
  8
250
  6
CONTINUOUS
 10
19.59222771
 20
-10.0
 30
0.0
 11
18.59222771057669
 21
-11.73205080790183
 31
0.0
  0
LINE
  5
443E
  8
250
  6
CONTINUOUS
 10
18.59222771057669
 20
-11.73205080790183
 30
0.0
 11
13.14916605
 21
-21.159710159999999
 31
0.0
1001
ACAD
1000
DSTYLE
1002
{
1070
     6
1000
OPEN
1070
    41
1040
2.0
1070
    42
1040
2.0
1070
    44
1040
2.0
1070
   140
1040
4.0
1070
   343
1005
594
1002
}
  0
TEXT
  5
443F
  8
250
  6
CONTINUOUS
 10
0.6158327099999994
 20
-20.159710159999999
 30
0.0
 40
2.7999999999999989
  1
ST20
  7
YOKO
1001
ITEMNAME
1000
LNSP3
  0
LINE
  5
4440
  8
250
  6
CONTINUOUS
 10
13.14916605
 20
-21.159710159999999
 30
0.0
 11
-1.784167289999999
 21
-21.159710159999999
 31
0.0
1001
ITEMNAME
1000
LNSP2
  0
VIEWPORT
  5
22
 67
     1
  8
0
 10
261.51769911504419
 20
148.5
 30
0.0
 40
523.0353982300885
 41
297.0
 68
     1
 69
     1
1001
ACAD
1000
MVIEW
1002
{
1070
    16
1010
0.0
1020
0.0
1030
0.0
1010
0.0
1020
0.0
1030
1.0
1040
0.0
1040
297.0
1040
261.51769911504419
1040
148.5
1040
50.0
1040
0.0
1040
0.0
1070
     0
1070
   100
1070
     1
1070
     1
1070
     0
1070
     0
1070
     0
1070
     0
1040
0.0
1040
0.0
1040
0.0
1040
1.0
1040
1.0
1040
10.0
1040
10.0
1070
     0
1002
{
1002
}
1002
}
1001
GENIUS_GENODEF_13
1002
{
1000
HIER
1070
     0
1002
}
1002
{
1000
MANEDIT
1070
     0
1002
}
1002
{
1000
NOSEL
1070
     0
1002
}
1002
{
1000
BEHIND
1070
     0
1002
}
1002
{
1000
OTHER
1070
     0
1002
}
1002
{
1000
REACTOR
1002
}
1001
GENIUS_GENOBJ-N-SDF_13
1002
{
1000
OWNER
1000
GEN
1002
}
1001
GENIUS_GENSCREG_15
1000
PF
1040
1.0
1000
DF
1040
1.0
1000
MIN
1011
0.0
1021
0.0
1031
0.0
1021
0.0
1031
0.0
1000
MAX
1011
523.0353982300885
1021
0.0
1031
0.0
1021
297.0
1031
0.0
1000
FLAGS
1070
     4
  0
ENDSEC
  0
EOF
