  0
SECTION
  2
HEADER
  9
$ACADVER
  1
AC1009
  9
$INSBASE
 10
0.0
 20
0.0
 30
0.0
  9
$EXTMIN
 10
-2.0
 20
-21.159710159999999
 30
0.0
  9
$EXTMAX
 10
197.0
 20
60.999999999999609
 30
0.0
  9
$LIMMIN
 10
0.0
 20
0.0
  9
$LIMMAX
 10
297.0
 20
210.0
  9
$ORTHOMODE
 70
     1
  9
$REGENMODE
 70
     1
  9
$FILLMODE
 70
     1
  9
$QTEXTMODE
 70
     0
  9
$MIRRTEXT
 70
     1
  9
$DRAGMODE
 70
     2
  9
$LTSCALE
 40
10.0
  9
$OSMODE
 70
    39
  9
$ATTMODE
 70
     1
  9
$TEXTSIZE
 40
3.0
  9
$TRACEWID
 40
1.0
  9
$TEXTSTYLE
  7
YOKO
  9
$CLAYER
  8
240
  9
$CELTYPE
  6
BYLAYER
  9
$CECOLOR
 62
   256
  9
$DIMSCALE
 40
1.0
  9
$DIMASZ
 40
2.2299999999999991
  9
$DIMEXO
 40
0.5
  9
$DIMDLI
 40
7.0
  9
$DIMRND
 40
0.0
  9
$DIMDLE
 40
0.0
  9
$DIMEXE
 40
1.0
  9
$DIMTP
 40
0.0
  9
$DIMTM
 40
0.01
  9
$DIMTXT
 40
2.7999999999999989
  9
$DIMCEN
 40
0.0
  9
$DIMTSZ
 40
0.0
  9
$DIMTOL
 70
     0
  9
$DIMLIM
 70
     0
  9
$DIMTIH
 70
     0
  9
$DIMTOH
 70
     0
  9
$DIMSE1
 70
     0
  9
$DIMSE2
 70
     0
  9
$DIMTAD
 70
     3
  9
$DIMZIN
 70
     9
  9
$DIMBLK
  1
OPEN
  9
$DIMASO
 70
     1
  9
$DIMSHO
 70
     1
  9
$DIMPOST
  1

  9
$DIMAPOST
  1

  9
$DIMALT
 70
     0
  9
$DIMALTD
 70
     2
  9
$DIMALTF
 40
25.399999999999999
  9
$DIMLFAC
 40
1.0
  9
$DIMTOFL
 70
     1
  9
$DIMTVP
 40
0.0
  9
$DIMTIX
 70
     1
  9
$DIMSOXD
 70
     0
  9
$DIMSAH
 70
     0
  9
$DIMBLK1
  1

  9
$DIMBLK2
  1

  9
$DIMSTYLE
  2
BIGT
  9
$DIMCLRD
 70
   256
  9
$DIMCLRE
 70
   256
  9
$DIMCLRT
 70
    40
  9
$DIMTFAC
 40
1.0
  9
$DIMGAP
 40
1.0
  9
$LUNITS
 70
     2
  9
$LUPREC
 70
     6
  9
$SKETCHINC
 40
1.0
  9
$FILLETRAD
 40
0.0
  9
$AUNITS
 70
     0
  9
$AUPREC
 70
     6
  9
$MENU
  1
.
  9
$ELEVATION
 40
0.0
  9
$PELEVATION
 40
0.0
  9
$THICKNESS
 40
0.0
  9
$LIMCHECK
 70
     0
  9
$BLIPMODE
 70
     0
  9
$CHAMFERA
 40
0.2
  9
$CHAMFERB
 40
0.2
  9
$SKPOLY
 70
     0
  9
$TDCREATE
 40
2457686.4217692022
  9
$TDUPDATE
 40
2457686.5787633099
  9
$TDINDWG
 40
0.0088976505
  9
$TDUSRTIMER
 40
0.0088975694
  9
$USRTIMER
 70
     1
  9
$ANGBASE
 50
0.0
  9
$ANGDIR
 70
     0
  9
$PDMODE
 70
     1
  9
$PDSIZE
 40
0.0
  9
$PLINEWID
 40
0.0
  9
$COORDS
 70
     1
  9
$SPLFRAME
 70
     0
  9
$SPLINETYPE
 70
     6
  9
$SPLINESEGS
 70
     4
  9
$ATTDIA
 70
     1
  9
$ATTREQ
 70
     1
  9
$HANDLING
 70
     1
  9
$HANDSEED
  5
455B
  9
$SURFTAB1
 70
     6
  9
$SURFTAB2
 70
     6
  9
$SURFTYPE
 70
     6
  9
$SURFU
 70
     6
  9
$SURFV
 70
     6
  9
$UCSNAME
  2

  9
$UCSORG
 10
0.0
 20
0.0
 30
0.0
  9
$UCSXDIR
 10
1.0
 20
0.0
 30
0.0
  9
$UCSYDIR
 10
0.0
 20
1.0
 30
0.0
  9
$PUCSNAME
  2

  9
$PUCSORG
 10
0.0
 20
0.0
 30
0.0
  9
$PUCSXDIR
 10
1.0
 20
0.0
 30
0.0
  9
$PUCSYDIR
 10
0.0
 20
1.0
 30
0.0
  9
$USERI1
 70
     1
  9
$USERI2
 70
     0
  9
$USERI3
 70
     0
  9
$USERI4
 70
     0
  9
$USERI5
 70
     0
  9
$USERR1
 40
0.0
  9
$USERR2
 40
0.0
  9
$USERR3
 40
0.0
  9
$USERR4
 40
0.0
  9
$USERR5
 40
0.0
  9
$WORLDVIEW
 70
     1
  9
$SHADEDGE
 70
     3
  9
$SHADEDIF
 70
    70
  9
$TILEMODE
 70
     1
  9
$MAXACTVP
 70
    16
  9
$PLIMCHECK
 70
     0
  9
$PEXTMIN
 10
1.0000000000000000E+020
 20
1.0000000000000000E+020
 30
1.0000000000000000E+020
  9
$PEXTMAX
 10
-1.0000000000000000E+020
 20
-1.0000000000000000E+020
 30
-1.0000000000000000E+020
  9
$PLIMMIN
 10
0.0
 20
0.0
  9
$PLIMMAX
 10
420.0
 20
297.0
  9
$UNITMODE
 70
     0
  9
$VISRETAIN
 70
     1
  9
$PLINEGEN
 70
     0
  9
$PSLTSCALE
 70
     1
  0
ENDSEC
  0
SECTION
  2
TABLES
  0
TABLE
  2
VPORT
 70
     1
  0
VPORT
  2
*ACTIVE
 70
     0
 10
0.0
 20
0.0
 11
1.0
 21
1.0
 12
100.8346702514918
 22
30.975101654933852
 13
0.0
 23
0.0
 14
7.0
 24
7.0
 15
7.0
 25
7.0
 16
0.0
 26
0.0
 36
1.0
 17
0.0
 27
0.0
 37
0.0
 40
154.21460922541141
 41
1.505016722408026
 42
50.0
 43
0.0
 44
0.0
 50
0.0
 51
0.0
 71
     0
 72
  2000
 73
     1
 74
     0
 75
     1
 76
     1
 77
     0
 78
     0
  0
ENDTAB
  0
TABLE
  2
LTYPE
 70
    16
  0
LTYPE
  2
CONTINUOUS
 70
     0
  3
Solid line
 72
    65
 73
     0
 40
0.0
  0
LTYPE
  2
CENTER2
 70
     0
  3
___ _ ___ _ ___ _ ___ _ ___ _ ___ _ ___ _ ___ _
 72
    65
 73
     4
 40
1.125
 49
0.75
 49
-0.125
 49
0.125
 49
-0.125
  0
LTYPE
  2
HIDDEN2
 70
     0
  3
_ _ _ _ _ _ _ _ _ _ _ _ _ _ _ _ _ _ _ _ _ _ _ _
 72
    65
 73
     2
 40
0.1875
 49
0.125
 49
-0.0625
  0
LTYPE
  2
PHANTOM2
 70
     0
  3
___ _ _ ___ _ _ ___ _ _ ___ _ _ ___ _ _ ___ _ _
 72
    65
 73
     6
 40
1.25
 49
0.625
 49
-0.125
 49
0.125
 49
-0.125
 49
0.125
 49
-0.125
  0
LTYPE
  2
AM_ISO02W050
 70
     0
  3
__ __ __ __ __ __ __ __ __ __ __ __ __ __ __
 72
    65
 73
     2
 40
7.5
 49
6.0
 49
-1.5
  0
LTYPE
  2
AMCONSTR
 70
     0
  3
_______________________
 72
    65
 73
     2
 40
9999.0
 49
9999.0
 49
0.0
  0
LTYPE
  2
ACISOWELD
 70
     0
  3
_ _ _ _ _
 72
    65
 73
     2
 40
2.0
 49
2.0
 49
-1.0
  0
LTYPE
  2
ACISOTGB
 70
     0
  3
__ . . __ . .
 72
    65
 73
     6
 40
9.0
 49
4.0
 49
-1.0
 49
1.0
 49
-1.0
 49
1.0
 49
-1.0
  0
LTYPE
  2
ACISOTGL
 70
     0
  3
_ _ _ _ _
 72
    65
 73
     2
 40
3.0
 49
2.0
 49
-1.0
  0
LTYPE
  2
ACJISTGB
 70
     0
  3
__ . . __ . .
 72
    65
 73
     6
 40
9.0
 49
4.0
 49
-1.0
 49
1.0
 49
-1.0
 49
1.0
 49
-1.0
  0
LTYPE
  2
ACJISTGL
 70
     0
  3
_ _ _ _ _
 72
    65
 73
     2
 40
3.0
 49
2.0
 49
-1.0
  0
ENDTAB
  0
TABLE
  2
LAYER
 70
     8
  0
LAYER
  2
0
 70
     0
 62
     7
  6
CONTINUOUS
  0
LAYER
  2
DEFPOINTS
 70
     0
 62
     7
  6
CONTINUOUS
  0
LAYER
  2
245
 70
     0
 62
     2
  6
CENTER2
  0
LAYER
  2
240
 70
     0
 62
     4
  6
CONTINUOUS
  0
LAYER
  2
241
 70
     0
 62
   211
  6
CONTINUOUS
  0
LAYER
  2
243
 70
     0
 62
   211
  6
HIDDEN2
  0
LAYER
  2
247
 70
     0
 62
    60
  6
CONTINUOUS
  0
LAYER
  2
250
 70
     0
 62
     3
  6
CONTINUOUS
  0
ENDTAB
  0
TABLE
  2
STYLE
 70
     8
  0
STYLE
  2
STANDARD
 70
     0
 40
0.0
 41
1.0
 50
0.0
 71
     0
 42
3.0
  3
romans.shx
  4
extfont.shx
  0
STYLE
  2
ACISOTS
 70
     0
 40
1.0
 41
1.0
 50
0.0
 71
     0
 42
3.0
  3
amgdt.shx
  4
extfont.shx
  0
STYLE
  2
ACISOGDT
 70
     0
 40
0.0
 41
1.0
 50
0.0
 71
     0
 42
3.0
  3
amgdt.shx
  4
extfont.shx
  0
STYLE
  2
ACJISTS
 70
     0
 40
1.0
 41
1.0
 50
0.0
 71
     0
 42
3.0
  3
amgdt.shx
  4
extfont.shx
  0
STYLE
  2
ACJISGDT
 70
     0
 40
0.0
 41
1.0
 50
0.0
 71
     0
 42
3.0
  3
amgdt.shx
  4
extfont.shx
  0
STYLE
  2
YOKO
 70
     0
 40
0.0
 41
1.0
 50
0.0
 71
     0
 42
3.0
  3
romans.shx
  4
extfont.shx
  0
ENDTAB
  0
TABLE
  2
VIEW
 70
     0
  0
ENDTAB
  0
TABLE
  2
UCS
 70
     0
  0
ENDTAB
  0
TABLE
  2
APPID
 70
    44
  0
APPID
  2
ACAD
 70
     0
  0
APPID
  2
GLOBAL
 70
     0
  0
APPID
  2
DETAIL
 70
     0
  0
APPID
  2
GRPNAME
 70
     0
  0
APPID
  2
GPARA
 70
     0
  0
APPID
  2
MCAD_NO_VIS
 70
     0
  0
APPID
  2
ACAD_TEMP_GRAPHIC
 70
     0
  0
APPID
  2
ACATTRIBSERVICES
 70
     0
  0
APPID
  2
GENIUS_GENSCREG_15
 70
     0
  0
APPID
  2
GENIUS_GENODEF_13
 70
     0
  0
APPID
  2
GENIUS_GENOBJ-N-SDF_13
 70
     0
  0
APPID
  2
GENIUS_GENREC_14
 70
     0
  0
APPID
  2
GENIUS_GENOBJ-N-REC_13
 70
     0
  0
APPID
  2
GENIUS_GENDIMSH_14
 70
     0
  0
APPID
  2
GENIUS_GENOBJ-N-DIM_13
 70
     0
  0
APPID
  2
GENIUS_GENDIM_13
 70
     0
  0
APPID
  2
GENIUS_GENDTOL_13
 70
     0
  0
APPID
  2
GENIUS_GENOLIS_13
 70
     0
  0
APPID
  2
GENIUS_GENOENT_13
 70
     0
  0
APPID
  2
GENIUS_GENOBJ-F-FEM_13
 70
     0
  0
APPID
  2
GENIUS_GENOREF_13
 70
     0
  0
APPID
  2
GENIUS_GEFFEM_13
 70
     0
  0
APPID
  2
GENIUS_GEFFEMP_13
 70
     0
  0
APPID
  2
AD_DRAW
 70
     0
  0
APPID
  2
DESIGNERASSEMBLIES
 70
     0
  0
APPID
  2
ACADM_DIM_EDIT
 70
     0
  0
APPID
  2
AMDT_DM_ADJ
 70
     0
  0
APPID
  2
ITEMNAME
 70
     0
  0
APPID
  2
GENIUS_GENOBJ-N-FIL_13
 70
     0
  0
APPID
  2
GENIUS_GENFIL_13
 70
     0
  0
APPID
  2
GENIUS_GENOBJ-N-CHA_13
 70
     0
  0
APPID
  2
ACAD_NAV_VCDISPLAY
 70
     0
  0
APPID
  2
ACAD_DSTYLE_DIMJAG
 70
     0
  0
APPID
  2
ACAD_DSTYLE_DIMBREAK
 70
     0
  0
APPID
  2
LAYER_SCALE
 70
     0
  0
APPID
  2
ACAD_PSEXT
 70
     0
  0
APPID
  2
ASK_MEN_XD
 70
     0
  0
APPID
  2
ACAD_EXEMPT_FROM_CAD_STANDARDS
 70
     0
  0
APPID
  2
ACAD_DSTYLE_DIMINSPECT
 70
     0
  0
APPID
  2
ACAD_MLEADERVER
 70
     0
  0
APPID
  2
ACAD_DSTYLE_DIMARC_LENGTH_
 70
     0
  0
APPID
  2
ACAD_DSTYLE_DIM_LINETYPE
 70
     0
  0
APPID
  2
ACAD_DSTYLE_DIM_EXT1_LINETYPE
 70
     0
  0
APPID
  2
ACAD_DSTYLE_DIM_EXT2_LINETYPE
 70
     0
  0
ENDTAB
  0
TABLE
  2
DIMSTYLE
 70
    30
  0
DIMSTYLE
  2
BIGT
 70
     0
  3

  4

  5
OPEN
  6

  7

 40
1.0
 41
2.2299999999999991
 42
0.5
 43
7.0
 44
1.0
 45
0.0
 46
0.0
 47
0.0
 48
0.01
140
2.7999999999999989
141
0.0
142
0.0
143
25.399999999999999
144
1.0
145
0.0
146
1.0
147
1.0
 71
     0
 72
     0
 73
     0
 74
     0
 75
     0
 76
     0
 77
     3
 78
     9
170
     0
171
     2
172
     1
173
     0
174
     1
175
     0
176
   256
177
   256
178
    40
  0
DIMSTYLE
  2
AM_ISO
 70
     0
  3

  4
"
  5

  6

  7

 40
1.0
 41
2.5
 42
1.0
 43
10.0
 44
1.0
 45
0.0
 46
0.0
 47
0.1
 48
0.1
140
3.5
141
0.0
142
0.0
143
0.0393701
144
1.0
145
0.0
146
0.71
147
1.5
 71
     0
 72
     0
 73
     0
 74
     0
 75
     0
 76
     0
 77
     1
 78
     8
170
     0
171
     2
172
     1
173
     0
174
     0
175
     0
176
   256
177
   256
178
     2
  0
DIMSTYLE
  2
AM_ISO$3
 70
     0
  3

  4
"
  5

  6

  7

 40
1.0
 41
2.5
 42
1.0
 43
10.0
 44
1.0
 45
0.0
 46
0.0
 47
0.1
 48
0.1
140
3.5
141
0.0
142
0.0
143
0.0393701
144
1.0
145
0.0
146
0.71
147
1.5
 71
     0
 72
     0
 73
     0
 74
     1
 75
     0
 76
     0
 77
     1
 78
     8
170
     0
171
     2
172
     0
173
     0
174
     0
175
     0
176
   256
177
   256
178
     2
  0
DIMSTYLE
  2
AM_ISO$4
 70
     0
  3

  4
"
  5

  6

  7

 40
1.0
 41
2.5
 42
1.0
 43
10.0
 44
1.0
 45
0.0
 46
0.0
 47
0.1
 48
0.1
140
3.5
141
0.0
142
0.0
143
0.0393701
144
1.0
145
0.0
146
0.71
147
1.5
 71
     0
 72
     0
 73
     0
 74
     1
 75
     0
 76
     0
 77
     1
 78
     8
170
     0
171
     2
172
     0
173
     0
174
     0
175
     0
176
   256
177
   256
178
     2
  0
DIMSTYLE
  2
AM_ISO$6
 70
     0
  3

  4
"
  5

  6

  7

 40
1.0
 41
2.5
 42
1.0
 43
10.0
 44
1.0
 45
0.0
 46
0.0
 47
0.1
 48
0.1
140
3.5
141
0.0
142
0.0
143
0.0393701
144
1.0
145
0.0
146
0.71
147
1.5
 71
     0
 72
     0
 73
     0
 74
     0
 75
     0
 76
     0
 77
     0
 78
     8
170
     0
171
     2
172
     1
173
     0
174
     0
175
     0
176
   256
177
   256
178
     2
  0
DIMSTYLE
  2
AM_ISO$7
 70
     0
  3

  4
"
  5

  6

  7

 40
1.0
 41
2.5
 42
1.0
 43
10.0
 44
1.0
 45
0.0
 46
0.0
 47
0.1
 48
0.1
140
5.0
141
0.0
142
0.0
143
0.0393701
144
1.0
145
0.0
146
0.71
147
1.5
 71
     0
 72
     0
 73
     0
 74
     0
 75
     0
 76
     0
 77
     1
 78
     8
170
     0
171
     2
172
     1
173
     0
174
     0
175
     0
176
   256
177
   256
178
     2
  0
DIMSTYLE
  2
AM_ISO$SF
 70
     0
  3

  4
"
  5

  6

  7

 40
1.0
 41
2.5
 42
1.0
 43
10.0
 44
1.0
 45
0.0
 46
0.0
 47
0.1
 48
0.1
140
3.5
141
0.0
142
0.0
143
0.0393701
144
1.0
145
0.0
146
0.71
147
1.5
 71
     0
 72
     0
 73
     0
 74
     0
 75
     1
 76
     1
 77
     1
 78
     8
170
     0
171
     2
172
     1
173
     0
174
     0
175
     0
176
   256
177
   256
178
     2
  0
DIMSTYLE
  2
AM_ISO$SH
 70
     0
  3

  4
"
  5

  6
GENAXEH
  7

 40
1.0
 41
2.5
 42
1.0
 43
10.0
 44
1.0
 45
0.0
 46
0.0
 47
0.1
 48
0.1
140
3.5
141
0.0
142
0.0
143
0.0393701
144
2.0
145
0.0
146
0.71
147
1.5
 71
     0
 72
     0
 73
     0
 74
     0
 75
     1
 76
     1
 77
     1
 78
     8
170
     0
171
     2
172
     1
173
     1
174
     0
175
     0
176
   256
177
   256
178
     2
  0
DIMSTYLE
  2
BIGT$2
 70
     0
  3

  4

  5
OPEN
  6

  7

 40
1.0
 41
2.2299999999999991
 42
0.5
 43
7.0
 44
1.0
 45
0.0
 46
0.0
 47
0.0
 48
0.01
140
2.7999999999999989
141
0.0
142
0.0
143
25.399999999999999
144
1.0
145
0.0
146
1.0
147
1.0
 71
     0
 72
     0
 73
     0
 74
     0
 75
     0
 76
     0
 77
     3
 78
     9
170
     0
171
     2
172
     1
173
     0
174
     0
175
     0
176
   256
177
   256
178
    40
  0
DIMSTYLE
  2
BIGT$3
 70
     0
  3

  4

  5
OPEN
  6

  7

 40
1.0
 41
2.2299999999999991
 42
0.5
 43
2.5
 44
1.0
 45
0.0
 46
0.0
 47
0.0
 48
0.01
140
2.7999999999999989
141
0.0
142
0.0
143
25.399999999999999
144
1.0
145
0.0
146
1.0
147
1.0
 71
     0
 72
     0
 73
     0
 74
     0
 75
     0
 76
     0
 77
     3
 78
     9
170
     0
171
     2
172
     1
173
     0
174
     0
175
     0
176
   256
177
   256
178
    40
  0
DIMSTYLE
  2
BIGT$7
 70
     0
  3

  4

  5
OPEN
  6

  7

 40
0.0
 41
2.2299999999999991
 42
0.5
 43
7.0
 44
1.0
 45
0.0
 46
0.0
 47
0.0
 48
0.01
140
2.7999999999999989
141
0.0
142
0.0
143
25.399999999999999
144
1.0
145
0.0
146
1.0
147
1.0
 71
     0
 72
     0
 73
     0
 74
     0
 75
     0
 76
     0
 77
     3
 78
     9
170
     0
171
     2
172
     0
173
     0
174
     0
175
     0
176
   256
177
   256
178
    40
  0
DIMSTYLE
  2
BIGT$6
 70
     0
  3

  4

  5
OPEN
  6

  7

 40
1.0
 41
2.2299999999999991
 42
0.5
 43
2.5
 44
1.0
 45
0.0
 46
0.0
 47
0.0
 48
0.01
140
2.7999999999999989
141
0.0
142
0.0
143
25.399999999999999
144
1.0
145
0.0
146
1.0
147
1.0
 71
     0
 72
     0
 73
     0
 74
     0
 75
     0
 76
     0
 77
     3
 78
     9
170
     0
171
     2
172
     1
173
     0
174
     0
175
     0
176
   256
177
   256
178
    40
  0
DIMSTYLE
  2
BIGT$0
 70
     0
  3

  4

  5
OPEN
  6

  7

 40
1.0
 41
2.2299999999999991
 42
0.5
 43
7.0
 44
1.0
 45
0.0
 46
0.0
 47
0.0
 48
0.01
140
2.7999999999999989
141
0.0
142
0.0
143
25.399999999999999
144
1.0
145
0.0
146
1.0
147
1.0
 71
     0
 72
     0
 73
     0
 74
     0
 75
     0
 76
     0
 77
     3
 78
     9
170
     0
171
     2
172
     1
173
     0
174
     1
175
     0
176
   256
177
   256
178
    40
  0
DIMSTYLE
  2
BIGT$4
 70
     0
  3

  4

  5
OPEN
  6

  7

 40
1.0
 41
2.2299999999999991
 42
0.5
 43
2.5
 44
1.0
 45
0.0
 46
0.0
 47
0.0
 48
0.01
140
2.7999999999999989
141
0.0
142
0.0
143
25.399999999999999
144
1.0
145
0.0
146
1.0
147
1.0
 71
     0
 72
     0
 73
     0
 74
     0
 75
     0
 76
     0
 77
     3
 78
     9
170
     0
171
     2
172
     1
173
     0
174
     0
175
     0
176
   256
177
   256
178
    40
  0
DIMSTYLE
  2
BIGT$SH
 70
     0
  3

  4

  5
OPEN
  6

  7

 40
1.0
 41
2.2299999999999991
 42
0.5
 43
7.0
 44
1.0
 45
0.0
 46
0.0
 47
0.0
 48
0.0
140
2.7999999999999989
141
0.0
142
0.0
143
25.399999999999999
144
1.0
145
0.0
146
1.0
147
1.0
 71
     0
 72
     0
 73
     0
 74
     0
 75
     0
 76
     0
 77
     3
 78
     9
170
     0
171
     2
172
     1
173
     0
174
     0
175
     0
176
   256
177
   256
178
    40
  0
DIMSTYLE
  2
BIGT$SF
 70
     0
  3

  4

  5
OPEN
  6

  7

 40
1.0
 41
2.2299999999999991
 42
0.5
 43
7.0
 44
1.0
 45
0.0
 46
0.0
 47
0.0
 48
0.0
140
2.7999999999999989
141
0.0
142
0.0
143
25.399999999999999
144
1.0
145
0.0
146
1.0
147
1.0
 71
     0
 72
     0
 73
     0
 74
     0
 75
     0
 76
     0
 77
     3
 78
     9
170
     0
171
     2
172
     1
173
     0
174
     0
175
     0
176
   256
177
   256
178
    40
  0
DIMSTYLE
  2
TECHNICAL_OSAKA
 70
     0
  3

  4
"
  5
OPEN30
  6

  7

 40
1.0
 41
2.5
 42
1.0
 43
10.0
 44
1.0
 45
0.0
 46
0.0
 47
0.1
 48
0.1
140
2.7999999999999989
141
0.0
142
0.0
143
0.0393701
144
1.0
145
0.0
146
0.71
147
1.5
 71
     0
 72
     0
 73
     0
 74
     0
 75
     0
 76
     0
 77
     3
 78
     8
170
     0
171
     2
172
     1
173
     0
174
     0
175
     0
176
   256
177
   256
178
    40
  0
DIMSTYLE
  2
TECHNICAL_OSAKA$3
 70
     0
  3

  4
"
  5
OPEN30
  6

  7

 40
1.0
 41
2.5
 42
1.0
 43
10.0
 44
1.0
 45
0.0
 46
0.0
 47
0.1
 48
0.1
140
2.7999999999999989
141
0.0
142
0.0
143
0.0393701
144
1.0
145
0.0
146
0.71
147
1.5
 71
     0
 72
     0
 73
     0
 74
     1
 75
     0
 76
     0
 77
     3
 78
     8
170
     0
171
     2
172
     0
173
     0
174
     0
175
     0
176
   256
177
   256
178
    40
  0
DIMSTYLE
  2
TECHNICAL_OSAKA$4
 70
     0
  3

  4
"
  5
OPEN30
  6

  7

 40
1.0
 41
2.5
 42
1.0
 43
10.0
 44
1.0
 45
0.0
 46
0.0
 47
0.1
 48
0.1
140
2.7999999999999989
141
0.0
142
0.0
143
0.0393701
144
1.0
145
0.0
146
0.71
147
1.5
 71
     0
 72
     0
 73
     0
 74
     1
 75
     0
 76
     0
 77
     3
 78
     8
170
     0
171
     2
172
     0
173
     0
174
     0
175
     0
176
   256
177
   256
178
    40
  0
DIMSTYLE
  2
TECHNICAL_OSAKA$6
 70
     0
  3

  4
"
  5
OPEN30
  6

  7

 40
1.0
 41
2.5
 42
1.0
 43
10.0
 44
1.0
 45
0.0
 46
0.0
 47
0.1
 48
0.1
140
2.7999999999999989
141
0.0
142
0.0
143
0.0393701
144
1.0
145
0.0
146
0.71
147
1.5
 71
     0
 72
     0
 73
     0
 74
     0
 75
     0
 76
     0
 77
     0
 78
     8
170
     0
171
     2
172
     1
173
     0
174
     0
175
     0
176
   256
177
   256
178
    40
  0
DIMSTYLE
  2
TECHNICAL_OSAKA$7
 70
     0
  3

  4
"
  5
OPEN30
  6

  7

 40
1.0
 41
2.5
 42
1.0
 43
10.0
 44
1.0
 45
0.0
 46
0.0
 47
0.1
 48
0.1
140
2.7999999999999989
141
0.0
142
0.0
143
0.0393701
144
1.0
145
0.0
146
0.71
147
1.5
 71
     0
 72
     0
 73
     0
 74
     0
 75
     0
 76
     0
 77
     3
 78
     8
170
     0
171
     2
172
     1
173
     0
174
     0
175
     0
176
   256
177
   256
178
    40
  0
DIMSTYLE
  2
TECHNICAL_OSAKA$SF
 70
     0
  3

  4
"
  5
OPEN30
  6
OPEN30
  7
OPEN30
 40
1.0
 41
2.5
 42
1.0
 43
10.0
 44
1.0
 45
0.0
 46
0.0
 47
0.1
 48
0.1
140
3.5
141
0.0
142
0.0
143
0.0393701
144
1.0
145
0.0
146
0.71
147
1.5
 71
     0
 72
     0
 73
     0
 74
     0
 75
     1
 76
     1
 77
     3
 78
     8
170
     0
171
     2
172
     1
173
     0
174
     0
175
     0
176
   256
177
   256
178
    40
  0
DIMSTYLE
  2
TECHNICAL_OSAKA$SH
 70
     0
  3

  4
"
  5
OPEN30
  6
GENAXEH
  7
OPEN30
 40
1.0
 41
2.5
 42
1.0
 43
10.0
 44
1.0
 45
0.0
 46
0.0
 47
0.1
 48
0.1
140
3.5
141
0.0
142
0.0
143
0.0393701
144
2.0
145
0.0
146
0.71
147
1.5
 71
     0
 72
     0
 73
     0
 74
     0
 75
     1
 76
     1
 77
     3
 78
     8
170
     0
171
     2
172
     1
173
     1
174
     0
175
     0
176
   256
177
   256
178
    40
  0
DIMSTYLE
  2
STANDARD
 70
     0
  3

  4

  5

  6

  7

 40
1.0
 41
0.18
 42
0.0625
 43
0.38
 44
0.18
 45
0.0
 46
0.0
 47
0.0
 48
0.0
140
0.18
141
0.09
142
0.0
143
25.399999999999999
144
1.0
145
0.0
146
1.0
147
0.09
 71
     0
 72
     0
 73
     1
 74
     1
 75
     0
 76
     0
 77
     0
 78
     0
170
     0
171
     2
172
     0
173
     0
174
     0
175
     0
176
     0
177
     0
178
     0
  0
ENDTAB
  0
ENDSEC
  0
SECTION
  2
BLOCKS
  0
BLOCK
  8
0
  2
$MODEL_SPACE
 70
     0
 10
0.0
 20
0.0
 30
0.0
  3
$MODEL_SPACE
  1

  0
ENDBLK
  5
1C
  8
0
  0
BLOCK
 67
     1
  8
0
  2
$PAPER_SPACE
 70
     0
 10
0.0
 20
0.0
 30
0.0
  3
$PAPER_SPACE
  1

  0
ENDBLK
  5
19
 67
     1
  8
0
  0
BLOCK
  8
0
  2
_OPEN
 70
     0
 10
0.0
 20
0.0
 30
0.0
  3
_OPEN
  1

  0
LINE
  5
4462
  8
0
  6
BYBLOCK
 62
     0
 10
-1.0
 20
0.1666666666666666
 30
0.0
 11
0.0
 21
0.0
 31
0.0
  0
LINE
  5
4463
  8
0
  6
BYBLOCK
 62
     0
 10
-1.0
 20
-0.1666666666666666
 30
0.0
 11
0.0
 21
0.0
 31
0.0
  0
LINE
  5
4464
  8
0
  6
BYBLOCK
 62
     0
 10
0.0
 20
0.0
 30
0.0
 11
-1.0
 21
0.0
 31
0.0
  0
ENDBLK
  5
4465
  8
0
  0
BLOCK
  8
0
  2
GENAXEH
 70
     0
 10
0.0
 20
0.0
 30
0.0
  3
GENAXEH
  1

  0
LINE
  5
449D
  8
0
 10
-1.0
 20
0.0
 30
0.0
 11
1.0
 21
0.0
 31
0.0
  0
ENDBLK
  5
449E
  8
0
  0
BLOCK
  8
0
  2
_OPEN30
 70
     0
 10
0.0
 20
0.0
 30
0.0
  3
_OPEN30
  1

  0
LINE
  5
44D9
  8
0
  6
BYBLOCK
 62
     0
 10
-1.0
 20
0.26794919
 30
0.0
 11
0.0
 21
0.0
 31
0.0
  0
LINE
  5
44DA
  8
0
  6
BYBLOCK
 62
     0
 10
0.0
 20
0.0
 30
0.0
 11
-1.0
 21
-0.26794919
 31
0.0
  0
LINE
  5
44DB
  8
0
  6
BYBLOCK
 62
     0
 10
0.0
 20
0.0
 30
0.0
 11
-1.0
 21
0.0
 31
0.0
  0
ENDBLK
  5
44DC
  8
0
  0
ENDSEC
  0
SECTION
  2
ENTITIES
  0
LINE
  5
4217
  8
250
  6
CONTINUOUS
 10
18.303552575926389
 20
-11.565384141331259
 30
0.0
 11
19.59222771
 21
-10.0
 31
0.0
  0
LINE
  5
4218
  8
250
  6
CONTINUOUS
 10
18.880902845226998
 20
-11.89871747447239
 30
0.0
 11
19.59222771
 21
-10.0
 31
0.0
  0
LINE
  5
4219
  8
250
  6
CONTINUOUS
 10
19.59222771
 20
-10.0
 30
0.0
 11
18.59222771057669
 21
-11.73205080790183
 31
0.0
  0
LINE
  5
421A
  8
250
  6
CONTINUOUS
 10
18.59222771057669
 20
-11.73205080790183
 30
0.0
 11
13.14916605
 21
-21.159710159999999
 31
0.0
1001
ACAD
1000
DSTYLE
1002
{
1070
     6
1000
OPEN
1070
    41
1040
2.0
1070
    42
1040
2.0
1070
    44
1040
2.0
1070
   140
1040
4.0
1070
   343
1005
0
1002
}
  0
TEXT
  5
421B
  8
250
  6
CONTINUOUS
 10
0.6158327099999994
 20
-20.159710159999999
 30
0.0
 40
2.799999999999998
  1
ST20
  7
YOKO
1001
ITEMNAME
1000
LNSP3
  0
LINE
  5
421C
  8
250
  6
CONTINUOUS
 10
13.14916605
 20
-21.159710159999999
 30
0.0
 11
-1.784167289999999
 21
-21.159710159999999
 31
0.0
1001
ITEMNAME
1000
LNSP2
  0
LINE
  5
421D
  8
245
  6
CENTER2
 10
-2.0
 20
0.0
 30
0.0
 11
181.381961179857
 21
0.0
 31
0.0
  0
LINE
  5
421E
  8
240
  6
CONTINUOUS
 10
0.0
 20
-10.0
 30
0.0
 11
64.999999999999204
 21
-10.0
 31
0.0
  0
LINE
  5
421F
  8
240
  6
CONTINUOUS
 10
0.0
 20
10.0
 30
0.0
 11
64.999999999999204
 21
10.0
 31
0.0
  0
LINE
  5
4220
  8
240
  6
CONTINUOUS
 10
0.0
 20
10.0
 30
0.0
 11
0.0
 21
-10.0
 31
0.0
  0
LINE
  5
4221
  8
247
  6
CONTINUOUS
 10
6.7499999999299964
 20
-6.0
 30
0.0
 11
13.442307691970001
 21
-6.0
 31
0.0
  0
ARC
  5
4222
  8
247
  6
CONTINUOUS
 10
6.7499999999299964
 20
-4.2500000000700311
 30
0.0
 40
1.7499999999299991
 50
90.0
 51
270.0
  0
ARC
  5
4223
  8
247
  6
CONTINUOUS
 10
13.442307691970001
 20
-4.2500000000700311
 30
0.0
 40
1.7499999999299991
 50
270.0
 51
90.0
  0
LINE
  5
4224
  8
247
  6
CONTINUOUS
 10
7.6153846152799911
 20
-2.5000000001400622
 30
0.0
 11
6.7551484580379917
 21
-5.5000000000200071
 31
0.0
  0
LINE
  5
4225
  8
247
  6
CONTINUOUS
 10
8.5150161816641798
 20
-3.9230769231598961
 30
0.0
 11
7.2073238740241816
 21
-3.9230769231598961
 31
0.0
  0
ARC
  5
4226
  8
247
  6
CONTINUOUS
 10
8.8548561839102131
 20
-3.049598667702865
 30
0.0
 40
0.5538165441895349
 50
342.99788967529543
 51
82.924166218512795
  0
ARC
  5
4227
  8
247
  6
CONTINUOUS
 10
8.4331216769712114
 20
-2.9360330444658289
 30
0.0
 40
0.9904354236226808
 50
274.74293685220141
 51
343.84922627326642
1001
GENIUS_GENOBJ-N-FIL_13
1002
{
1000
OWNER
1000
GEN
1002
}
1001
GENIUS_GENODEF_13
1002
{
1000
HIER
1070
     0
1002
}
1002
{
1000
MANEDIT
1070
     0
1002
}
1002
{
1000
NOSEL
1070
     0
1002
}
1002
{
1000
BEHIND
1070
     0
1002
}
1002
{
1000
OTHER
1070
     0
1002
}
1002
{
1000
REACTOR
1002
}
  0
LINE
  5
4228
  8
247
  6
CONTINUOUS
 10
8.0628407656779864
 20
-5.5000000000200071
 30
0.0
 11
6.7551484580379917
 21
-5.5000000000200071
 31
0.0
  0
LINE
  5
4229
  8
247
  6
CONTINUOUS
 10
7.6153846152799911
 20
-2.5000000001400622
 30
0.0
 11
8.9230769229200035
 21
-2.5000000001400622
 31
0.0
  0
ARC
  5
422A
  8
247
  6
CONTINUOUS
 10
8.43908036345303
 20
-4.4820242326654789
 30
0.0
 40
0.5640818586791229
 50
335.99094165252171
 51
82.263443459069123
  0
ARC
  5
422B
  8
247
  6
CONTINUOUS
 10
7.9617373146529342
 20
-4.487429039186507
 30
0.0
 40
1.0176059446230981
 50
275.70198516425808
 51
347.27733843682228
1001
GENIUS_GENOBJ-N-FIL_13
1002
{
1000
OWNER
1000
GEN
1002
}
1001
GENIUS_GENODEF_13
1002
{
1000
HIER
1070
     0
1002
}
1002
{
1000
MANEDIT
1070
     0
1002
}
1002
{
1000
NOSEL
1070
     0
1002
}
1002
{
1000
BEHIND
1070
     0
1002
}
1002
{
1000
OTHER
1070
     0
1002
}
1002
{
1000
REACTOR
1002
}
  0
LINE
  5
422C
  8
247
  6
CONTINUOUS
 10
9.7166869194580006
 20
-5.5000000000200071
 30
0.0
 11
10.576923076699989
 21
-2.5000000001400622
 31
0.0
  0
LINE
  5
422D
  8
247
  6
CONTINUOUS
 10
12.99999999968
 20
-2.5000000001400622
 30
0.0
 11
12.434263380543401
 21
-2.5000000001400622
 31
0.0
  0
LINE
  5
422E
  8
247
  6
CONTINUOUS
 10
11.538461538200011
 20
-5.5000000000200071
 30
0.0
 11
12.153846153559989
 21
-5.5000000000200071
 31
0.0
  0
ARC
  5
422F
  8
247
  6
CONTINUOUS
 10
13.29120879087713
 20
-4.5832851359733677
 30
0.0
 40
2.2526500823422122
 50
112.35948814152999
 51
164.99324854284609
  0
ARC
  5
4230
  8
247
  6
CONTINUOUS
 10
12.62593052078677
 20
-3.3083126551946389
 30
0.0
 40
0.8906723995727782
 50
4.9945893190753656
 51
65.166328957300507
1001
GENIUS_GENOBJ-N-FIL_13
1002
{
1000
OWNER
1000
GEN
1002
}
1001
GENIUS_GENODEF_13
1002
{
1000
HIER
1070
     0
1002
}
1002
{
1000
MANEDIT
1070
     0
1002
}
1002
{
1000
NOSEL
1070
     0
1002
}
1002
{
1000
BEHIND
1070
     0
1002
}
1002
{
1000
OTHER
1070
     0
1002
}
1002
{
1000
REACTOR
1002
}
  0
ARC
  5
4231
  8
247
  6
CONTINUOUS
 10
11.77354111378742
 20
-4.1601458886677829
 30
0.0
 40
1.392781735586712
 50
285.84609655578078
 51
352.32513700416251
  0
ARC
  5
4232
  8
247
  6
CONTINUOUS
 10
12.35778727415963
 20
-4.4592434315272831
 30
0.0
 40
1.324563662670287
 50
159.71360167049011
 51
231.7887456564122
1001
GENIUS_GENOBJ-N-FIL_13
1002
{
1000
OWNER
1000
GEN
1002
}
1001
GENIUS_GENODEF_13
1002
{
1000
HIER
1070
     0
1002
}
1002
{
1000
MANEDIT
1070
     0
1002
}
1002
{
1000
NOSEL
1070
     0
1002
}
1002
{
1000
BEHIND
1070
     0
1002
}
1002
{
1000
OTHER
1070
     0
1002
}
1002
{
1000
REACTOR
1002
}
  0
LINE
  5
4233
  8
247
  6
CONTINUOUS
 10
12.46153846124
 20
-4.346153846219976
 30
0.0
 11
13.153846153519989
 21
-4.346153846219976
 31
0.0
  0
LINE
  5
4234
  8
247
  6
CONTINUOUS
 10
6.749999999929968
 20
-2.5000000001400622
 30
0.0
 11
7.4230769229799289
 21
-2.5000000001400622
 31
0.0
  0
LINE
  5
4258
  8
240
  6
CONTINUOUS
 10
64.999999999998806
 20
16.00000000000075
 30
0.0
 11
64.999999999999204
 21
10.0
 31
0.0
  0
LINE
  5
4259
  8
240
  6
CONTINUOUS
 10
78.999999999999204
 20
-15.999999999999689
 30
0.0
 11
64.999999999998806
 21
-16.000000000000021
 31
0.0
  0
LINE
  5
425A
  8
241
  6
CONTINUOUS
 10
78.999999999999233
 20
-15.820359442248609
 30
0.0
 11
78.999999999999176
 21
15.820359442248609
 31
0.0
  0
LINE
  5
425B
  8
241
  6
CONTINUOUS
 10
82.499999999999034
 20
-12.949101394377969
 30
0.0
 11
82.499999999998565
 21
12.949101394377969
 31
0.0
  0
LINE
  5
425C
  8
240
  6
CONTINUOUS
 10
151.45690663732469
 20
12.5000000000004
 30
0.0
 11
84.571067811864197
 21
12.5000000000004
 31
0.0
  0
LINE
  5
425D
  8
240
  6
CONTINUOUS
 10
78.999999999998437
 20
16.000000000000501
 30
0.0
 11
64.999999999998806
 21
16.00000000000075
 31
0.0
  0
LINE
  5
425E
  8
240
  6
CONTINUOUS
 10
78.999999999998437
 20
16.000000000000501
 30
0.0
 11
81.035533905931615
 21
13.96446609406749
 31
0.0
  0
ARC
  5
425F
  8
240
  6
CONTINUOUS
 10
84.571067811864197
 20
17.500000000000401
 30
0.0
 40
5.0
 50
225.00000000000281
 51
270.0
1001
ASK_MEN_XD
1005
425C
1070
     1
1005
425E
1070
     0
  0
LINE
  5
4260
  8
240
  6
CONTINUOUS
 10
151.4569066373239
 20
-12.50000000000048
 30
0.0
 11
84.571067811864225
 21
-12.5000000000004
 31
0.0
  0
LINE
  5
4261
  8
240
  6
CONTINUOUS
 10
78.999999999999204
 20
-15.999999999999689
 30
0.0
 11
81.035533905931658
 21
-13.96446609406752
 31
0.0
  0
ARC
  5
4262
  8
240
  6
CONTINUOUS
 10
84.571067811864197
 20
-17.500000000000401
 30
0.0
 40
5.0
 50
90.0
 51
134.9999999999971
1001
ASK_MEN_XD
1005
4260
1070
     1
1005
4261
1070
     0
  0
LINE
  5
4264
  8
241
  6
CONTINUOUS
 10
132.00000000001191
 20
12.499999999997501
 30
0.0
 11
132.00000000000099
 21
-12.499999999997501
 31
0.0
  0
LINE
  5
4265
  8
241
  6
CONTINUOUS
 10
137.00000000001211
 20
12.500000000000339
 30
0.0
 11
137.00000000000099
 21
-12.500000000000339
 31
0.0
  0
LINE
  5
4266
  8
241
  6
CONTINUOUS
 10
140.00000000001191
 20
12.500000000000339
 30
0.0
 11
140.00000000000099
 21
-12.500000000000339
 31
0.0
  0
LINE
  5
4267
  8
241
  6
CONTINUOUS
 10
145.00000000001219
 20
12.5000000000004
 30
0.0
 11
145.00000000000099
 21
-12.5000000000004
 31
0.0
  0
LINE
  5
4268
  8
241
  6
CONTINUOUS
 10
155.99999999999579
 20
-12.022501646376989
 30
0.0
 11
155.99999999999579
 21
12.022501646376989
 31
0.0
  0
LINE
  5
4269
  8
240
  6
CONTINUOUS
 10
179.99999999999719
 20
9.5000000000043432
 30
0.0
 11
151.45690663732469
 21
12.5000000000004
 31
0.0
  0
LINE
  5
426A
  8
240
  6
CONTINUOUS
 10
180.00000000000631
 20
-9.5000000000033928
 30
0.0
 11
151.4569066373239
 21
-12.50000000000048
 31
0.0
  0
LINE
  5
426B
  8
240
  6
CONTINUOUS
 10
180.00000000000631
 20
-9.5000000000033928
 30
0.0
 11
179.99999999999719
 21
9.5000000000043432
 31
0.0
  0
LINE
  5
426C
  8
241
  6
CONTINUOUS
 10
151.45690663732469
 20
-12.5000000000004
 30
0.0
 11
151.45690663732469
 21
12.5000000000004
 31
0.0
  0
LINE
  5
426E
  8
240
  6
CONTINUOUS
 10
64.999999999998806
 20
-16.000000000000021
 30
0.0
 11
64.999999999999204
 21
-10.0
 31
0.0
  0
LINE
  5
4276
  8
241
  6
CONTINUOUS
 10
64.999999999999204
 20
-10.0
 30
0.0
 11
64.999999999999204
 21
10.0
 31
0.0
  0
LINE
  5
4277
  8
243
  6
HIDDEN2
 10
89.999999999983785
 20
5.0
 30
0.0
 11
179.9999999999994
 21
5.0
 31
0.0
  0
LINE
  5
4279
  8
243
  6
HIDDEN2
 10
89.999999999983743
 20
-5.0
 30
0.0
 11
180.00000000000409
 21
-5.0
 31
0.0
  0
INSERT
  5
42EF
  8
250
  6
CONTINUOUS
  2
_OPEN
 10
73.900000000000034
 20
19.00000000000059
 30
0.0
 41
-1.999999999999992
 42
1.999999999999992
 43
1.999999999999992
 50
90.000000000000071
1001
ACAD
1000
DSTYLE
1002
{
1070
    41
1040
2.0
1070
   140
1040
2.799999999999998
1002
}
  0
POLYLINE
  5
42F0
  8
250
  6
CONTINUOUS
 66
     1
 10
0.0
 20
0.0
 30
0.0
1001
ACAD
1000
DSTYLE
1002
{
1070
    41
1040
2.0
1070
   140
1040
2.799999999999998
1002
}
  0
VERTEX
  5
42F1
  8
250
  6
CONTINUOUS
 10
73.900000000000034
 20
21.000000000000451
 30
0.0
  0
VERTEX
  5
42F2
  8
250
  6
CONTINUOUS
 10
73.90000000000002
 20
29.26304107793451
 30
0.0
  0
SEQEND
  5
42F3
  8
250
  6
CONTINUOUS
  0
TEXT
  5
42F4
  8
250
  6
CONTINUOUS
 10
65.672008118652897
 20
32.012274989992697
 30
0.0
 40
3.0
  1
Screw
  7
YOKO
 11
65.672008118652897
 21
32.012274989992697
 31
0.0
 73
     1
  0
TEXT
  5
436F
  8
241
  6
CONTINUOUS
 10
-0.0000000000000711
 20
55.999999999999602
 30
0.0
 40
5.0
  1
ST20-HDC10S-180
  7
YOKO
 11
-0.0000000000000711
 21
55.999999999999602
 31
0.0
 73
     1
  0
LINE
  5
4370
  8
250
  6
CONTINUOUS
 10
180.4999999999994
 20
5.0
 30
0.0
 11
190.0
 21
4.9999999999999956
 31
0.0
  0
LINE
  5
4371
  8
250
  6
CONTINUOUS
 10
180.50000000000409
 20
-5.0
 30
0.0
 11
190.0
 21
-5.0000000000000027
 31
0.0
  0
LINE
  5
4372
  8
250
  6
CONTINUOUS
 10
189.0
 20
2.769999999999996
 30
0.0
 11
189.0
 21
-2.7700000000000031
 31
0.0
  0
LINE
  5
4376
  8
250
  6
CONTINUOUS
 10
151.95690663732469
 20
12.5000000000004
 30
0.0
 11
197.0
 21
12.50000000000038
 31
0.0
  0
LINE
  5
4377
  8
250
  6
CONTINUOUS
 10
151.95690663732469
 20
-12.50000000000048
 30
0.0
 11
197.0
 21
-12.50000000000049
 31
0.0
  0
LINE
  5
4378
  8
250
  6
CONTINUOUS
 10
196.0
 20
10.27000000000038
 30
0.0
 11
196.0
 21
-10.27000000000049
 31
0.0
  0
LINE
  5
437C
  8
250
  6
CONTINUOUS
 10
79.999999999983785
 20
5.750000000010572
 30
0.0
 11
79.999999999983785
 21
36.0
 31
0.0
  0
LINE
  5
437D
  8
250
  6
CONTINUOUS
 10
179.99999999999719
 20
10.00000000000434
 30
0.0
 11
179.99999999999719
 21
36.0
 31
0.0
  0
LINE
  5
437E
  8
250
  6
CONTINUOUS
 10
82.229999999983804
 20
35.0
 30
0.0
 11
177.7699999999972
 21
35.0
 31
0.0
  0
LINE
  5
4382
  8
250
  6
CONTINUOUS
 10
0.0
 20
10.5
 30
0.0
 11
0.000000000000002
 21
43.0
 31
0.0
  0
LINE
  5
4383
  8
250
  6
CONTINUOUS
 10
179.99999999999719
 20
10.00000000000434
 30
0.0
 11
179.99999999999719
 21
43.0
 31
0.0
  0
LINE
  5
4384
  8
250
  6
CONTINUOUS
 10
2.2300000000000009
 20
42.0
 30
0.0
 11
177.7699999999972
 21
42.0
 31
0.0
  0
TEXT
  5
4388
  8
250
  6
CONTINUOUS
 10
188.0
 20
-3.9333333333333051
 30
0.0
 40
2.7999999999999989
  1
\U+220510
 50
90.0
  0
LINE
  5
4389
  8
250
  6
CONTINUOUS
 10
189.37166666666661
 20
-2.7700000000000018
 30
0.0
 11
189.0
 21
-5.0000000000000018
 31
0.0
  0
LINE
  5
438A
  8
250
  6
CONTINUOUS
 10
188.6283333333333
 20
-2.7700000000000018
 30
0.0
 11
189.0
 21
-5.0000000000000018
 31
0.0
  0
LINE
  5
438B
  8
250
  6
CONTINUOUS
 10
189.0
 20
-5.0000000000000018
 30
0.0
 11
189.0
 21
-2.7700000000000018
 31
0.0
  0
LINE
  5
438C
  8
250
  6
CONTINUOUS
 10
188.6283333333333
 20
2.7699999999999969
 30
0.0
 11
189.0
 21
4.9999999999999973
 31
0.0
  0
LINE
  5
438D
  8
250
  6
CONTINUOUS
 10
189.37166666666661
 20
2.7699999999999969
 30
0.0
 11
189.0
 21
4.9999999999999973
 31
0.0
  0
LINE
  5
438E
  8
250
  6
CONTINUOUS
 10
189.0
 20
4.9999999999999973
 30
0.0
 11
189.0
 21
2.7699999999999969
 31
0.0
  0
TEXT
  5
438F
  8
250
  6
CONTINUOUS
 10
195.0
 20
-3.933333333333354
 30
0.0
 40
2.7999999999999989
  1
\U+220525
 50
90.0
  0
LINE
  5
4390
  8
250
  6
CONTINUOUS
 10
196.37166666666661
 20
-10.27000000000049
 30
0.0
 11
196.0
 21
-12.50000000000049
 31
0.0
  0
LINE
  5
4391
  8
250
  6
CONTINUOUS
 10
195.6283333333333
 20
-10.27000000000049
 30
0.0
 11
196.0
 21
-12.50000000000049
 31
0.0
  0
LINE
  5
4392
  8
250
  6
CONTINUOUS
 10
196.0
 20
-12.50000000000049
 30
0.0
 11
196.0
 21
-10.27000000000049
 31
0.0
  0
LINE
  5
4393
  8
250
  6
CONTINUOUS
 10
195.6283333333333
 20
10.27000000000038
 30
0.0
 11
196.0
 21
12.50000000000038
 31
0.0
  0
LINE
  5
4394
  8
250
  6
CONTINUOUS
 10
196.37166666666661
 20
10.27000000000038
 30
0.0
 11
196.0
 21
12.50000000000038
 31
0.0
  0
LINE
  5
4395
  8
250
  6
CONTINUOUS
 10
196.0
 20
12.50000000000038
 30
0.0
 11
196.0
 21
10.27000000000038
 31
0.0
  0
TEXT
  5
4396
  8
250
  6
CONTINUOUS
 10
119.0666666666572
 20
37.200000000000003
 30
0.0
 40
2.7999999999999989
  1
(max.100)
  0
LINE
  5
4397
  8
250
  6
CONTINUOUS
 10
177.7699999999972
 20
35.37166666666667
 30
0.0
 11
179.99999999999719
 21
35.0
 31
0.0
  0
LINE
  5
4398
  8
250
  6
CONTINUOUS
 10
177.7699999999972
 20
34.62833333333333
 30
0.0
 11
179.99999999999719
 21
35.0
 31
0.0
  0
LINE
  5
4399
  8
250
  6
CONTINUOUS
 10
179.99999999999719
 20
35.0
 30
0.0
 11
177.7699999999972
 21
35.0
 31
0.0
  0
LINE
  5
439A
  8
250
  6
CONTINUOUS
 10
82.229999999983804
 20
34.62833333333333
 30
0.0
 11
79.999999999983785
 21
35.0
 31
0.0
  0
LINE
  5
439B
  8
250
  6
CONTINUOUS
 10
82.229999999983804
 20
35.37166666666667
 30
0.0
 11
79.999999999983785
 21
35.0
 31
0.0
  0
LINE
  5
439C
  8
250
  6
CONTINUOUS
 10
79.999999999983785
 20
35.0
 30
0.0
 11
82.229999999983804
 21
35.0
 31
0.0
  0
TEXT
  5
439D
  8
250
  6
CONTINUOUS
 10
85.799999999998604
 20
43.0
 30
0.0
 40
2.7999999999999989
  1
180
  0
LINE
  5
439E
  8
250
  6
CONTINUOUS
 10
177.7699999999972
 20
42.371666666666663
 30
0.0
 11
179.99999999999719
 21
42.0
 31
0.0
  0
LINE
  5
439F
  8
250
  6
CONTINUOUS
 10
177.7699999999972
 20
41.62833333333333
 30
0.0
 11
179.99999999999719
 21
42.0
 31
0.0
  0
LINE
  5
43A0
  8
250
  6
CONTINUOUS
 10
179.99999999999719
 20
42.0
 30
0.0
 11
177.7699999999972
 21
42.0
 31
0.0
  0
LINE
  5
43A1
  8
250
  6
CONTINUOUS
 10
2.2300000000000009
 20
41.62833333333333
 30
0.0
 11
0.000000000000002
 21
42.0
 31
0.0
  0
LINE
  5
43A2
  8
250
  6
CONTINUOUS
 10
2.2300000000000009
 20
42.371666666666663
 30
0.0
 11
0.000000000000002
 21
42.0
 31
0.0
  0
LINE
  5
43A3
  8
250
  6
CONTINUOUS
 10
0.000000000000002
 20
42.0
 30
0.0
 11
2.2300000000000009
 21
42.0
 31
0.0
  0
VIEWPORT
  5
22
 67
     1
  8
0
 10
261.51769911504419
 20
148.5
 30
0.0
 40
523.0353982300885
 41
297.0
 68
     1
 69
     1
1001
ACAD
1000
MVIEW
1002
{
1070
    16
1010
0.0
1020
0.0
1030
0.0
1010
0.0
1020
0.0
1030
1.0
1040
0.0
1040
297.0
1040
261.51769911504419
1040
148.5
1040
50.0
1040
0.0
1040
0.0
1070
     0
1070
   100
1070
     1
1070
     1
1070
     0
1070
     0
1070
     0
1070
     0
1040
0.0
1040
0.0
1040
0.0
1040
1.0
1040
1.0
1040
10.0
1040
10.0
1070
     0
1002
{
1002
}
1002
}
1001
GENIUS_GENODEF_13
1002
{
1000
HIER
1070
     0
1002
}
1002
{
1000
MANEDIT
1070
     0
1002
}
1002
{
1000
NOSEL
1070
     0
1002
}
1002
{
1000
BEHIND
1070
     0
1002
}
1002
{
1000
OTHER
1070
     0
1002
}
1002
{
1000
REACTOR
1002
}
1001
GENIUS_GENOBJ-N-SDF_13
1002
{
1000
OWNER
1000
GEN
1002
}
1001
GENIUS_GENSCREG_15
1000
PF
1040
1.0
1000
DF
1040
1.0
1000
MIN
1011
0.0
1021
0.0
1031
0.0
1021
0.0
1031
0.0
1000
MAX
1011
523.0353982300885
1021
0.0
1031
0.0
1021
297.0
1031
0.0
1000
FLAGS
1070
     4
  0
ENDSEC
  0
EOF
