  0
SECTION
  2
HEADER
  9
$ACADVER
  1
AC1009
  9
$INSBASE
 10
0.0
 20
0.0
 30
0.0
  9
$EXTMIN
 10
-190.43800572390089
 20
-10.500000000006221
 30
0.0
  9
$EXTMAX
 10
11.69131946956284
 20
53.999999999999879
 30
0.0
  9
$LIMMIN
 10
0.0
 20
0.0
  9
$LIMMAX
 10
297.0
 20
210.0
  9
$ORTHOMODE
 70
     0
  9
$REGENMODE
 70
     1
  9
$FILLMODE
 70
     1
  9
$QTEXTMODE
 70
     0
  9
$MIRRTEXT
 70
     1
  9
$DRAGMODE
 70
     2
  9
$LTSCALE
 40
10.0
  9
$OSMODE
 70
    39
  9
$ATTMODE
 70
     1
  9
$TEXTSIZE
 40
3.0
  9
$TRACEWID
 40
1.0
  9
$TEXTSTYLE
  7
YOKO
  9
$CLAYER
  8
240
  9
$CELTYPE
  6
BYLAYER
  9
$CECOLOR
 62
   256
  9
$DIMSCALE
 40
1.0
  9
$DIMASZ
 40
2.2299999999999991
  9
$DIMEXO
 40
0.5
  9
$DIMDLI
 40
7.0
  9
$DIMRND
 40
0.0
  9
$DIMDLE
 40
0.0
  9
$DIMEXE
 40
1.0
  9
$DIMTP
 40
0.0
  9
$DIMTM
 40
0.01
  9
$DIMTXT
 40
2.7999999999999989
  9
$DIMCEN
 40
0.0
  9
$DIMTSZ
 40
0.0
  9
$DIMTOL
 70
     0
  9
$DIMLIM
 70
     0
  9
$DIMTIH
 70
     0
  9
$DIMTOH
 70
     0
  9
$DIMSE1
 70
     0
  9
$DIMSE2
 70
     0
  9
$DIMTAD
 70
     3
  9
$DIMZIN
 70
     9
  9
$DIMBLK
  1
OPEN
  9
$DIMASO
 70
     1
  9
$DIMSHO
 70
     1
  9
$DIMPOST
  1

  9
$DIMAPOST
  1

  9
$DIMALT
 70
     0
  9
$DIMALTD
 70
     2
  9
$DIMALTF
 40
25.399999999999999
  9
$DIMLFAC
 40
1.0
  9
$DIMTOFL
 70
     1
  9
$DIMTVP
 40
0.0
  9
$DIMTIX
 70
     1
  9
$DIMSOXD
 70
     0
  9
$DIMSAH
 70
     0
  9
$DIMBLK1
  1

  9
$DIMBLK2
  1

  9
$DIMSTYLE
  2
BIGT
  9
$DIMCLRD
 70
   256
  9
$DIMCLRE
 70
   256
  9
$DIMCLRT
 70
    40
  9
$DIMTFAC
 40
1.0
  9
$DIMGAP
 40
1.0
  9
$LUNITS
 70
     2
  9
$LUPREC
 70
     3
  9
$SKETCHINC
 40
1.0
  9
$FILLETRAD
 40
0.0
  9
$AUNITS
 70
     0
  9
$AUPREC
 70
     3
  9
$MENU
  1
.
  9
$ELEVATION
 40
0.0
  9
$PELEVATION
 40
0.0
  9
$THICKNESS
 40
0.0
  9
$LIMCHECK
 70
     0
  9
$BLIPMODE
 70
     0
  9
$CHAMFERA
 40
0.25
  9
$CHAMFERB
 40
0.25
  9
$SKPOLY
 70
     0
  9
$TDCREATE
 40
2456114.6551782992
  9
$TDUPDATE
 40
2456115.3964749072
  9
$TDINDWG
 40
0.0155884259
  9
$TDUSRTIMER
 40
0.0155884259
  9
$USRTIMER
 70
     1
  9
$ANGBASE
 50
0.0
  9
$ANGDIR
 70
     0
  9
$PDMODE
 70
     1
  9
$PDSIZE
 40
0.0
  9
$PLINEWID
 40
0.0
  9
$COORDS
 70
     0
  9
$SPLFRAME
 70
     0
  9
$SPLINETYPE
 70
     6
  9
$SPLINESEGS
 70
     4
  9
$ATTDIA
 70
     1
  9
$ATTREQ
 70
     1
  9
$HANDLING
 70
     1
  9
$HANDSEED
  5
18BE
  9
$SURFTAB1
 70
     6
  9
$SURFTAB2
 70
     6
  9
$SURFTYPE
 70
     6
  9
$SURFU
 70
     6
  9
$SURFV
 70
     6
  9
$UCSNAME
  2

  9
$UCSORG
 10
0.0
 20
0.0
 30
0.0
  9
$UCSXDIR
 10
1.0
 20
0.0
 30
0.0
  9
$UCSYDIR
 10
0.0
 20
1.0
 30
0.0
  9
$PUCSNAME
  2

  9
$PUCSORG
 10
0.0
 20
0.0
 30
0.0
  9
$PUCSXDIR
 10
1.0
 20
0.0
 30
0.0
  9
$PUCSYDIR
 10
0.0
 20
1.0
 30
0.0
  9
$USERI1
 70
     1
  9
$USERI2
 70
     0
  9
$USERI3
 70
     0
  9
$USERI4
 70
     0
  9
$USERI5
 70
     0
  9
$USERR1
 40
0.0
  9
$USERR2
 40
0.0
  9
$USERR3
 40
0.0
  9
$USERR4
 40
0.0
  9
$USERR5
 40
0.0
  9
$WORLDVIEW
 70
     1
  9
$SHADEDGE
 70
     3
  9
$SHADEDIF
 70
    70
  9
$TILEMODE
 70
     1
  9
$MAXACTVP
 70
    16
  9
$PLIMCHECK
 70
     0
  9
$PEXTMIN
 10
1.0000000000000000E+020
 20
1.0000000000000000E+020
 30
1.0000000000000000E+020
  9
$PEXTMAX
 10
-1.0000000000000000E+020
 20
-1.0000000000000000E+020
 30
-1.0000000000000000E+020
  9
$PLIMMIN
 10
0.0
 20
0.0
  9
$PLIMMAX
 10
420.0
 20
297.0
  9
$UNITMODE
 70
     0
  9
$VISRETAIN
 70
     1
  9
$PLINEGEN
 70
     0
  9
$PSLTSCALE
 70
     1
  0
ENDSEC
  0
SECTION
  2
TABLES
  0
TABLE
  2
VPORT
 70
     3
  0
VPORT
  2
*ACTIVE
 70
     0
 10
0.0
 20
0.0
 11
1.0
 21
1.0
 12
-89.377349438934317
 22
21.751099024842411
 13
0.0
 23
0.0
 14
7.0
 24
7.0
 15
7.0
 25
7.0
 16
0.0
 26
0.0
 36
1.0
 17
0.0
 27
0.0
 37
0.0
 40
131.3393476917814
 41
1.5459518599562361
 42
50.0
 43
0.0
 44
0.0
 50
0.0
 51
0.0
 71
     0
 72
  2000
 73
     1
 74
     0
 75
     0
 76
     1
 77
     0
 78
     1
  0
ENDTAB
  0
TABLE
  2
LTYPE
 70
    15
  0
LTYPE
  2
CONTINUOUS
 70
     0
  3
Solid line
 72
    65
 73
     0
 40
0.0
  0
LTYPE
  2
CENTER2
 70
     0
  3
___ _ ___ _ ___ _ ___ _ ___ _ ___ _ ___ _ ___ _
 72
    65
 73
     4
 40
1.125
 49
0.75
 49
-0.125
 49
0.125
 49
-0.125
  0
LTYPE
  2
HIDDEN2
 70
     0
  3
_ _ _ _ _ _ _ _ _ _ _ _ _ _ _ _ _ _ _ _ _ _ _ _
 72
    65
 73
     2
 40
0.1875
 49
0.125
 49
-0.0625
  0
LTYPE
  2
PHANTOM2
 70
     0
  3
___ _ _ ___ _ _ ___ _ _ ___ _ _ ___ _ _ ___ _ _
 72
    65
 73
     6
 40
1.25
 49
0.625
 49
-0.125
 49
0.125
 49
-0.125
 49
0.125
 49
-0.125
  0
LTYPE
  2
CENTER
 70
     0
  3
____ _ ____ _ ____ _ ____ _ ____ _ ____ _ ____ 
 72
    65
 73
     4
 40
2.0
 49
1.25
 49
-0.25
 49
0.25
 49
-0.25
  0
LTYPE
  2
AM_ISO02W050
 70
     0
  3
__ __ __ __ __ __ __ __ __ __ __ __ __ __ __
 72
    65
 73
     2
 40
7.5
 49
6.0
 49
-1.5
  0
LTYPE
  2
AMCONSTR
 70
     0
  3
_______________________
 72
    65
 73
     2
 40
9999.0
 49
9999.0
 49
0.0
  0
LTYPE
  2
ACISOWELD
 70
     0
  3
_ _ _ _ _
 72
    65
 73
     2
 40
2.0
 49
2.0
 49
-1.0
  0
LTYPE
  2
ACISOTGB
 70
     0
  3
__ . . __ . .
 72
    65
 73
     6
 40
9.0
 49
4.0
 49
-1.0
 49
1.0
 49
-1.0
 49
1.0
 49
-1.0
  0
LTYPE
  2
ACISOTGL
 70
     0
  3
_ _ _ _ _
 72
    65
 73
     2
 40
3.0
 49
2.0
 49
-1.0
  0
LTYPE
  2
ACJISTGB
 70
     0
  3
__ . . __ . .
 72
    65
 73
     6
 40
9.0
 49
4.0
 49
-1.0
 49
1.0
 49
-1.0
 49
1.0
 49
-1.0
  0
LTYPE
  2
ACJISTGL
 70
     0
  3
_ _ _ _ _
 72
    65
 73
     2
 40
3.0
 49
2.0
 49
-1.0
  0
LTYPE
  2
HIDDEN
 70
     0
  3
Hidden __ __ __ __ __ __ __ __ __ __ __ __ __ _
 72
    65
 73
     2
 40
9.5249999999999986
 49
6.3499999999999988
 49
-3.1749999999999989
  0
ENDTAB
  0
TABLE
  2
LAYER
 70
     7
  0
LAYER
  2
0
 70
     0
 62
     7
  6
CONTINUOUS
  0
LAYER
  2
DEFPOINTS
 70
     0
 62
     7
  6
CONTINUOUS
  0
LAYER
  2
245
 70
     0
 62
     2
  6
CENTER2
  0
LAYER
  2
240
 70
     0
 62
     4
  6
CONTINUOUS
  0
LAYER
  2
241
 70
     0
 62
   211
  6
CONTINUOUS
  0
LAYER
  2
242
 70
     0
 62
     3
  6
CONTINUOUS
  0
LAYER
  2
250
 70
     0
 62
     3
  6
CONTINUOUS
  0
ENDTAB
  0
TABLE
  2
STYLE
 70
     8
  0
STYLE
  2
STANDARD
 70
     0
 40
0.0
 41
1.0
 50
0.0
 71
     0
 42
3.0
  3
romans.shx
  4
extfont.shx
  0
STYLE
  2
ACISOTS
 70
     0
 40
1.0
 41
1.0
 50
0.0
 71
     0
 42
3.0
  3
amgdt.shx
  4
extfont.shx
  0
STYLE
  2
ACISOGDT
 70
     0
 40
0.0
 41
1.0
 50
0.0
 71
     0
 42
3.0
  3
amgdt.shx
  4
extfont.shx
  0
STYLE
  2
ACJISTS
 70
     0
 40
1.0
 41
1.0
 50
0.0
 71
     0
 42
3.0
  3
amgdt.shx
  4
extfont.shx
  0
STYLE
  2
ACJISGDT
 70
     0
 40
0.0
 41
1.0
 50
0.0
 71
     0
 42
3.0
  3
amgdt.shx
  4
extfont.shx
  0
STYLE
  2
YOKO
 70
     0
 40
0.0
 41
1.0
 50
0.0
 71
     0
 42
3.0
  3
romans.shx
  4
extfont.shx
  0
ENDTAB
  0
TABLE
  2
VIEW
 70
     0
  0
ENDTAB
  0
TABLE
  2
UCS
 70
     0
  0
ENDTAB
  0
TABLE
  2
APPID
 70
    28
  0
APPID
  2
ACAD
 70
     0
  0
APPID
  2
GLOBAL
 70
     0
  0
APPID
  2
DETAIL
 70
     0
  0
APPID
  2
GRPNAME
 70
     0
  0
APPID
  2
GPARA
 70
     0
  0
APPID
  2
MCAD_NO_VIS
 70
     0
  0
APPID
  2
ACAD_TEMP_GRAPHIC
 70
     0
  0
APPID
  2
ACATTRIBSERVICES
 70
     0
  0
APPID
  2
GENIUS_GENSCREG_15
 70
     0
  0
APPID
  2
GENIUS_GENODEF_13
 70
     0
  0
APPID
  2
GENIUS_GENOBJ-N-SDF_13
 70
     0
  0
APPID
  2
GENIUS_GENREC_14
 70
     0
  0
APPID
  2
GENIUS_GENOBJ-N-REC_13
 70
     0
  0
APPID
  2
GENIUS_GENDIMSH_14
 70
     0
  0
APPID
  2
GENIUS_GENOBJ-N-DIM_13
 70
     0
  0
APPID
  2
GENIUS_GENDIM_13
 70
     0
  0
APPID
  2
GENIUS_GENDTOL_13
 70
     0
  0
APPID
  2
GENIUS_GENOLIS_13
 70
     0
  0
APPID
  2
GENIUS_GENOENT_13
 70
     0
  0
APPID
  2
GENIUS_GENOBJ-F-FEM_13
 70
     0
  0
APPID
  2
GENIUS_GENOREF_13
 70
     0
  0
APPID
  2
GENIUS_GEFFEM_13
 70
     0
  0
APPID
  2
GENIUS_GEFFEMP_13
 70
     0
  0
APPID
  2
AD_DRAW
 70
     0
  0
APPID
  2
DESIGNERASSEMBLIES
 70
     0
  0
APPID
  2
ACADM_DIM_EDIT
 70
     0
  0
APPID
  2
AMDT_DM_ADJ
 70
     0
  0
APPID
  2
GENIUS_GENOBJ-N-FIL_13
 70
     0
  0
ENDTAB
  0
TABLE
  2
DIMSTYLE
 70
    29
  0
DIMSTYLE
  2
BIGT
 70
     0
  3

  4

  5
OPEN
  6

  7

 40
1.0
 41
2.2299999999999991
 42
0.5
 43
7.0
 44
1.0
 45
0.0
 46
0.0
 47
0.0
 48
0.01
140
2.7999999999999989
141
0.0
142
0.0
143
25.399999999999999
144
1.0
145
0.0
146
1.0
147
1.0
 71
     0
 72
     0
 73
     0
 74
     0
 75
     0
 76
     0
 77
     3
 78
     9
170
     0
171
     2
172
     1
173
     0
174
     1
175
     0
176
   256
177
   256
178
    40
  0
DIMSTYLE
  2
AM_ISO
 70
     0
  3

  4
"
  5

  6

  7

 40
1.0
 41
2.5
 42
1.0
 43
10.0
 44
1.0
 45
0.0
 46
0.0
 47
0.1
 48
0.1
140
3.5
141
0.0
142
0.0
143
0.0393701
144
1.0
145
0.0
146
0.71
147
1.5
 71
     0
 72
     0
 73
     0
 74
     0
 75
     0
 76
     0
 77
     1
 78
     8
170
     0
171
     2
172
     1
173
     0
174
     0
175
     0
176
   256
177
   256
178
     2
  0
DIMSTYLE
  2
AM_ISO$3
 70
     0
  3

  4
"
  5

  6

  7

 40
1.0
 41
2.5
 42
1.0
 43
10.0
 44
1.0
 45
0.0
 46
0.0
 47
0.1
 48
0.1
140
3.5
141
0.0
142
0.0
143
0.0393701
144
1.0
145
0.0
146
0.71
147
1.5
 71
     0
 72
     0
 73
     0
 74
     1
 75
     0
 76
     0
 77
     1
 78
     8
170
     0
171
     2
172
     0
173
     0
174
     0
175
     0
176
   256
177
   256
178
     2
  0
DIMSTYLE
  2
AM_ISO$4
 70
     0
  3

  4
"
  5

  6

  7

 40
1.0
 41
2.5
 42
1.0
 43
10.0
 44
1.0
 45
0.0
 46
0.0
 47
0.1
 48
0.1
140
3.5
141
0.0
142
0.0
143
0.0393701
144
1.0
145
0.0
146
0.71
147
1.5
 71
     0
 72
     0
 73
     0
 74
     1
 75
     0
 76
     0
 77
     1
 78
     8
170
     0
171
     2
172
     0
173
     0
174
     0
175
     0
176
   256
177
   256
178
     2
  0
DIMSTYLE
  2
AM_ISO$6
 70
     0
  3

  4
"
  5

  6

  7

 40
1.0
 41
2.5
 42
1.0
 43
10.0
 44
1.0
 45
0.0
 46
0.0
 47
0.1
 48
0.1
140
3.5
141
0.0
142
0.0
143
0.0393701
144
1.0
145
0.0
146
0.71
147
1.5
 71
     0
 72
     0
 73
     0
 74
     0
 75
     0
 76
     0
 77
     0
 78
     8
170
     0
171
     2
172
     1
173
     0
174
     0
175
     0
176
   256
177
   256
178
     2
  0
DIMSTYLE
  2
AM_ISO$7
 70
     0
  3

  4
"
  5

  6

  7

 40
1.0
 41
2.5
 42
1.0
 43
10.0
 44
1.0
 45
0.0
 46
0.0
 47
0.1
 48
0.1
140
5.0
141
0.0
142
0.0
143
0.0393701
144
1.0
145
0.0
146
0.71
147
1.5
 71
     0
 72
     0
 73
     0
 74
     0
 75
     0
 76
     0
 77
     1
 78
     8
170
     0
171
     2
172
     1
173
     0
174
     0
175
     0
176
   256
177
   256
178
     2
  0
DIMSTYLE
  2
AM_ISO$SF
 70
     0
  3

  4
"
  5

  6

  7

 40
1.0
 41
2.5
 42
1.0
 43
10.0
 44
1.0
 45
0.0
 46
0.0
 47
0.1
 48
0.1
140
3.5
141
0.0
142
0.0
143
0.0393701
144
1.0
145
0.0
146
0.71
147
1.5
 71
     0
 72
     0
 73
     0
 74
     0
 75
     1
 76
     1
 77
     1
 78
     8
170
     0
171
     2
172
     1
173
     0
174
     0
175
     0
176
   256
177
   256
178
     2
  0
DIMSTYLE
  2
AM_ISO$SH
 70
     0
  3

  4
"
  5

  6
GENAXEH
  7

 40
1.0
 41
2.5
 42
1.0
 43
10.0
 44
1.0
 45
0.0
 46
0.0
 47
0.1
 48
0.1
140
3.5
141
0.0
142
0.0
143
0.0393701
144
2.0
145
0.0
146
0.71
147
1.5
 71
     0
 72
     0
 73
     0
 74
     0
 75
     1
 76
     1
 77
     1
 78
     8
170
     0
171
     2
172
     1
173
     1
174
     0
175
     0
176
   256
177
   256
178
     2
  0
DIMSTYLE
  2
BIGT$2
 70
     0
  3

  4

  5
OPEN
  6

  7

 40
1.0
 41
2.2299999999999991
 42
0.5
 43
7.0
 44
1.0
 45
0.0
 46
0.0
 47
0.0
 48
0.01
140
2.7999999999999989
141
0.0
142
0.0
143
25.399999999999999
144
1.0
145
0.0
146
1.0
147
1.0
 71
     0
 72
     0
 73
     0
 74
     0
 75
     0
 76
     0
 77
     3
 78
     9
170
     0
171
     2
172
     1
173
     0
174
     0
175
     0
176
   256
177
   256
178
    40
  0
DIMSTYLE
  2
BIGT$3
 70
     0
  3

  4

  5
OPEN
  6

  7

 40
1.0
 41
2.2299999999999991
 42
0.5
 43
2.5
 44
1.0
 45
0.0
 46
0.0
 47
0.0
 48
0.01
140
2.7999999999999989
141
0.0
142
0.0
143
25.399999999999999
144
1.0
145
0.0
146
1.0
147
1.0
 71
     0
 72
     0
 73
     0
 74
     0
 75
     0
 76
     0
 77
     3
 78
     9
170
     0
171
     2
172
     1
173
     0
174
     0
175
     0
176
   256
177
   256
178
    40
  0
DIMSTYLE
  2
BIGT$7
 70
     0
  3

  4

  5
OPEN
  6

  7

 40
0.0
 41
2.2299999999999991
 42
0.5
 43
7.0
 44
1.0
 45
0.0
 46
0.0
 47
0.0
 48
0.01
140
2.7999999999999989
141
0.0
142
0.0
143
25.399999999999999
144
1.0
145
0.0
146
1.0
147
1.0
 71
     0
 72
     0
 73
     0
 74
     0
 75
     0
 76
     0
 77
     3
 78
     9
170
     0
171
     2
172
     0
173
     0
174
     0
175
     0
176
   256
177
   256
178
    40
  0
DIMSTYLE
  2
BIGT$6
 70
     0
  3

  4

  5
OPEN
  6

  7

 40
1.0
 41
2.2299999999999991
 42
0.5
 43
2.5
 44
1.0
 45
0.0
 46
0.0
 47
0.0
 48
0.01
140
2.7999999999999989
141
0.0
142
0.0
143
25.399999999999999
144
1.0
145
0.0
146
1.0
147
1.0
 71
     0
 72
     0
 73
     0
 74
     0
 75
     0
 76
     0
 77
     3
 78
     9
170
     0
171
     2
172
     1
173
     0
174
     0
175
     0
176
   256
177
   256
178
    40
  0
DIMSTYLE
  2
BIGT$0
 70
     0
  3

  4

  5
OPEN
  6

  7

 40
1.0
 41
2.2299999999999991
 42
0.5
 43
7.0
 44
1.0
 45
0.0
 46
0.0
 47
0.0
 48
0.01
140
2.7999999999999989
141
0.0
142
0.0
143
25.399999999999999
144
1.0
145
0.0
146
1.0
147
1.0
 71
     0
 72
     0
 73
     0
 74
     0
 75
     0
 76
     0
 77
     3
 78
     9
170
     0
171
     2
172
     1
173
     0
174
     0
175
     0
176
   256
177
   256
178
    40
  0
DIMSTYLE
  2
BIGT$4
 70
     0
  3

  4

  5
OPEN
  6

  7

 40
1.0
 41
2.2299999999999991
 42
0.5
 43
2.5
 44
1.0
 45
0.0
 46
0.0
 47
0.0
 48
0.01
140
2.7999999999999989
141
0.0
142
0.0
143
25.399999999999999
144
1.0
145
0.0
146
1.0
147
1.0
 71
     0
 72
     0
 73
     0
 74
     0
 75
     0
 76
     0
 77
     3
 78
     9
170
     0
171
     2
172
     1
173
     0
174
     0
175
     0
176
   256
177
   256
178
    40
  0
DIMSTYLE
  2
BIGT$SH
 70
     0
  3

  4

  5
OPEN
  6

  7

 40
1.0
 41
2.2299999999999991
 42
0.5
 43
7.0
 44
1.0
 45
0.0
 46
0.0
 47
0.0
 48
0.0
140
2.7999999999999989
141
0.0
142
0.0
143
25.399999999999999
144
1.0
145
0.0
146
1.0
147
1.0
 71
     0
 72
     0
 73
     0
 74
     0
 75
     0
 76
     0
 77
     3
 78
     9
170
     0
171
     2
172
     1
173
     0
174
     0
175
     0
176
   256
177
   256
178
    40
  0
DIMSTYLE
  2
BIGT$SF
 70
     0
  3

  4

  5
OPEN
  6

  7

 40
1.0
 41
2.2299999999999991
 42
0.5
 43
7.0
 44
1.0
 45
0.0
 46
0.0
 47
0.0
 48
0.0
140
2.7999999999999989
141
0.0
142
0.0
143
25.399999999999999
144
1.0
145
0.0
146
1.0
147
1.0
 71
     0
 72
     0
 73
     0
 74
     0
 75
     0
 76
     0
 77
     3
 78
     9
170
     0
171
     2
172
     1
173
     0
174
     0
175
     0
176
   256
177
   256
178
    40
  0
DIMSTYLE
  2
TECHNICAL_OSAKA
 70
     0
  3

  4
"
  5
OPEN30
  6

  7

 40
1.0
 41
2.5
 42
1.0
 43
10.0
 44
1.0
 45
0.0
 46
0.0
 47
0.1
 48
0.1
140
2.7999999999999989
141
0.0
142
0.0
143
0.0393701
144
1.0
145
0.0
146
0.71
147
1.5
 71
     0
 72
     0
 73
     0
 74
     0
 75
     0
 76
     0
 77
     3
 78
     8
170
     0
171
     2
172
     1
173
     0
174
     0
175
     0
176
   256
177
   256
178
    40
  0
DIMSTYLE
  2
TECHNICAL_OSAKA$3
 70
     0
  3

  4
"
  5
OPEN30
  6

  7

 40
1.0
 41
2.5
 42
1.0
 43
10.0
 44
1.0
 45
0.0
 46
0.0
 47
0.1
 48
0.1
140
2.7999999999999989
141
0.0
142
0.0
143
0.0393701
144
1.0
145
0.0
146
0.71
147
1.5
 71
     0
 72
     0
 73
     0
 74
     1
 75
     0
 76
     0
 77
     3
 78
     8
170
     0
171
     2
172
     0
173
     0
174
     0
175
     0
176
   256
177
   256
178
    40
  0
DIMSTYLE
  2
TECHNICAL_OSAKA$4
 70
     0
  3

  4
"
  5
OPEN30
  6

  7

 40
1.0
 41
2.5
 42
1.0
 43
10.0
 44
1.0
 45
0.0
 46
0.0
 47
0.1
 48
0.1
140
2.7999999999999989
141
0.0
142
0.0
143
0.0393701
144
1.0
145
0.0
146
0.71
147
1.5
 71
     0
 72
     0
 73
     0
 74
     1
 75
     0
 76
     0
 77
     3
 78
     8
170
     0
171
     2
172
     0
173
     0
174
     0
175
     0
176
   256
177
   256
178
    40
  0
DIMSTYLE
  2
TECHNICAL_OSAKA$6
 70
     0
  3

  4
"
  5
OPEN30
  6

  7

 40
1.0
 41
2.5
 42
1.0
 43
10.0
 44
1.0
 45
0.0
 46
0.0
 47
0.1
 48
0.1
140
2.7999999999999989
141
0.0
142
0.0
143
0.0393701
144
1.0
145
0.0
146
0.71
147
1.5
 71
     0
 72
     0
 73
     0
 74
     0
 75
     0
 76
     0
 77
     0
 78
     8
170
     0
171
     2
172
     1
173
     0
174
     0
175
     0
176
   256
177
   256
178
    40
  0
DIMSTYLE
  2
TECHNICAL_OSAKA$7
 70
     0
  3

  4
"
  5
OPEN30
  6

  7

 40
1.0
 41
2.5
 42
1.0
 43
10.0
 44
1.0
 45
0.0
 46
0.0
 47
0.1
 48
0.1
140
2.7999999999999989
141
0.0
142
0.0
143
0.0393701
144
1.0
145
0.0
146
0.71
147
1.5
 71
     0
 72
     0
 73
     0
 74
     0
 75
     0
 76
     0
 77
     3
 78
     8
170
     0
171
     2
172
     1
173
     0
174
     0
175
     0
176
   256
177
   256
178
    40
  0
DIMSTYLE
  2
TECHNICAL_OSAKA$SF
 70
     0
  3

  4
"
  5
OPEN30
  6
OPEN30
  7
OPEN30
 40
1.0
 41
2.5
 42
1.0
 43
10.0
 44
1.0
 45
0.0
 46
0.0
 47
0.1
 48
0.1
140
3.5
141
0.0
142
0.0
143
0.0393701
144
1.0
145
0.0
146
0.71
147
1.5
 71
     0
 72
     0
 73
     0
 74
     0
 75
     1
 76
     1
 77
     3
 78
     8
170
     0
171
     2
172
     1
173
     0
174
     0
175
     0
176
   256
177
   256
178
    40
  0
DIMSTYLE
  2
TECHNICAL_OSAKA$SH
 70
     0
  3

  4
"
  5
OPEN30
  6
GENAXEH
  7
OPEN30
 40
1.0
 41
2.5
 42
1.0
 43
10.0
 44
1.0
 45
0.0
 46
0.0
 47
0.1
 48
0.1
140
3.5
141
0.0
142
0.0
143
0.0393701
144
2.0
145
0.0
146
0.71
147
1.5
 71
     0
 72
     0
 73
     0
 74
     0
 75
     1
 76
     1
 77
     3
 78
     8
170
     0
171
     2
172
     1
173
     1
174
     0
175
     0
176
   256
177
   256
178
    40
  0
ENDTAB
  0
ENDSEC
  0
SECTION
  2
BLOCKS
  0
BLOCK
  8
0
  2
$MODEL_SPACE
 70
     0
 10
0.0
 20
0.0
 30
0.0
  3
$MODEL_SPACE
  1

  0
ENDBLK
  5
1C
  8
0
  0
BLOCK
 67
     1
  8
0
  2
$PAPER_SPACE
 70
     0
 10
0.0
 20
0.0
 30
0.0
  3
$PAPER_SPACE
  1

  0
ENDBLK
  5
19
 67
     1
  8
0
  0
BLOCK
  8
0
  2
_OPEN
 70
     0
 10
0.0
 20
0.0
 30
0.0
  3
_OPEN
  1

  0
LINE
  5
1854
  8
0
  6
BYBLOCK
 62
     0
 10
-1.0
 20
0.1666666666666666
 30
0.0
 11
0.0
 21
0.0
 31
0.0
  0
LINE
  5
1855
  8
0
  6
BYBLOCK
 62
     0
 10
-1.0
 20
-0.1666666666666666
 30
0.0
 11
0.0
 21
0.0
 31
0.0
  0
LINE
  5
1856
  8
0
  6
BYBLOCK
 62
     0
 10
0.0
 20
0.0
 30
0.0
 11
-1.0
 21
0.0
 31
0.0
  0
ENDBLK
  5
1857
  8
0
  0
BLOCK
  8
0
  2
GENAXEH
 70
     0
 10
0.0
 20
0.0
 30
0.0
  3
GENAXEH
  1

  0
LINE
  5
187F
  8
0
 10
-1.0
 20
0.0
 30
0.0
 11
1.0
 21
0.0
 31
0.0
  0
ENDBLK
  5
1880
  8
0
  0
BLOCK
  8
0
  2
_OPEN30
 70
     0
 10
0.0
 20
0.0
 30
0.0
  3
_OPEN30
  1

  0
LINE
  5
18A4
  8
0
  6
BYBLOCK
 62
     0
 10
-1.0
 20
0.26794919
 30
0.0
 11
0.0
 21
0.0
 31
0.0
  0
LINE
  5
18A5
  8
0
  6
BYBLOCK
 62
     0
 10
0.0
 20
0.0
 30
0.0
 11
-1.0
 21
-0.26794919
 31
0.0
  0
LINE
  5
18A6
  8
0
  6
BYBLOCK
 62
     0
 10
0.0
 20
0.0
 30
0.0
 11
-1.0
 21
0.0
 31
0.0
  0
ENDBLK
  5
18A7
  8
0
  0
ENDSEC
  0
SECTION
  2
ENTITIES
  0
LINE
  5
148A
  8
245
 10
3.0
 20
-0.0000000000001421
 30
0.0
 11
-169.58483576710441
 21
0.0000000000084128
 31
0.0
  0
LINE
  5
14C1
  8
241
  6
CONTINUOUS
 10
-29.999999999999488
 20
9.9817165220026567
 30
0.0
 11
-30.00000000000048
 21
-9.9817165219996724
 31
0.0
  0
LINE
  5
14C2
  8
241
  6
CONTINUOUS
 10
-163.00000000000051
 20
-9.8011729754556001
 30
0.0
 11
-162.99999999999949
 21
9.8758707853417889
 31
0.0
  0
ARC
  5
14C3
  8
240
  6
CONTINUOUS
 10
-164.4999999999996
 20
8.5566243270340578
 30
0.0
 40
0.5
 50
119.9999999999973
 51
179.9999999999971
  0
LINE
  5
14C8
  8
240
  6
CONTINUOUS
 10
-30.00000000000011
 20
-9.9999999999985079
 30
0.0
 11
-162.73205080756929
 21
-9.9999999999919282
 31
0.0
  0
LINE
  5
14CA
  8
240
  6
CONTINUOUS
 10
-30.00000000000011
 20
-9.9999999999985079
 30
0.0
 11
-29.30717967697419
 21
-9.5999999999984595
 31
0.0
  0
LINE
  5
14D1
  8
240
  6
CONTINUOUS
 10
-165.0000000000004
 20
-8.5566243270177154
 30
0.0
 11
-164.99999999999949
 21
8.5566243270340863
 31
0.0
  0
LINE
  5
14D2
  8
240
  6
CONTINUOUS
 10
-163.23205080756929
 20
-9.8660254037763337
 30
0.0
 11
-164.7500000000004
 21
-8.9896370289099536
 31
0.0
  0
ARC
  5
14D3
  8
240
  6
CONTINUOUS
 10
-162.73205080756929
 20
-8.9999999999919282
 30
0.0
 40
1.0
 50
239.9999999999971
 51
269.99999999999721
  0
ARC
  5
14D4
  8
240
  6
CONTINUOUS
 10
-164.5000000000004
 20
-8.5566243270177438
 30
0.0
 40
0.5000000000000041
 50
179.9999999999971
 51
239.9999999999971
  0
LINE
  5
14DA
  8
240
  6
CONTINUOUS
 10
-29.99999999999881
 20
10.000000000001551
 30
0.0
 11
-162.7320508075683
 21
10.00000000000807
 31
0.0
  0
LINE
  5
14DC
  8
240
  6
CONTINUOUS
 10
-29.30717967697538
 20
9.6000000000014438
 30
0.0
 11
-29.99999999999881
 21
10.000000000001551
 31
0.0
  0
LINE
  5
14DE
  8
240
  6
CONTINUOUS
 10
-164.74999999999949
 20
8.9896370289262801
 30
0.0
 11
-163.2320508075683
 21
9.8660254037925341
 31
0.0
  0
ARC
  5
14DF
  8
240
  6
CONTINUOUS
 10
-162.73205080756841
 20
9.0000000000080718
 30
0.0
 40
1.000000000000002
 50
89.999999999997144
 51
119.9999999999973
  0
LINE
  5
14E0
  8
240
 10
-29.30717967697419
 20
-9.5999999999984595
 30
0.0
 11
-28.259807621135788
 21
-9.5999999999986159
 31
0.0
  0
LINE
  5
14E1
  8
241
 10
-27.999999999999488
 20
9.7317165220024577
 30
0.0
 11
-28.000000000000458
 21
-9.7317165219997435
 31
0.0
  0
LINE
  5
14E2
  8
240
 10
-28.259807621135788
 20
-9.5999999999986159
 30
0.0
 11
-28.000000000000291
 21
-9.7499999999986215
 31
0.0
  0
LINE
  5
14E3
  8
240
 10
-29.30717967697538
 20
9.6000000000014438
 30
0.0
 11
-28.259807621134861
 21
9.6000000000014296
 31
0.0
  0
LINE
  5
14E4
  8
240
 10
-28.259807621134861
 20
9.6000000000014296
 30
0.0
 11
-27.999999999999801
 21
9.7500000000011227
 31
0.0
  0
ARC
  5
1503
  8
240
 10
-16.750000000000679
 20
-10.249999999999091
 30
0.0
 40
0.8
 50
38.682187453485511
 51
141.3178125465088
  0
ARC
  5
1504
  8
240
 10
-16.749999999999659
 20
10.25000000000076
 30
0.0
 40
0.8
 50
218.68218745348551
 51
321.31781254650878
  0
LINE
  5
1507
  8
240
 10
-17.374499799840489
 20
-9.7499999999991331
 30
0.0
 11
-28.000000000000291
 21
-9.7499999999986215
 31
0.0
  0
LINE
  5
1509
  8
240
 10
-17.37449979983964
 20
9.7500000000009237
 30
0.0
 11
-27.999999999999801
 21
9.7500000000011227
 31
0.0
  0
LINE
  5
1514
  8
241
 10
-16.125500200160811
 20
-9.7499999999991331
 30
0.0
 11
-16.125500200159902
 21
7.8136404870757579
 31
0.0
  0
LINE
  5
1515
  8
241
 10
-17.374499799840489
 20
-9.7499999999990621
 30
0.0
 11
-17.37449979983975
 21
8.1793122664144988
 31
0.0
  0
LINE
  5
1564
  8
240
 10
-11.04961524226314
 20
9.7500000000005542
 30
0.0
 11
-10.247195646585929
 21
9.9650076826539742
 31
0.0
  0
LINE
  5
1565
  8
241
 10
-1.338443964159949
 20
-9.8603409263610473
 30
0.0
 11
-9.9299999999980741
 21
-10.04999999999951
 31
0.0
  0
LINE
  5
1566
  8
241
 10
-0.7500000000003979
 20
-7.0500000000001961
 30
0.0
 11
-0.8499373554893168
 21
-9.3818716280652268
 31
0.0
  0
ARC
  5
1567
  8
241
 10
-1.349478803398142
 20
-9.3604627088689938
 30
0.0
 40
0.5
 50
271.2646021045208
 51
357.54596832546389
  0
LINE
  5
1568
  8
240
 10
-11.04961524225155
 20
-9.7499999999996447
 30
0.0
 11
-10.247195646583521
 21
-9.9650076826530096
 31
0.0
  0
LINE
  5
156A
  8
240
 10
-0.7500000000003128
 20
-5.5168522595810572
 30
0.0
 11
-0.7499999999996591
 21
5.5168522595888296
 31
0.0
  0
ARC
  5
156D
  8
241
 10
-17.24999999999946
 20
9.7058271826684432
 30
0.0
 40
1.5
 50
179.9999999999971
 51
253.68146086302269
  0
ARC
  5
156E
  8
241
 10
-2.595058159459966
 20
2.289344562023075
 30
0.0
 40
1.5
 50
2.9999999999978719
 51
73.681460863022593
  0
LINE
  5
156F
  8
241
 10
-1.0971138573281101
 20
2.367848496387424
 30
0.0
 11
-1.0372590695091899
 21
1.2257511085981601
 31
0.0
  0
ARC
  5
1570
  8
241
 10
0.9599999999999511
 20
1.3304230210839161
 30
0.0
 40
2.0
 50
182.9999999999979
 51
211.24026521618279
  0
LINE
  5
1571
  8
241
 10
-9.9299999999975341
 20
0.2931670256810861
 30
0.0
 11
-11.04961524225115
 21
1.1614729640124459
 31
0.0
  0
LINE
  5
1572
  8
241
 10
-0.75
 20
0.2931670256806313
 30
0.0
 11
-9.9299999999975341
 21
0.2931670256810861
 31
0.0
  0
LINE
  5
1573
  8
241
 10
-9.9299999999980457
 20
-10.044883875565271
 30
0.0
 11
-9.9299999999975341
 21
0.2931670256808587
 31
0.0
  0
LINE
  5
1574
  8
241
 10
-11.049615242250891
 20
6.327564843214005
 30
0.0
 11
-11.04961524225169
 21
-9.7543520352407285
 31
0.0
  0
LINE
  5
1575
  8
240
 10
-11.04961524225155
 20
-9.7499999999996447
 30
0.0
 11
-16.125500200160729
 21
-9.7499999999992184
 31
0.0
  0
LINE
  5
1576
  8
240
 10
-11.04961524226314
 20
9.7500000000005542
 30
0.0
 11
-16.12550020015982
 21
9.75000000000081
 31
0.0
  0
LINE
  5
1577
  8
241
 10
-2.1735922732956112
 20
3.7289162020603608
 30
0.0
 11
-17.671465886163901
 21
8.2662555426311144
 31
0.0
  0
TEXT
  5
15F9
  8
241
 10
-191.15229143818661
 20
48.999999999999858
 30
0.0
 40
5.0
  1
ST20-FCR21082-165
  7
YOKO
 11
-191.15229143818661
 21
48.999999999999858
 31
0.0
 73
     1
  0
LINE
  5
15FD
  8
245
 10
-8.3689456259979806
 20
7.1229999999998483
 30
0.0
 11
-3.0854633584335711
 21
7.1229999999998483
 31
0.0
  0
LINE
  5
15FE
  8
245
 10
-5.765999999999905
 20
4.9386324982677934
 30
0.0
 11
-5.7660000000000187
 21
9.3248088712008297
 31
0.0
  0
LINE
  5
15FF
  8
240
 10
-10.01568379756492
 20
10.49999999999987
 30
0.0
 11
0.0
 21
10.49999999999986
 31
0.0
1001
GRPNAME
1000
PASTMD03
  0
LINE
  5
1600
  8
240
 10
0.0
 20
7.249999999999857
 30
0.0
 11
0.0000000000001137
 21
10.49999999999987
 31
0.0
1001
GRPNAME
1000
PASTMD03
  0
LINE
  5
1601
  8
240
 10
0.0
 20
7.249999999999857
 30
0.0
 11
-0.7499999999996591
 21
5.5168522595888296
 31
0.0
  0
LINE
  5
1602
  8
241
 10
-11.53199999999992
 20
6.9959999999998379
 30
0.0
 11
-11.53199999999992
 21
6.4577934654939346
 31
0.0
1001
GRPNAME
1000
PASTMD03
  0
LINE
  5
1603
  8
241
 10
-11.53199999999992
 20
6.9959999999998379
 30
0.0
 11
-10.24719564658599
 21
9.9650076826539475
 31
0.0
  0
LINE
  5
1604
  8
242
 10
-9.4967182463843756
 20
10.407073765858909
 30
0.0
 11
-1.734445318241284
 21
9.0171572483833682
 31
0.0
  0
LINE
  5
1605
  8
242
 10
-0.9184052034659089
 20
7.9089336604598079
 30
0.0
 11
-1.341088918963578
 21
4.5231585938147134
 31
0.0
  0
LINE
  5
1606
  8
242
 10
-1.9253661384847189
 20
4.0929262341408332
 30
0.0
 11
-5.8623883059432274
 21
4.7978914151998699
 31
0.0
  0
LINE
  5
1607
  8
242
 10
-10.5559901977665
 20
6.1720453826873722
 30
0.0
 11
-10.080995465905399
 21
9.9768414061850166
 31
0.0
  0
LINE
  5
1608
  8
241
 10
-3.137086233207242
 20
3.9999999999998721
 30
0.0
 11
-1.4064005873042329
 21
3.9999999999998721
 31
0.0
  0
LINE
  5
1609
  8
240
 10
-10.24719564658599
 20
9.9650076826539618
 30
0.0
 11
-10.01568379756492
 21
10.49999999999987
 31
0.0
  0
CIRCLE
  5
160A
  8
241
 10
-5.765999999999905
 20
7.1229999999998483
 30
0.0
 40
1.8999999999999999
  0
ARC
  5
160B
  8
242
 10
-1.9107024803745949
 20
8.0328130947477092
 30
0.0
 40
1.0
 50
352.88395086182601
 51
79.848174525525835
1001
GENIUS_GENOBJ-N-FIL_13
1002
{
1000
OWNER
1000
GEN
1002
}
1001
GENIUS_GENODEF_13
1002
{
1000
HIER
1070
     0
1002
}
1002
{
1000
MANEDIT
1070
     0
1002
}
1002
{
1000
NOSEL
1070
     0
1002
}
1002
{
1000
BEHIND
1070
     0
1002
}
1002
{
1000
OTHER
1070
     0
1002
}
1002
{
1000
REACTOR
1002
}
  0
ARC
  5
160C
  8
242
 10
-9.5848468274509742
 20
9.9149016890410735
 30
0.0
 40
0.5
 50
79.848174525525835
 51
172.88395086182521
1001
GENIUS_GENOBJ-N-FIL_13
1002
{
1000
OWNER
1000
GEN
1002
}
1001
GENIUS_GENODEF_13
1002
{
1000
HIER
1070
     0
1002
}
1002
{
1000
MANEDIT
1070
     0
1002
}
1002
{
1000
NOSEL
1070
     0
1002
}
1002
{
1000
BEHIND
1070
     0
1002
}
1002
{
1000
OTHER
1070
     0
1002
}
1002
{
1000
REACTOR
1002
}
  0
ARC
  5
160D
  8
242
 10
-1.837237557418006
 20
4.5850983109586556
 30
0.0
 40
0.5
 50
259.84817452552579
 51
352.88395086182601
1001
GENIUS_GENOBJ-N-FIL_13
1002
{
1000
OWNER
1000
GEN
1002
}
1001
GENIUS_GENODEF_13
1002
{
1000
HIER
1070
     0
1002
}
1002
{
1000
MANEDIT
1070
     0
1002
}
1002
{
1000
NOSEL
1070
     0
1002
}
1002
{
1000
BEHIND
1070
     0
1002
}
1002
{
1000
OTHER
1070
     0
1002
}
1002
{
1000
REACTOR
1002
}
  0
LINE
  5
1616
  8
241
 10
-0.7500000000001137
 20
5.5168522595877931
 30
0.0
 11
-1.4064005873042329
 21
3.9999999999998721
 31
0.0
  0
LINE
  5
1618
  8
240
 10
-10.01568379755895
 20
-10.500000000006221
 30
0.0
 11
0.0000000000060822
 21
-10.50000000000014
 31
0.0
1001
GRPNAME
1000
PASTMD03
  0
LINE
  5
1619
  8
240
 10
0.0000000000040927
 20
-7.2500000000001421
 30
0.0
 11
0.0000000000060822
 21
-10.500000000000149
 31
0.0
1001
GRPNAME
1000
PASTMD03
  0
LINE
  5
161A
  8
240
 10
0.0000000000040927
 20
-7.2500000000001421
 30
0.0
 11
-0.7500000000003128
 21
-5.5168522595810572
 31
0.0
  0
LINE
  5
161B
  8
240
 10
-10.247195646583521
 20
-9.9650076826530096
 30
0.0
 11
-10.01568379755895
 21
-10.500000000006221
 31
0.0
  0
LINE
  5
1624
  8
241
 10
-9.9299999999980741
 20
-10.04999999999951
 30
0.0
 11
-10.247195646583521
 21
-9.9650076826530096
 31
0.0
  0
LINE
  5
1625
  8
241
 10
-0.7500000000003979
 20
-7.0500000000001961
 30
0.0
 11
-0.7500000000003128
 21
-5.5168522595810572
 31
0.0
  0
LINE
  5
176F
  8
250
 10
0.0
 20
10.99999999999986
 30
0.0
 11
0.0
 21
21.99416382314817
 31
0.0
  0
LINE
  5
1770
  8
250
 10
-7.9999999999998863
 20
10.99999999999987
 30
0.0
 11
-7.9999999999998863
 21
21.99416382314817
 31
0.0
  0
LINE
  5
1771
  8
250
 10
-2.2299999999999889
 20
20.99416382314817
 30
0.0
 11
-5.7699999999998957
 21
20.99416382314817
 31
0.0
  0
LINE
  5
1775
  8
250
 10
-29.999999999999488
 20
10.48171652200265
 30
0.0
 11
-29.999999999999488
 21
28.99416382314817
 31
0.0
  0
LINE
  5
1776
  8
250
 10
0.0000000000001137
 20
10.99999999999986
 30
0.0
 11
0.0000000000001137
 21
28.99416382314817
 31
0.0
  0
LINE
  5
1777
  8
250
 10
-27.769999999999499
 20
27.99416382314817
 30
0.0
 11
-2.2299999999998761
 21
27.99416382314817
 31
0.0
  0
LINE
  5
177B
  8
250
 10
-164.99999999999949
 20
9.0566243270340863
 30
0.0
 11
-164.99999999999949
 21
28.99416382314817
 31
0.0
  0
LINE
  5
177C
  8
250
 10
-29.999999999999488
 20
10.48171652200265
 30
0.0
 11
-29.999999999999488
 21
28.99416382314817
 31
0.0
  0
LINE
  5
177D
  8
250
 10
-162.76999999999961
 20
27.99416382314817
 30
0.0
 11
-32.229999999999478
 21
27.99416382314817
 31
0.0
  0
LINE
  5
1781
  8
250
 10
-164.99999999999949
 20
9.0566243270340863
 30
0.0
 11
-164.99999999999949
 21
35.99416382314817
 31
0.0
  0
LINE
  5
1782
  8
250
 10
0.0000000000001137
 20
10.99999999999986
 30
0.0
 11
0.0000000000001137
 21
35.99416382314817
 31
0.0
  0
LINE
  5
1783
  8
250
 10
-162.76999999999961
 20
34.99416382314817
 30
0.0
 11
-2.2299999999998761
 21
34.99416382314817
 31
0.0
  0
LINE
  5
1787
  8
250
 10
0.5000000000001137
 20
10.49999999999986
 30
0.0
 11
11.69131946956284
 21
10.49999999999986
 31
0.0
  0
LINE
  5
1788
  8
250
 10
0.5000000000060823
 20
-10.500000000000149
 30
0.0
 11
11.69131946956284
 21
-10.500000000000149
 31
0.0
  0
LINE
  5
1789
  8
250
 10
10.69131946956284
 20
8.2699999999998521
 30
0.0
 11
10.69131946956284
 21
-8.2700000000001523
 31
0.0
  0
LINE
  5
178D
  8
250
 10
-163.23205080756841
 20
10.000000000008059
 30
0.0
 11
-179.3086805304381
 21
10.000000000008059
 31
0.0
  0
LINE
  5
178E
  8
250
 10
-163.23205080756929
 20
-9.9999999999919282
 30
0.0
 11
-179.3086805304381
 21
-9.9999999999919282
 31
0.0
  0
LINE
  5
178F
  8
250
 10
-178.3086805304381
 20
7.7700000000080527
 30
0.0
 11
-178.3086805304381
 21
-7.7699999999919243
 31
0.0
  0
TEXT
  5
1793
  8
250
 10
-5.3333333333332851
 20
21.99416382314817
 30
0.0
 40
2.7999999999999989
  1
8
  0
LINE
  5
1794
  8
250
 10
-5.7699999999998957
 20
20.622497156481501
 30
0.0
 11
-7.9999999999998863
 21
20.99416382314817
 31
0.0
  0
LINE
  5
1795
  8
250
 10
-5.7699999999998957
 20
21.36583048981484
 30
0.0
 11
-7.9999999999998863
 21
20.99416382314817
 31
0.0
  0
LINE
  5
1796
  8
250
 10
-7.9999999999998863
 20
20.99416382314817
 30
0.0
 11
-5.7699999999998957
 21
20.99416382314817
 31
0.0
  0
LINE
  5
1797
  8
250
 10
-2.2299999999999889
 20
21.36583048981484
 30
0.0
 11
0.0
 21
20.99416382314817
 31
0.0
  0
LINE
  5
1798
  8
250
 10
-2.2299999999999889
 20
20.622497156481501
 30
0.0
 11
0.0
 21
20.99416382314817
 31
0.0
  0
LINE
  5
1799
  8
250
 10
0.0
 20
20.99416382314817
 30
0.0
 11
-2.2299999999999889
 21
20.99416382314817
 31
0.0
  0
TEXT
  5
179A
  8
250
 10
-17.666666666666369
 20
28.99416382314817
 30
0.0
 40
2.7999999999999989
  1
30
  0
LINE
  5
179B
  8
250
 10
-2.2299999999998761
 20
28.36583048981484
 30
0.0
 11
0.0000000000001137
 21
27.99416382314817
 31
0.0
  0
LINE
  5
179C
  8
250
 10
-2.2299999999998761
 20
27.622497156481501
 30
0.0
 11
0.0000000000001137
 21
27.99416382314817
 31
0.0
  0
LINE
  5
179D
  8
250
 10
0.0000000000001137
 20
27.99416382314817
 30
0.0
 11
-2.2299999999998761
 21
27.99416382314817
 31
0.0
  0
LINE
  5
179E
  8
250
 10
-27.769999999999499
 20
27.622497156481501
 30
0.0
 11
-29.999999999999488
 21
27.99416382314817
 31
0.0
  0
LINE
  5
179F
  8
250
 10
-27.769999999999499
 20
28.36583048981484
 30
0.0
 11
-29.999999999999488
 21
27.99416382314817
 31
0.0
  0
LINE
  5
17A0
  8
250
 10
-29.999999999999488
 20
27.99416382314817
 30
0.0
 11
-27.769999999999499
 21
27.99416382314817
 31
0.0
  0
TEXT
  5
17A1
  8
250
 10
-101.69999999999951
 20
28.99416382314817
 30
0.0
 40
2.7999999999999989
  1
135
  0
LINE
  5
17A2
  8
250
 10
-32.229999999999478
 20
28.36583048981484
 30
0.0
 11
-29.999999999999488
 21
27.99416382314817
 31
0.0
  0
LINE
  5
17A3
  8
250
 10
-32.229999999999478
 20
27.622497156481501
 30
0.0
 11
-29.999999999999488
 21
27.99416382314817
 31
0.0
  0
LINE
  5
17A4
  8
250
 10
-29.999999999999488
 20
27.99416382314817
 30
0.0
 11
-32.229999999999478
 21
27.99416382314817
 31
0.0
  0
LINE
  5
17A5
  8
250
 10
-162.76999999999961
 20
27.622497156481501
 30
0.0
 11
-164.99999999999949
 21
27.99416382314817
 31
0.0
  0
LINE
  5
17A6
  8
250
 10
-162.76999999999961
 20
28.36583048981484
 30
0.0
 11
-164.99999999999949
 21
27.99416382314817
 31
0.0
  0
LINE
  5
17A7
  8
250
 10
-164.99999999999949
 20
27.99416382314817
 30
0.0
 11
-162.76999999999961
 21
27.99416382314817
 31
0.0
  0
TEXT
  5
17A8
  8
250
 10
-86.699999999999733
 20
35.99416382314817
 30
0.0
 40
2.7999999999999989
  1
165
  0
LINE
  5
17A9
  8
250
 10
-2.2299999999998761
 20
35.36583048981484
 30
0.0
 11
0.0000000000001137
 21
34.99416382314817
 31
0.0
  0
LINE
  5
17AA
  8
250
 10
-2.2299999999998761
 20
34.622497156481501
 30
0.0
 11
0.0000000000001137
 21
34.99416382314817
 31
0.0
  0
LINE
  5
17AB
  8
250
 10
0.0000000000001137
 20
34.99416382314817
 30
0.0
 11
-2.2299999999998761
 21
34.99416382314817
 31
0.0
  0
LINE
  5
17AC
  8
250
 10
-162.76999999999961
 20
34.622497156481501
 30
0.0
 11
-164.99999999999949
 21
34.99416382314817
 31
0.0
  0
LINE
  5
17AD
  8
250
 10
-162.76999999999961
 20
35.36583048981484
 30
0.0
 11
-164.99999999999949
 21
34.99416382314817
 31
0.0
  0
LINE
  5
17AE
  8
250
 10
-164.99999999999949
 20
34.99416382314817
 30
0.0
 11
-162.76999999999961
 21
34.99416382314817
 31
0.0
  0
TEXT
  5
17AF
  8
250
 10
9.6913194695628135
 20
-3.4000000000000901
 30
0.0
 40
2.7999999999999989
  1
\U+220521
 50
90.0
  0
LINE
  5
17B0
  8
250
 10
11.06298613622951
 20
-8.2700000000001523
 30
0.0
 11
10.69131946956284
 21
-10.500000000000149
 31
0.0
  0
LINE
  5
17B1
  8
250
 10
10.31965280289617
 20
-8.2700000000001523
 30
0.0
 11
10.69131946956284
 21
-10.500000000000149
 31
0.0
  0
LINE
  5
17B2
  8
250
 10
10.69131946956284
 20
-10.500000000000149
 30
0.0
 11
10.69131946956284
 21
-8.2700000000001523
 31
0.0
  0
LINE
  5
17B3
  8
250
 10
10.31965280289617
 20
8.2699999999998521
 30
0.0
 11
10.69131946956284
 21
10.49999999999986
 31
0.0
  0
LINE
  5
17B4
  8
250
 10
11.06298613622951
 20
8.2699999999998521
 30
0.0
 11
10.69131946956284
 21
10.49999999999986
 31
0.0
  0
LINE
  5
17B5
  8
250
 10
10.69131946956284
 20
10.49999999999986
 30
0.0
 11
10.69131946956284
 21
8.2699999999998521
 31
0.0
  0
TEXT
  5
17B6
  8
250
 10
-179.3086805304381
 20
-3.7999999999919249
 30
0.0
 40
2.7999999999999989
  1
\U+220520
 50
90.0
  0
LINE
  5
17B7
  8
250
 10
-177.9370138637714
 20
-7.7699999999919243
 30
0.0
 11
-178.3086805304381
 21
-9.9999999999919282
 31
0.0
  0
LINE
  5
17B8
  8
250
 10
-178.68034719710479
 20
-7.7699999999919243
 30
0.0
 11
-178.3086805304381
 21
-9.9999999999919282
 31
0.0
  0
LINE
  5
17B9
  8
250
 10
-178.3086805304381
 20
-9.9999999999919282
 30
0.0
 11
-178.3086805304381
 21
-7.7699999999919243
 31
0.0
  0
LINE
  5
17BA
  8
250
 10
-178.68034719710479
 20
7.7700000000080527
 30
0.0
 11
-178.3086805304381
 21
10.000000000008059
 31
0.0
  0
LINE
  5
17BB
  8
250
 10
-177.9370138637714
 20
7.7700000000080527
 30
0.0
 11
-178.3086805304381
 21
10.000000000008059
 31
0.0
  0
LINE
  5
17BC
  8
250
 10
-178.3086805304381
 20
10.000000000008059
 30
0.0
 11
-178.3086805304381
 21
7.7700000000080527
 31
0.0
  0
VIEWPORT
  5
22
 67
     1
  8
0
 10
261.51769911504419
 20
148.5
 30
0.0
 40
523.0353982300885
 41
297.0
 68
     1
 69
     1
1001
ACAD
1000
MVIEW
1002
{
1070
    16
1010
0.0
1020
0.0
1030
0.0
1010
0.0
1020
0.0
1030
1.0
1040
0.0
1040
297.0
1040
261.51769911504419
1040
148.5
1040
50.0
1040
0.0
1040
0.0
1070
     0
1070
   100
1070
     1
1070
     1
1070
     0
1070
     0
1070
     0
1070
     0
1040
0.0
1040
0.0
1040
0.0
1040
1.0
1040
1.0
1040
10.0
1040
10.0
1070
     0
1002
{
1002
}
1002
}
1001
GENIUS_GENODEF_13
1002
{
1000
HIER
1070
     0
1002
}
1002
{
1000
MANEDIT
1070
     0
1002
}
1002
{
1000
NOSEL
1070
     0
1002
}
1002
{
1000
BEHIND
1070
     0
1002
}
1002
{
1000
OTHER
1070
     0
1002
}
1002
{
1000
REACTOR
1002
}
1001
GENIUS_GENOBJ-N-SDF_13
1002
{
1000
OWNER
1000
GEN
1002
}
1001
GENIUS_GENSCREG_15
1000
PF
1040
1.0
1000
DF
1040
1.0
1000
MIN
1011
0.0
1021
0.0
1031
0.0
1021
0.0
1031
0.0
1000
MAX
1011
523.0353982300885
1021
0.0
1031
0.0
1021
297.0
1031
0.0
1000
FLAGS
1070
     2
  0
ENDSEC
  0
EOF
