  0
SECTION
  2
HEADER
  9
$ACADVER
  1
AC1009
  9
$INSBASE
 10
0.0
 20
0.0
 30
0.0
  9
$EXTMIN
 10
-177.10597349343601
 20
-32.794273485439653
 30
-0.0000000349181948
  9
$EXTMAX
 10
17.852004993838818
 20
24.275606242072971
 30
0.0000000814935747
  9
$LIMMIN
 10
0.0
 20
0.0
  9
$LIMMAX
 10
297.0
 20
210.0
  9
$ORTHOMODE
 70
     0
  9
$REGENMODE
 70
     1
  9
$FILLMODE
 70
     1
  9
$QTEXTMODE
 70
     0
  9
$MIRRTEXT
 70
     1
  9
$DRAGMODE
 70
     2
  9
$LTSCALE
 40
10.0
  9
$OSMODE
 70
  2597
  9
$ATTMODE
 70
     1
  9
$TEXTSIZE
 40
3.0
  9
$TRACEWID
 40
1.0
  9
$TEXTSTYLE
  7
YOKO
  9
$CLAYER
  8
240
  9
$CELTYPE
  6
BYLAYER
  9
$CECOLOR
 62
   256
  9
$DIMSCALE
 40
1.0
  9
$DIMASZ
 40
2.2299999999999991
  9
$DIMEXO
 40
0.5
  9
$DIMDLI
 40
7.0
  9
$DIMRND
 40
0.0
  9
$DIMDLE
 40
0.0
  9
$DIMEXE
 40
1.0
  9
$DIMTP
 40
0.0
  9
$DIMTM
 40
0.01
  9
$DIMTXT
 40
2.799999999999998
  9
$DIMCEN
 40
0.0
  9
$DIMTSZ
 40
0.0
  9
$DIMTOL
 70
     0
  9
$DIMLIM
 70
     0
  9
$DIMTIH
 70
     0
  9
$DIMTOH
 70
     0
  9
$DIMSE1
 70
     0
  9
$DIMSE2
 70
     0
  9
$DIMTAD
 70
     3
  9
$DIMZIN
 70
     9
  9
$DIMBLK
  1
OPEN
  9
$DIMASO
 70
     1
  9
$DIMSHO
 70
     1
  9
$DIMPOST
  1

  9
$DIMAPOST
  1

  9
$DIMALT
 70
     0
  9
$DIMALTD
 70
     2
  9
$DIMALTF
 40
25.399999999999999
  9
$DIMLFAC
 40
1.0
  9
$DIMTOFL
 70
     1
  9
$DIMTVP
 40
0.0
  9
$DIMTIX
 70
     1
  9
$DIMSOXD
 70
     0
  9
$DIMSAH
 70
     0
  9
$DIMBLK1
  1

  9
$DIMBLK2
  1

  9
$DIMSTYLE
  2
BIGT
  9
$DIMCLRD
 70
   256
  9
$DIMCLRE
 70
   256
  9
$DIMCLRT
 70
    40
  9
$DIMTFAC
 40
1.0
  9
$DIMGAP
 40
1.0
  9
$LUNITS
 70
     2
  9
$LUPREC
 70
     3
  9
$SKETCHINC
 40
1.0
  9
$FILLETRAD
 40
0.2
  9
$AUNITS
 70
     0
  9
$AUPREC
 70
     3
  9
$MENU
  1
.
  9
$ELEVATION
 40
0.0
  9
$PELEVATION
 40
0.0
  9
$THICKNESS
 40
0.0
  9
$LIMCHECK
 70
     0
  9
$BLIPMODE
 70
     0
  9
$CHAMFERA
 40
0.25
  9
$CHAMFERB
 40
0.25
  9
$SKPOLY
 70
     0
  9
$TDCREATE
 40
2454678.7525103129
  9
$TDUPDATE
 40
2454679.386985139
  9
$TDINDWG
 40
0.0077787616
  9
$TDUSRTIMER
 40
0.0077787616
  9
$USRTIMER
 70
     1
  9
$ANGBASE
 50
0.0
  9
$ANGDIR
 70
     0
  9
$PDMODE
 70
     1
  9
$PDSIZE
 40
0.0
  9
$PLINEWID
 40
0.0
  9
$COORDS
 70
     2
  9
$SPLFRAME
 70
     0
  9
$SPLINETYPE
 70
     6
  9
$SPLINESEGS
 70
     4
  9
$ATTDIA
 70
     1
  9
$ATTREQ
 70
     1
  9
$HANDLING
 70
     1
  9
$HANDSEED
  5
19C6
  9
$SURFTAB1
 70
     6
  9
$SURFTAB2
 70
     6
  9
$SURFTYPE
 70
     6
  9
$SURFU
 70
     6
  9
$SURFV
 70
     6
  9
$UCSNAME
  2

  9
$UCSORG
 10
0.0
 20
0.0
 30
0.0
  9
$UCSXDIR
 10
1.0
 20
0.0
 30
0.0
  9
$UCSYDIR
 10
0.0
 20
1.0
 30
0.0
  9
$PUCSNAME
  2

  9
$PUCSORG
 10
0.0
 20
0.0
 30
0.0
  9
$PUCSXDIR
 10
1.0
 20
0.0
 30
0.0
  9
$PUCSYDIR
 10
0.0
 20
1.0
 30
0.0
  9
$USERI1
 70
     1
  9
$USERI2
 70
     0
  9
$USERI3
 70
     0
  9
$USERI4
 70
     0
  9
$USERI5
 70
     0
  9
$USERR1
 40
0.0
  9
$USERR2
 40
0.0
  9
$USERR3
 40
0.0
  9
$USERR4
 40
0.0
  9
$USERR5
 40
0.0
  9
$WORLDVIEW
 70
     1
  9
$SHADEDGE
 70
     3
  9
$SHADEDIF
 70
    70
  9
$TILEMODE
 70
     1
  9
$MAXACTVP
 70
    16
  9
$PLIMCHECK
 70
     0
  9
$PEXTMIN
 10
1.0000000000000000E+020
 20
1.0000000000000000E+020
 30
1.0000000000000000E+020
  9
$PEXTMAX
 10
-1.0000000000000000E+020
 20
-1.0000000000000000E+020
 30
-1.0000000000000000E+020
  9
$PLIMMIN
 10
0.0
 20
0.0
  9
$PLIMMAX
 10
420.0
 20
297.0
  9
$UNITMODE
 70
     0
  9
$VISRETAIN
 70
     1
  9
$PLINEGEN
 70
     0
  9
$PSLTSCALE
 70
     1
  0
ENDSEC
  0
SECTION
  2
TABLES
  0
TABLE
  2
VPORT
 70
    11
  0
VPORT
  2
*ACTIVE
 70
     0
 10
0.0
 20
0.0
 11
1.0
 21
1.0
 12
-79.62698424979861
 22
-4.2593336216833393
 13
0.0
 23
0.0
 14
7.0
 24
7.0
 15
7.0
 25
7.0
 16
0.0
 26
0.0
 36
1.0
 17
0.0
 27
0.0
 37
0.0
 40
131.8076632168781
 41
1.4864532019704431
 42
50.0
 43
0.0
 44
0.0
 50
0.0
 51
0.0
 71
     0
 72
  2000
 73
     1
 74
     0
 75
     0
 76
     0
 77
     0
 78
     0
  0
ENDTAB
  0
TABLE
  2
LTYPE
 70
    21
  0
LTYPE
  2
CONTINUOUS
 70
     0
  3
Solid line
 72
    65
 73
     0
 40
0.0
  0
LTYPE
  2
CENTER2
 70
     0
  3
___ _ ___ _ ___ _ ___ _ ___ _ ___ _ ___ _ ___ _
 72
    65
 73
     4
 40
1.125
 49
0.75
 49
-0.125
 49
0.125
 49
-0.125
  0
LTYPE
  2
HIDDEN2
 70
     0
  3
_ _ _ _ _ _ _ _ _ _ _ _ _ _ _ _ _ _ _ _ _ _ _ _
 72
    65
 73
     2
 40
0.1875
 49
0.125
 49
-0.0625
  0
LTYPE
  2
PHANTOM2
 70
     0
  3
___ _ _ ___ _ _ ___ _ _ ___ _ _ ___ _ _ ___ _ _
 72
    65
 73
     6
 40
1.25
 49
0.625
 49
-0.125
 49
0.125
 49
-0.125
 49
0.125
 49
-0.125
  0
LTYPE
  2
CENTER
 70
     0
  3
____ _ ____ _ ____ _ ____ _ ____ _ ____ _ ____ 
 72
    65
 73
     4
 40
2.0
 49
1.25
 49
-0.25
 49
0.25
 49
-0.25
  0
LTYPE
  2
AMCONSTR
 70
     0
  3
_______________________
 72
    65
 73
     2
 40
9999.0
 49
9999.0
 49
0.0
  0
LTYPE
  2
HIDDEN
 70
     0
  3
Hidden __ __ __ __ __ __ __ __ __ __ __ __ __ _
 72
    65
 73
     2
 40
9.5249999999999986
 49
6.3499999999999979
 49
-3.174999999999998
  0
LTYPE
  2
AMZIGZAG2
 70
     0
  3
/\/-/\/-/\/-/\/-/\/-/\/
 72
    65
 73
     2
 40
0.4401
 49
0.0001
 49
-0.4400000000000001
  0
LTYPE
  2
ACANSTGB
 70
     0
  3
__ . . __ . .
 72
    65
 73
     6
 40
0.35433070866
 49
0.15748031496
 49
-0.03937007874
 49
0.03937007874
 49
-0.03937007874
 49
0.03937007874
 49
-0.03937007874
  0
LTYPE
  2
ACANSTGL
 70
     0
  3
_ _ _ _ _
 72
    65
 73
     2
 40
0.11811023622
 49
0.07874015748
 49
-0.03937007874
  0
ENDTAB
  0
TABLE
  2
LAYER
 70
     9
  0
LAYER
  2
0
 70
     0
 62
     7
  6
CONTINUOUS
  0
LAYER
  2
240
 70
     0
 62
     4
  6
CONTINUOUS
  0
LAYER
  2
DEFPOINTS
 70
     0
 62
     7
  6
CONTINUOUS
  0
LAYER
  2
245
 70
     0
 62
     2
  6
CENTER2
  0
LAYER
  2
241
 70
     0
 62
   211
  6
CONTINUOUS
  0
LAYER
  2
246
 70
     0
 62
     3
  6
PHANTOM2
  0
LAYER
  2
247
 70
     0
 62
    60
  6
CONTINUOUS
  0
LAYER
  2
250
 70
     0
 62
     3
  6
CONTINUOUS
  0
ENDTAB
  0
TABLE
  2
STYLE
 70
     9
  0
STYLE
  2
STANDARD
 70
     0
 40
0.0
 41
1.0
 50
0.0
 71
     0
 42
3.0
  3
romans.shx
  4
extfont.shx
  0
STYLE
  2
YOKO
 70
     0
 40
0.0
 41
1.0
 50
0.0
 71
     0
 42
3.0
  3
romans.shx
  4
extfont.shx
  0
STYLE
  2

 70
     1
 40
0.0
 41
1.0
 50
0.0
 71
     0
 42
3.0
  3
ltypeshp.shx
  4

  0
STYLE
  2
ACANSTS
 70
     0
 40
1.0
 41
1.0
 50
0.0
 71
     0
 42
3.0
  3
romans.shx
  4
extfont.shx
  0
STYLE
  2
ACANSGDT
 70
     0
 40
0.0
 41
1.0
 50
0.0
 71
     0
 42
3.0
  3
amgdtans.shx
  4

  0
ENDTAB
  0
TABLE
  2
VIEW
 70
     0
  0
ENDTAB
  0
TABLE
  2
UCS
 70
     0
  0
ENDTAB
  0
TABLE
  2
APPID
 70
    31
  0
APPID
  2
ACAD
 70
     0
  0
APPID
  2
GLOBAL
 70
     0
  0
APPID
  2
DETAIL
 70
     0
  0
APPID
  2
GRPNAME
 70
     0
  0
APPID
  2
GPARA
 70
     0
  0
APPID
  2
MCAD_NO_VIS
 70
     0
  0
APPID
  2
ACAD_TEMP_GRAPHIC
 70
     0
  0
APPID
  2
ACATTRIBSERVICES
 70
     0
  0
APPID
  2
GENIUS_GENSCREG_15
 70
     0
  0
APPID
  2
GENIUS_GENODEF_13
 70
     0
  0
APPID
  2
GENIUS_GENOBJ-N-SDF_13
 70
     0
  0
APPID
  2
GENIUS_GENREC_14
 70
     0
  0
APPID
  2
GENIUS_GENOBJ-N-REC_13
 70
     0
  0
APPID
  2
GENIUS_GENDIMSH_14
 70
     0
  0
APPID
  2
GENIUS_GENOBJ-N-DIM_13
 70
     0
  0
APPID
  2
GENIUS_GENDIM_13
 70
     0
  0
APPID
  2
GENIUS_GENDTOL_13
 70
     0
  0
APPID
  2
GENIUS_GENOLIS_13
 70
     0
  0
APPID
  2
GENIUS_GENOENT_13
 70
     0
  0
APPID
  2
GENIUS_GENOBJ-F-FEM_13
 70
     0
  0
APPID
  2
GENIUS_GENOREF_13
 70
     0
  0
APPID
  2
GENIUS_GEFFEM_13
 70
     0
  0
APPID
  2
GENIUS_GEFFEMP_13
 70
     0
  0
APPID
  2
AD_DRAW
 70
     0
  0
APPID
  2
DESIGNERASSEMBLIES
 70
     0
  0
APPID
  2
ACADM_DIM_EDIT
 70
     0
  0
APPID
  2
AMDT_DM_ADJ
 70
     0
  0
APPID
  2
GENIUS_GENOBJ-N-FIL_13
 70
     0
  0
APPID
  2
HATCH_TYPE
 70
     0
  0
APPID
  2
HATCH_DISPLAY
 70
     0
  0
APPID
  2
HATCH_DISTANCE
 70
     0
  0
ENDTAB
  0
TABLE
  2
DIMSTYLE
 70
    29
  0
DIMSTYLE
  2
BIGT
 70
     0
  3

  4

  5

  6

  7

 40
1.0
 41
2.2299999999999991
 42
0.5
 43
7.0
 44
1.0
 45
0.0
 46
0.0
 47
0.0
 48
0.01
140
2.799999999999998
141
0.0
142
0.0
143
25.399999999999999
144
1.0
145
0.0
146
1.0
147
1.0
 71
     0
 72
     0
 73
     0
 74
     0
 75
     0
 76
     0
 77
     3
 78
     9
170
     0
171
     2
172
     1
173
     0
174
     1
175
     0
176
   256
177
   256
178
    40
  0
DIMSTYLE
  2
AM_ANSI
 70
     0
  3

  4
mm
  5

  6

  7

 40
1.0
 41
0.1
 42
0.05
 43
0.5
 44
0.1
 45
0.0
 46
0.0
 47
0.1
 48
0.1
140
0.12
141
0.0
142
0.0
143
25.399999999999999
144
1.0
145
0.0
146
0.71
147
0.06
 71
     0
 72
     0
 73
     1
 74
     1
 75
     0
 76
     0
 77
     0
 78
     7
170
     0
171
     2
172
     0
173
     0
174
     0
175
     0
176
   256
177
   256
178
     2
  0
DIMSTYLE
  2
AM_ANSI$3
 70
     0
  3

  4
mm
  5

  6

  7

 40
1.0
 41
0.1
 42
0.05
 43
0.5
 44
0.1
 45
0.0
 46
0.0
 47
0.1
 48
0.1
140
0.12
141
0.0
142
0.0
143
25.399999999999999
144
1.0
145
0.0
146
0.71
147
0.06
 71
     0
 72
     0
 73
     1
 74
     1
 75
     0
 76
     0
 77
     0
 78
     7
170
     0
171
     2
172
     0
173
     0
174
     0
175
     0
176
   256
177
   256
178
     2
  0
DIMSTYLE
  2
AM_ANSI$4
 70
     0
  3

  4
mm
  5

  6

  7

 40
1.0
 41
0.1
 42
0.05
 43
0.5
 44
0.1
 45
0.0
 46
0.0
 47
0.1
 48
0.1
140
0.12
141
0.0
142
0.0
143
25.399999999999999
144
1.0
145
0.0
146
0.71
147
0.06
 71
     0
 72
     0
 73
     1
 74
     1
 75
     0
 76
     0
 77
     0
 78
     7
170
     0
171
     2
172
     0
173
     0
174
     0
175
     0
176
   256
177
   256
178
     2
  0
DIMSTYLE
  2
AM_ANSI$7
 70
     0
  3

  4
mm
  5

  6

  7

 40
1.0
 41
0.1
 42
0.05
 43
0.5
 44
0.1
 45
0.0
 46
0.0
 47
0.1
 48
0.1
140
0.24
141
0.0
142
0.0
143
25.399999999999999
144
1.0
145
0.0
146
0.71
147
0.06
 71
     0
 72
     0
 73
     1
 74
     1
 75
     0
 76
     0
 77
     0
 78
     7
170
     0
171
     2
172
     0
173
     0
174
     0
175
     0
176
   256
177
   256
178
     2
  0
DIMSTYLE
  2
AM_ANSI$SF
 70
     0
  3

  4
mm
  5

  6

  7

 40
1.0
 41
0.1
 42
0.05
 43
0.5
 44
0.1
 45
0.0
 46
0.0
 47
0.1
 48
0.1
140
0.12
141
0.0
142
0.0
143
25.399999999999999
144
1.0
145
0.0
146
0.71
147
0.06
 71
     0
 72
     0
 73
     1
 74
     1
 75
     1
 76
     1
 77
     0
 78
     7
170
     0
171
     2
172
     0
173
     0
174
     0
175
     0
176
   256
177
   256
178
     2
  0
DIMSTYLE
  2
AM_ANSI$SH
 70
     0
  3

  4
mm
  5

  6
GENAXEH
  7

 40
1.0
 41
0.1
 42
0.05
 43
0.5
 44
0.1
 45
0.0
 46
0.0
 47
0.1
 48
0.1
140
0.12
141
0.0
142
0.0
143
25.399999999999999
144
1.0
145
0.0
146
0.71
147
0.06
 71
     0
 72
     0
 73
     1
 74
     1
 75
     1
 76
     1
 77
     0
 78
     7
170
     0
171
     2
172
     0
173
     1
174
     0
175
     0
176
   256
177
   256
178
     2
  0
ENDTAB
  0
ENDSEC
  0
SECTION
  2
BLOCKS
  0
BLOCK
  8
0
  2
$MODEL_SPACE
 70
     0
 10
0.0
 20
0.0
 30
0.0
  3
$MODEL_SPACE
  1

  0
ENDBLK
  5
182E
  8
0
  0
BLOCK
 67
     1
  8
0
  2
$PAPER_SPACE
 70
     0
 10
0.0
 20
0.0
 30
0.0
  3
$PAPER_SPACE
  1

  0
ENDBLK
  5
182A
 67
     1
  8
0
  0
BLOCK
  8
0
  2
_OPEN
 70
     0
 10
0.0
 20
0.0
 30
0.0
  3
_OPEN
  1

  0
LINE
  5
595
  8
0
  6
BYBLOCK
 62
     0
 10
-1.0
 20
0.1666666666666666
 30
0.0
 11
0.0
 21
0.0
 31
0.0
  0
LINE
  5
596
  8
0
  6
BYBLOCK
 62
     0
 10
-1.0
 20
-0.1666666666666666
 30
0.0
 11
0.0
 21
0.0
 31
0.0
  0
LINE
  5
597
  8
0
  6
BYBLOCK
 62
     0
 10
0.0
 20
0.0
 30
0.0
 11
-1.0
 21
0.0
 31
0.0
  0
ENDBLK
  5
599
  8
0
  0
BLOCK
  8
0
  2
GENAXEH
 70
     0
 10
0.0
 20
0.0
 30
0.0
  3
GENAXEH
  1

  0
LINE
  5
6E8
  8
0
 10
-1.0
 20
0.0
 30
0.0
 11
1.0
 21
0.0
 31
0.0
  0
ENDBLK
  5
6EA
  8
0
  0
BLOCK
  8
0
  2
*X5
 70
     1
 10
0.0
 20
0.0
 30
0.0
  3
*X5
  1

  0
LINE
  5
16C8
  8
0
 62
     0
 10
4.2731626460786929
 20
-5.8571670211471281
 30
0.0
 11
3.510115154589633
 21
-5.094119529658065
 31
0.0
  0
LINE
  5
16C9
  8
0
 62
     0
 10
3.4940719416106631
 20
-5.3367076929658772
 30
0.0
 11
3.188391765925398
 21
-5.03102751728062
 31
0.0
  0
LINE
  5
16CA
  8
0
 62
     0
 10
4.336254658456145
 20
-6.1788904098113671
 30
0.0
 11
4.030574482770878
 21
-5.8732102341260974
 31
0.0
  0
LINE
  5
16CB
  8
0
 62
     0
 10
3.161466872339401
 20
-5.2627339999814282
 30
0.0
 11
2.940339387738502
 21
-5.0416065153805283
 31
0.0
  0
LINE
  5
16CC
  8
0
 62
     0
 10
4.3383903626899851
 20
-6.4396574903320083
 30
0.0
 11
4.1045481757553324
 21
-6.2058153033973564
 31
0.0
  0
LINE
  5
16CD
  8
0
 62
     0
 10
2.9211994892945912
 20
-5.281097993223403
 30
0.0
 11
2.7312050109658839
 21
-5.091103514894697
 31
0.0
  0
LINE
  5
16CE
  8
0
 62
     0
 10
4.338390362689978
 20
-6.6982888666187872
 30
0.0
 11
4.105585681181485
 21
-6.4654841851102951
 31
0.0
  0
LINE
  5
16CF
  8
0
 62
     0
 10
2.7241461983551192
 20
-5.342676078570725
 30
0.0
 11
2.549611000613679
 21
-5.1681408808292844
 31
0.0
  0
LINE
  5
16D0
  8
0
 62
     0
 10
4.338390362689978
 20
-6.9569202429055821
 30
0.0
 11
4.105585681181485
 21
-6.7241155613970891
 31
0.0
  0
LINE
  5
16D1
  8
0
 62
     0
 10
2.5574155323842751
 20
-5.4345767888866652
 30
0.0
 11
2.3904879894348241
 21
-5.2676492459372142
 31
0.0
  0
LINE
  5
16D2
  8
0
 62
     0
 10
4.3383903626899851
 20
-7.2155516191923716
 30
0.0
 11
4.105585681181485
 21
-6.9827469376838751
 31
0.0
  0
LINE
  5
16D3
  8
0
 62
     0
 10
2.4161255819181502
 20
-5.5519182147073352
 30
0.0
 11
2.251507783582793
 21
-5.3873004163719713
 31
0.0
  0
LINE
  5
16D4
  8
0
 62
     0
 10
4.3383903626899851
 20
-7.4741829954791603
 30
0.0
 11
4.105585681181493
 21
-7.2413783139706691
 31
0.0
  0
LINE
  5
16D5
  8
0
 62
     0
 10
2.2989457159389901
 20
-5.6933697250149731
 30
0.0
 11
2.1319866093836382
 21
-5.526410618459618
 31
0.0
  0
LINE
  5
16D6
  8
0
 62
     0
 10
4.3383903626899851
 20
-7.7328143717659659
 30
0.0
 11
4.105585681181477
 21
-7.5000096902574622
 31
0.0
  0
LINE
  5
16D7
  8
0
 62
     0
 10
2.207225207815394
 20
-5.8602805931781683
 30
0.0
 11
2.03261766024983
 21
-5.6856730456126012
 31
0.0
  0
LINE
  5
16D8
  8
0
 62
     0
 10
4.338390362689978
 20
-7.9914457480527474
 30
0.0
 11
4.105585681181485
 21
-7.758641066544258
 31
0.0
  0
LINE
  5
16D9
  8
0
 62
     0
 10
2.1458777492053511
 20
-6.0575645108549052
 30
0.0
 11
1.955742399326019
 21
-5.8674291609755747
 31
0.0
  0
LINE
  5
16DA
  8
0
 62
     0
 10
4.338390362689978
 20
-8.2500771243395317
 30
0.0
 11
4.105585681181485
 21
-8.0172724428310431
 31
0.0
  0
LINE
  5
16DB
  8
0
 62
     0
 10
2.127884606905837
 20
-6.298202744842186
 30
0.0
 11
1.9064556573934901
 21
-6.0767737953298466
 31
0.0
  0
LINE
  5
16DC
  8
0
 62
     0
 10
4.3383903626899851
 20
-8.5087085006263337
 30
0.0
 11
4.105585681181485
 21
-8.2759038191178362
 31
0.0
  0
LINE
  5
16DD
  8
0
 62
     0
 10
2.0859571237484991
 20
-6.514906637971646
 30
0.0
 11
1.896203437136684
 21
-6.325152951359831
 31
0.0
  0
LINE
  5
16DE
  8
0
 62
     0
 10
4.338390362689978
 20
-8.7673398769131232
 30
0.0
 11
4.105585681181485
 21
-8.5345351954046365
 31
0.0
  0
LINE
  5
16DF
  8
0
 62
     0
 10
4.338390362689978
 20
-9.0259712531999217
 30
0.0
 11
4.105585681181485
 21
-8.7931665716914225
 31
0.0
  0
LINE
  5
16E0
  8
0
 62
     0
 10
4.338390362689978
 20
-9.2846026294867023
 30
0.0
 11
4.105585681181485
 21
-9.0517979479782156
 31
0.0
  0
LINE
  5
16E1
  8
0
 62
     0
 10
4.338390362689978
 20
-9.5432340057735008
 30
0.0
 11
4.105585681181485
 21
-9.3104293242650016
 31
0.0
  0
LINE
  5
16E2
  8
0
 62
     0
 10
4.3383903626899851
 20
-9.8018653820602886
 30
0.0
 11
4.105585681181485
 21
-9.5690607005517911
 31
0.0
  0
LINE
  5
16E3
  8
0
 62
     0
 10
4.3383903626899851
 20
-10.06049675834708
 30
0.0
 11
4.105585681181493
 21
-9.8276920768385896
 31
0.0
  0
LINE
  5
16E4
  8
0
 62
     0
 10
4.338390362689978
 20
-10.31912813463388
 30
0.0
 11
4.105585681181485
 21
-10.086323453125379
 31
0.0
  0
LINE
  5
16E5
  8
0
 62
     0
 10
4.338390362689978
 20
-10.577759510920661
 30
0.0
 11
4.105585681181485
 21
-10.34495482941217
 31
0.0
  0
LINE
  5
16E6
  8
0
 62
     0
 10
4.338390362689978
 20
-10.836390887207459
 30
0.0
 11
4.105585681181485
 21
-10.60358620569896
 31
0.0
  0
LINE
  5
16E7
  8
0
 62
     0
 10
4.3331743680063184
 20
-11.08980626881058
 30
0.0
 11
4.105585681181485
 21
-10.862217581985741
 31
0.0
  0
LINE
  5
16E8
  8
0
 62
     0
 10
4.2927234683474307
 20
-11.30798674543848
 30
0.0
 11
4.0963826280125373
 21
-11.11164590510359
 31
0.0
  0
LINE
  5
16E9
  8
0
 62
     0
 10
4.2225300722551111
 20
-11.496424725632959
 30
0.0
 11
4.0447379717610339
 21
-11.31863262513888
 31
0.0
  0
LINE
  5
16EA
  8
0
 62
     0
 10
4.1288343457024572
 20
-11.661360375367099
 30
0.0
 11
3.960418835935497
 21
-11.492944865600141
 31
0.0
  0
LINE
  5
16EB
  8
0
 62
     0
 10
4.0145495478446014
 20
-11.80570695379603
 30
0.0
 11
3.849766277175481
 21
-11.640923683126911
 31
0.0
  0
LINE
  5
16EC
  8
0
 62
     0
 10
3.880757097170298
 20
-11.93054587940852
 30
0.0
 11
3.7149104705198961
 21
-11.76469925275811
 31
0.0
  0
LINE
  5
16ED
  8
0
 62
     0
 10
3.7271431977453031
 20
-12.03556335627032
 30
0.0
 11
3.555244829520197
 21
-11.86366498804521
 31
0.0
  0
LINE
  5
16EE
  8
0
 62
     0
 10
2.1267631408982761
 20
-10.69381467571009
 30
0.0
 11
1.9433546960822801
 21
-10.51040623089408
 31
0.0
  0
LINE
  5
16EF
  8
0
 62
     0
 10
3.551878254361716
 20
-12.11892978917353
 30
0.0
 11
3.367040741413724
 21
-11.93409227622552
 31
0.0
  0
LINE
  5
16F0
  8
0
 62
     0
 10
2.1267631408982761
 20
-10.95244605199688
 30
0.0
 11
1.8939584533982801
 21
-10.719641364496891
 31
0.0
  0
LINE
  5
16F1
  8
0
 62
     0
 10
3.3508120748548631
 20
-12.17649498595347
 30
0.0
 11
3.140443698089034
 21
-11.96612660918764
 31
0.0
  0
LINE
  5
16F2
  8
0
 62
     0
 10
2.1649602340683489
 20
-11.24927452145374
 30
0.0
 11
1.893959103096269
 21
-10.978273390481659
 31
0.0
  0
LINE
  5
16F3
  8
0
 62
     0
 10
3.1149140586925621
 20
-12.19922834607795
 30
0.0
 11
2.8439129277204782
 21
-11.928227215105871
 31
0.0
  0
LINE
  5
16F4
  8
0
 62
     0
 10
2.8198068968923562
 20
-12.162752560564529
 30
0.0
 11
1.930434888609696
 21
-11.27338055228187
 31
0.0
  0
ENDBLK
  5
16F5
  8
0
  0
BLOCK
  8
0
  2
*X6
 70
     1
 10
0.0
 20
0.0
 30
0.0
  3
*X6
  1

  0
LINE
  5
16F8
  8
0
 62
     0
 10
3.9891833374314549
 20
-8.6767642279413888
 30
0.0
 11
3.9699999022341181
 21
-8.6575807927440565
 31
0.0
  0
LINE
  5
16F9
  8
0
 62
     0
 10
3.9891833374314549
 20
-8.9353956042281784
 30
0.0
 11
3.6073930521298831
 21
-8.5536053189266141
 31
0.0
  0
LINE
  5
16FA
  8
0
 62
     0
 10
3.9748178468112911
 20
-9.179661489894805
 30
0.0
 11
3.2447862020256362
 21
-8.4496298451091505
 31
0.0
  0
LINE
  5
16FB
  8
0
 62
     0
 10
3.6122095777595682
 20
-9.0756845971298823
 30
0.0
 11
2.8821793519213919
 21
-8.3456543712917011
 31
0.0
  0
LINE
  5
16FC
  8
0
 62
     0
 10
3.249601308707851
 20
-8.9717077043649454
 30
0.0
 11
2.5195725018171511
 21
-8.2416788974742428
 31
0.0
  0
LINE
  5
16FD
  8
0
 62
     0
 10
2.8869930396561161
 20
-8.8677308116000084
 30
0.0
 11
2.1569656517128979
 21
-8.1377034236567951
 31
0.0
  0
LINE
  5
16FE
  8
0
 62
     0
 10
2.52438477060439
 20
-8.763753918835075
 30
0.0
 11
1.8939584533982801
 21
-8.1333276016289702
 31
0.0
  0
LINE
  5
16FF
  8
0
 62
     0
 10
2.1617765015526582
 20
-8.659777026070131
 30
0.0
 11
1.8939584533982901
 21
-8.3919589779157633
 31
0.0
  0
LINE
  5
1700
  8
0
 62
     0
 10
1.918015068738405
 20
-8.674646969542664
 30
0.0
 11
1.8939584533982801
 21
-8.6505903542025422
 31
0.0
  0
ENDBLK
  5
1701
  8
0
  0
BLOCK
  8
0
  2
*X7
 70
     1
 10
0.0
 20
0.0
 30
0.0
  3
*X7
  1

  0
LINE
  5
1704
  8
0
 62
     0
 10
3.868211204180473
 20
-7.0040038369696571
 30
0.0
 11
3.649960323505288
 21
-6.7857529562944654
 31
0.0
  0
LINE
  5
1705
  8
0
 62
     0
 10
3.9856529491582982
 20
-7.380076958234282
 30
0.0
 11
3.2873524678243831
 21
-6.6817764769003682
 31
0.0
  0
LINE
  5
1706
  8
0
 62
     0
 10
3.617185728354428
 20
-7.2702411137172014
 30
0.0
 11
2.924744612143483
 21
-6.5777999975062524
 31
0.0
  0
LINE
  5
1707
  8
0
 62
     0
 10
3.9698966386926511
 20
-7.6229520240554223
 30
0.0
 11
3.6965801245195551
 21
-7.3496355098823214
 31
0.0
  0
LINE
  5
1708
  8
0
 62
     0
 10
3.2412377906756031
 20
-7.1529245523251603
 30
0.0
 11
2.8018861877732841
 21
-6.7135729494228391
 31
0.0
  0
LINE
  5
1709
  8
0
 62
     0
 10
3.899258026677503
 20
-7.8109447883270624
 30
0.0
 11
3.6959786603753511
 21
-7.6076654220249154
 31
0.0
  0
LINE
  5
170A
  8
0
 62
     0
 10
3.034690875273276
 20
-7.2050090132096241
 30
0.0
 11
2.8018861877732761
 21
-6.9722043257096251
 31
0.0
  0
LINE
  5
170B
  8
0
 62
     0
 10
3.792131315773708
 20
-7.9624494537100619
 30
0.0
 11
3.5455738235496872
 21
-7.7158919614860322
 31
0.0
  0
LINE
  5
170C
  8
0
 62
     0
 10
2.202988506504409
 20
-6.6319380207275582
 30
0.0
 11
2.1787499076577741
 21
-6.6076994218809206
 31
0.0
  0
LINE
  5
170D
  8
0
 62
     0
 10
3.6531656331833751
 20
-8.082115147406526
 30
0.0
 11
3.2290805876554312
 21
-7.658030101878575
 31
0.0
  0
LINE
  5
170E
  8
0
 62
     0
 10
2.2677871082174681
 20
-6.9553679987274011
 30
0.0
 11
1.982121972154764
 21
-6.669702862664697
 31
0.0
  0
LINE
  5
170F
  8
0
 62
     0
 10
3.4804499382598562
 20
-8.168030828769794
 30
0.0
 11
2.8664723785437469
 21
-7.5540532690536812
 31
0.0
  0
LINE
  5
1710
  8
0
 62
     0
 10
2.1576583608831101
 20
-7.1038706276798393
 30
0.0
 11
1.983335797400418
 21
-6.929548064197145
 31
0.0
  0
LINE
  5
1711
  8
0
 62
     0
 10
3.262962952369413
 20
-8.2091752191661413
 30
0.0
 11
2.503864169432068
 21
-7.4500764362287972
 31
0.0
  0
LINE
  5
1712
  8
0
 62
     0
 10
2.9676848492862362
 20
-8.1725284923697501
 30
0.0
 11
1.9129553288231691
 21
-7.1177989719066872
 31
0.0
  0
LINE
  5
1713
  8
0
 62
     0
 10
2.623189712588176
 20
-8.0866647319584857
 30
0.0
 11
1.8976699797883021
 21
-7.3611449991586113
 31
0.0
  0
ENDBLK
  5
1714
  8
0
  0
BLOCK
  8
0
  2
A$C13E51232
 70
     0
 10
0.0
 20
0.0
 30
0.0
  3
A$C13E51232
  1

  0
TEXT
  5
1716
  8
247
 10
-150.67504422349111
 20
-6.476699063063772
 30
0.0
 40
2.0
  1
ST20-CM18-45B-78
 41
0.7
  7
YOKO
 11
-150.67504422349111
 21
-6.476699063063772
 31
0.0
 73
     1
  0
INSERT
  5
1717
  8
247
  6
CONTINUOUS
  2
*X5
 10
-146.675044223491
 20
-2.435097424298033
 30
0.0
 50
270.0
1001
ACAD
1000
HATCH
1002
{
1070
    19
1000
ANSI31
1040
0.0576
1040
6.2831853071795827
1002
}
  0
INSERT
  5
1718
  8
247
  6
CONTINUOUS
  2
*X6
 10
-146.675044223491
 20
-2.435097424298033
 30
0.0
 50
270.0
1001
ACAD
1000
HATCH
1002
{
1070
    19
1000
ANSI31
1040
0.0576
1040
6.2831853071795827
1002
}
  0
INSERT
  5
1719
  8
247
  6
CONTINUOUS
  2
*X7
 10
-146.675044223491
 20
-2.435097424298033
 30
0.0
 50
270.0
1001
ACAD
1000
HATCH
1002
{
1070
    19
1000
ANSI31
1040
0.0576
1040
6.2831853071795827
1002
}
  0
LINE
  5
171A
  8
247
 10
-155.34279275051691
 20
-4.3290558776963151
 30
0.0
 11
-154.73733181301691
 21
-4.3290558776963151
 31
0.0
  0
POLYLINE
  5
171B
  8
247
 66
     1
 10
0.0
 20
0.0
 30
0.0
 70
     1
1001
HATCH_DISTANCE
1040
1.0
1001
HATCH_DISPLAY
1070
     0
1001
HATCH_TYPE
1070
     7
  0
VERTEX
  5
171C
  8
247
 10
-155.34279275051691
 20
-4.3290558776963151
 30
0.0
  0
VERTEX
  5
171D
  8
247
 10
-155.41622536770441
 20
-4.5851340026963037
 30
0.0
  0
VERTEX
  5
171E
  8
247
 10
-155.33145485989181
 20
-4.5851340026963037
 30
0.0
  0
VERTEX
  5
171F
  8
247
 10
-155.85882497707939
 20
-6.424280761729487
 30
0.0
  0
VERTEX
  5
1720
  8
247
 10
-155.3381257583294
 20
-6.424280761729487
 30
0.0
  0
VERTEX
  5
1721
  8
247
 10
-154.73733181301691
 20
-4.3290558776963151
 30
0.0
  0
SEQEND
  5
1722
  8
247
  0
POLYLINE
  5
1723
  8
247
 66
     1
 10
0.0
 20
0.0
 30
0.0
 70
     1
  0
VERTEX
  5
1724
  8
247
 10
-155.34279275051691
 20
-4.3290558776963151
 30
0.0
  0
VERTEX
  5
1725
  8
247
 10
-155.41622536770441
 20
-4.5851340026963037
 30
0.0
  0
VERTEX
  5
1726
  8
247
 10
-155.33145485989181
 20
-4.5851340026963037
 30
0.0
  0
VERTEX
  5
1727
  8
247
 10
-155.85882497707939
 20
-6.424280761729487
 30
0.0
  0
VERTEX
  5
1728
  8
247
 10
-155.3381257583294
 20
-6.424280761729487
 30
0.0
  0
VERTEX
  5
1729
  8
247
 10
-154.73733181301691
 20
-4.3290558776963151
 30
0.0
  0
SEQEND
  5
172A
  8
247
  0
LINE
  5
172B
  8
247
 10
-155.3381257583294
 20
-6.424280761729487
 30
0.0
 11
-154.73733181301691
 21
-4.3290558776963151
 31
0.0
  0
LINE
  5
172C
  8
247
 10
-157.65205739895441
 20
-6.773487786988011
 30
0.0
 11
-152.92615212551681
 21
-6.773487786988011
 31
0.0
  0
LINE
  5
172D
  8
247
 10
-157.65205739895441
 20
-6.5406831054795118
 30
0.0
 11
-152.92615212551681
 21
-6.5406831054795118
 31
0.0
  0
ARC
  5
172E
  8
247
 10
-154.1282146255169
 20
-5.6676740417588132
 30
0.0
 40
0.756615234375
 50
163.99975070172931
 51
304.96387329163002
  0
ARC
  5
172F
  8
247
 10
-157.65205739895441
 20
-5.551271698008815
 30
0.0
 40
0.9894111328124999
 50
90.0
 51
270.0
  0
ARC
  5
1730
  8
247
 10
-157.65205739895441
 20
-5.551271698008815
 30
0.0
 40
1.2222158203124971
 50
90.0
 51
270.0
  0
LINE
  5
1731
  8
247
 10
-155.85882497707939
 20
-6.424280761729487
 30
0.0
 11
-155.3381257583294
 21
-6.424280761729487
 31
0.0
  0
LINE
  5
1732
  8
247
 10
-156.34269807241009
 20
-6.3806448775601563
 30
0.0
 11
-156.02543714909061
 21
-6.0633839542405887
 31
0.0
  0
LINE
  5
1733
  8
247
 10
-157.42085946172659
 20
-6.424280761729487
 30
0.0
 11
-156.7588185733936
 21
-5.7622398733965214
 31
0.0
  0
LINE
  5
1734
  8
247
 10
-157.16222808543981
 20
-6.424280761729487
 30
0.0
 11
-156.8627893733464
 21
-6.124842049636082
 31
0.0
  0
LINE
  5
1735
  8
247
 10
-156.64496533286629
 20
-6.4242807617295181
 30
0.0
 11
-155.9868056779346
 21
-5.7661211067977929
 31
0.0
  0
LINE
  5
1736
  8
247
 10
-156.6833802362016
 20
-5.4991457618752806
 30
0.0
 11
-156.87416419899071
 21
-6.1645121929344793
 31
0.0
  0
ARC
  5
1737
  8
247
 10
-156.8235300552044
 20
-5.8189953308212941
 30
0.0
 40
0.3492072715759277
 50
261.66285421114719
 51
66.338192159113646
  0
LINE
  5
1738
  8
247
 10
-156.90359670915311
 20
-6.424280761729487
 30
0.0
 11
-156.0493833793424
 21
-5.5700674319188401
 31
0.0
  0
LINE
  5
1739
  8
247
 10
-157.5298982192669
 20
-6.424280761729487
 30
0.0
 11
-156.5638044692669
 21
-6.424280761729487
 31
0.0
  0
LINE
  5
173A
  8
247
 10
-157.469758317051
 20
-6.214548240767054
 30
0.0
 11
-156.48473728299859
 21
-5.229527206714617
 31
0.0
  0
LINE
  5
173B
  8
247
 10
-157.36578215960299
 20
-5.851940707032365
 30
0.0
 11
-156.55086565073151
 21
-5.0370241981607471
 31
0.0
  0
ARC
  5
173C
  8
247
 10
-156.5638044692669
 20
-5.842277557383837
 30
0.0
 40
0.5820029296875
 50
270.0
 51
40.329840654167079
  0
LINE
  5
173D
  8
247
 10
-156.4823766697163
 20
-5.7444293460059281
 30
0.0
 11
-155.7190002786009
 21
-4.9810529548905844
 31
0.0
  0
LINE
  5
173E
  8
247
 10
-155.41622536770441
 20
-4.5851340026963037
 30
0.0
 11
-155.34279275051691
 21
-4.3290558776963151
 31
0.0
  0
LINE
  5
173F
  8
247
 10
-155.41622536770441
 20
-4.5851340026963037
 30
0.0
 11
-155.33145485989181
 21
-4.5851340026963037
 31
0.0
  0
LINE
  5
1740
  8
247
 10
-156.3669746254721
 20
-4.594501796614689
 30
0.0
 11
-156.12687672111301
 21
-4.3544038922555171
 31
0.0
  0
LINE
  5
1741
  8
247
 10
-157.1102275229143
 20
-4.5618605651963673
 30
0.0
 11
-156.87742283541419
 21
-4.3290558776963719
 31
0.0
  0
LINE
  5
1742
  8
247
 10
-157.1712868911419
 20
-4.3290558776963151
 30
0.0
 11
-157.2380398208293
 21
-4.5618605651963087
 31
0.0
  0
LINE
  5
1743
  8
247
 10
-157.05019997707919
 20
-4.3290558776963151
 30
0.0
 11
-157.11695290676721
 21
-4.5618605651963087
 31
0.0
  0
LINE
  5
1744
  8
247
 10
-157.05019997707919
 20
-4.3290558776963151
 30
0.0
 11
-156.29918285540151
 21
-4.3290558776964012
 31
0.0
  0
LINE
  5
1745
  8
247
 10
-157.65205739895441
 20
-4.3290558776963151
 30
0.0
 11
-157.1712868911419
 21
-4.3290558776963151
 31
0.0
  0
LINE
  5
1746
  8
247
 10
-156.24460666171029
 20
-4.7307652091396442
 30
0.0
 11
-155.95431642154909
 21
-4.4404749689785028
 31
0.0
  0
LINE
  5
1747
  8
247
 10
-157.11695290676721
 20
-4.5618605651963087
 30
0.0
 11
-156.99585720364209
 21
-4.5618605651970494
 31
0.0
  0
LINE
  5
1748
  8
247
 10
-157.65205739895441
 20
-4.5618605651963087
 30
0.0
 11
-157.2380398208293
 21
-4.5618605651963087
 31
0.0
  0
LINE
  5
1749
  8
247
 10
-157.05385368725931
 20
-4.7641181058281852
 30
0.0
 11
-156.61879145912741
 21
-4.3290558776963719
 31
0.0
  0
LINE
  5
174A
  8
247
 10
-156.21476771056109
 20
-4.9595576342771999
 30
0.0
 11
-155.82519154091051
 21
-4.569981464626478
 31
0.0
  0
ARC
  5
174B
  8
247
 10
-156.29678396145439
 20
-4.9110588073838084
 30
0.0
 40
0.5820078735351563
 50
287.66957754739968
 51
90.236159842671569
  0
LINE
  5
174C
  8
247
 10
-157.15782984470721
 20
-5.126725639562931
 30
0.0
 11
-156.36016008284071
 21
-4.3290558776964012
 31
0.0
  0
LINE
  5
174D
  8
247
 10
-156.57265725837681
 20
-5.5760785583797601
 30
0.0
 11
-155.73957063494029
 21
-4.7429919349431291
 31
0.0
  0
LINE
  5
174E
  8
247
 10
-155.85882497707939
 20
-6.424280761729487
 30
0.0
 11
-155.33145485989181
 21
-4.5851340026963037
 31
0.0
  0
LINE
  5
174F
  8
247
 10
-156.41636250695569
 20
-4.5679454911420221
 30
0.0
 11
-156.60714333115911
 21
-5.233292187353566
 31
0.0
  0
ARC
  5
1750
  8
247
 10
-156.5565095473919
 20
-4.88778536988384
 30
0.0
 40
0.349197280883789
 50
261.6626016879294
 51
66.338155095189776
  0
LINE
  5
1751
  8
247
 10
-157.2618060021552
 20
-5.48933317329762
 30
0.0
 11
-156.44689292525049
 21
-4.6744200963931473
 31
0.0
  0
LINE
  5
1752
  8
247
 10
-157.5298982192669
 20
-6.424280761729487
 30
0.0
 11
-156.99585720364209
 21
-4.5618605651970494
 31
0.0
  0
ARC
  5
1753
  8
247
 10
-152.92615212551681
 20
-5.551271698008815
 30
0.0
 40
1.2222158203124971
 50
270.0
 51
104.7707939660941
  0
ARC
  5
1754
  8
247
 10
-152.92615212551681
 20
-5.551271698008815
 30
0.0
 40
0.9894111328124999
 50
270.0
 51
104.1274364964102
  0
LINE
  5
1755
  8
247
 10
-153.9182351333294
 20
-5.991129119883805
 30
0.0
 11
-153.7687419692669
 21
-5.4697882995713041
 31
0.0
  0
LINE
  5
1756
  8
247
 10
-153.96248806301691
 20
-5.4697882995713041
 30
0.0
 11
-153.7687419692669
 21
-5.4697882995713041
 31
0.0
  0
LINE
  5
1757
  8
247
 10
-153.69463259426681
 20
-6.2877250976670318
 30
0.0
 11
-153.5580681411418
 21
-6.424280761729487
 31
0.0
  0
LINE
  5
1758
  8
247
 10
-153.96248806301691
 20
-5.4697882995713041
 30
0.0
 11
-153.8957351333294
 21
-5.2369836120713122
 31
0.0
  0
LINE
  5
1759
  8
247
 10
-153.8957351333294
 20
-5.2369836120713122
 30
0.0
 11
-153.21761501614191
 21
-5.2369836120713122
 31
0.0
  0
LINE
  5
175A
  8
247
 10
-153.5580681411418
 20
-6.424280761729487
 30
0.0
 11
-153.21761501614191
 21
-5.2369836120713122
 31
0.0
  0
POLYLINE
  5
175B
  8
247
 66
     1
 10
0.0
 20
0.0
 30
0.0
 70
     1
1001
HATCH_DISTANCE
1040
1.0
1001
HATCH_DISPLAY
1070
     0
1001
HATCH_TYPE
1070
     7
  0
VERTEX
  5
175C
  8
247
 10
-153.1676491958294
 20
-4.5917785339463091
 30
0.0
  0
VERTEX
  5
175D
  8
247
 10
-153.2377595473919
 20
-4.3694416198838271
 30
0.0
  0
VERTEX
  5
175E
  8
247
 10
-153.2377595473919
 20
-4.3694416198838271
 30
0.0
  0
VERTEX
  5
175F
  8
247
 10
-153.1676491958294
 20
-4.5917785339463091
 30
0.0
  0
SEQEND
  5
1760
  8
247
  0
POLYLINE
  5
1761
  8
247
 66
     1
 10
0.0
 20
0.0
 30
0.0
 70
     1
  0
VERTEX
  5
1762
  8
247
 10
-153.1676491958294
 20
-4.5917785339463091
 30
0.0
  0
VERTEX
  5
1763
  8
247
 10
-153.2377595473919
 20
-4.3694416198838271
 30
0.0
  0
VERTEX
  5
1764
  8
247
 10
-153.2377595473919
 20
-4.3694416198838271
 30
0.0
  0
VERTEX
  5
1765
  8
247
 10
-153.1676491958294
 20
-4.5917785339463091
 30
0.0
  0
SEQEND
  5
1766
  8
247
  0
LINE
  5
1767
  8
247
 10
-153.1676491958294
 20
-4.5917785339463091
 30
0.0
 11
-153.2377595473919
 21
-4.3694416198838271
 31
0.0
  0
POLYLINE
  5
1768
  8
247
 66
     1
 10
0.0
 20
0.0
 30
0.0
 70
     1
1001
HATCH_DISTANCE
1040
1.0
1001
HATCH_DISPLAY
1070
     0
1001
HATCH_TYPE
1070
     7
  0
VERTEX
  5
1769
  8
247
 10
-153.1676491958294
 20
-4.5917785339463091
 30
0.0
  0
VERTEX
  5
176A
  8
247
 10
-153.2377595473919
 20
-4.3694416198838271
 30
0.0
  0
VERTEX
  5
176B
  8
247
 10
-153.2377595473919
 20
-4.3694416198838271
 30
0.0
  0
VERTEX
  5
176C
  8
247
 10
-153.1676491958294
 20
-4.5917785339463091
 30
0.0
  0
SEQEND
  5
176D
  8
247
  0
POLYLINE
  5
176E
  8
247
 66
     1
 10
0.0
 20
0.0
 30
0.0
 70
     1
  0
VERTEX
  5
176F
  8
247
 10
-153.1676491958294
 20
-4.5917785339463091
 30
0.0
  0
VERTEX
  5
1770
  8
247
 10
-153.2377595473919
 20
-4.3694416198838271
 30
0.0
  0
VERTEX
  5
1771
  8
247
 10
-153.2377595473919
 20
-4.3694416198838271
 30
0.0
  0
VERTEX
  5
1772
  8
247
 10
-153.1676491958294
 20
-4.5917785339463091
 30
0.0
  0
SEQEND
  5
1773
  8
247
  0
LINE
  5
1774
  8
247
 10
-153.2786638442669
 20
-4.6267853698838151
 30
0.0
 11
-153.34877419582941
 21
-4.404448455821278
 31
0.0
  0
ARC
  5
1775
  8
247
 10
-152.92615212551681
 20
-5.551271698008815
 30
0.0
 40
1.222216369628905
 50
110.22964506332001
 51
118.57168892371671
  0
ARC
  5
1776
  8
247
 10
-153.8394587661418
 20
-4.8295841980088152
 30
0.0
 40
0.2444448051452637
 50
1.7101213820627339
 51
163.99839835444709
  0
ARC
  5
1777
  8
247
 10
-152.92615212551681
 20
-5.551271698008815
 30
0.0
 40
0.9894138793945311
 50
110.8721834020736
 51
132.5419489373877
  0
ARC
  5
1778
  8
247
 10
-152.8911892348919
 20
-5.7074533386338091
 30
0.0
 40
1.9799648437499999
 50
155.2051773698409
 51
172.79482596205219
  0
ARC
  5
1779
  8
247
 10
-154.15321071926681
 20
-5.9237521667588284
 30
0.0
 40
0.2444446334838867
 50
164.000273057182
 51
344.00027305718248
  0
LINE
  5
177A
  8
247
 10
-154.38818630520441
 20
-5.8563752136338243
 30
0.0
 11
-154.07443435207941
 21
-4.7621984558213191
 31
0.0
  0
ARC
  5
177B
  8
247
 10
-153.96132790676691
 20
-5.0856623230088012
 30
0.0
 40
0.7566075439453125
 50
53.444012197057482
 51
164.00018438768521
  0
ARC
  5
177C
  8
241
 10
-62.37094922284448
 20
-3.1399011426447632
 30
0.0
 40
17.761847006190401
 50
169.81786532332171
 51
179.39789048504349
  0
ARC
  5
177D
  8
241
 10
-78.287218029672005
 20
-0.389703516392857
 30
0.0
 40
1.613608636602601
 50
80.125352183882029
 51
166.02428833802881
  0
LINE
  5
177E
  8
241
 10
-80.131815475576545
 20
-7.0500000000000087
 30
0.0
 11
-80.131815475576545
 21
-2.9532489959167072
 31
0.0
  0
LINE
  5
177F
  8
240
 10
-0.2531358191362472
 20
6.0076624967373107
 30
0.0
 11
-0.0590232694408144
 21
6.2017750464327452
 31
0.0
  0
LINE
  5
1780
  8
241
 10
-5.8818661290274559
 20
7.4499999999999851
 30
0.0
 11
-6.8472483688316839
 21
6.484617760739499
 31
0.0
  0
ARC
  5
1781
  8
241
 10
-48.345313072477467
 20
-14.89546665824191
 30
0.0
 40
49.722893004620801
 50
14.714404819200089
 51
19.076802212793151
  0
CIRCLE
  5
1782
  8
246
 10
-3.4531358195942801
 20
6.343196403586119
 30
0.0
 40
2.499999999676088
  0
ARC
  5
1783
  8
241
 10
-6.7058270125943684
 20
6.343196404502188
 30
0.0
 40
0.2
 50
135.0000000000002
 51
225.0000000000004
1001
GENIUS_GENODEF_13
1002
{
1000
HIER
1070
     0
1002
}
1002
{
1000
MANEDIT
1070
     0
1002
}
1002
{
1000
NOSEL
1070
     0
1002
}
1002
{
1000
BEHIND
1070
     0
1002
}
1002
{
1000
OTHER
1070
     0
1002
}
1002
{
1000
REACTOR
1002
}
1001
GENIUS_GENOBJ-N-FIL_13
1002
{
1000
OWNER
1000
GEN
1002
}
  0
ARC
  5
1784
  8
241
 10
-3.453135819136206
 20
3.0905052092119529
 30
0.0
 40
0.2
 50
225.0000000000004
 51
315.00000000000028
1001
GENIUS_GENOBJ-N-FIL_13
1002
{
1000
OWNER
1000
GEN
1002
}
1001
GENIUS_GENODEF_13
1002
{
1000
HIER
1070
     0
1002
}
1002
{
1000
MANEDIT
1070
     0
1002
}
1002
{
1000
NOSEL
1070
     0
1002
}
1002
{
1000
BEHIND
1070
     0
1002
}
1002
{
1000
OTHER
1070
     0
1002
}
1002
{
1000
REACTOR
1002
}
  0
ARC
  5
1785
  8
240
 10
-0.2004446256781307
 20
6.3431964026700562
 30
0.0
 40
0.2
 50
315.0
 51
45.0
1001
GENIUS_GENOBJ-N-FIL_13
1002
{
1000
OWNER
1000
GEN
1002
}
1001
GENIUS_GENODEF_13
1002
{
1000
HIER
1070
     0
1002
}
1002
{
1000
MANEDIT
1070
     0
1002
}
1002
{
1000
NOSEL
1070
     0
1002
}
1002
{
1000
BEHIND
1070
     0
1002
}
1002
{
1000
OTHER
1070
     0
1002
}
1002
{
1000
REACTOR
1002
}
  0
ARC
  5
1786
  8
240
 10
-3.453135819136234
 20
9.5958875961281702
 30
0.0
 40
0.2
 50
45.000000000000227
 51
135.0000000000002
1001
GENIUS_GENODEF_13
1002
{
1000
HIER
1070
     0
1002
}
1002
{
1000
MANEDIT
1070
     0
1002
}
1002
{
1000
NOSEL
1070
     0
1002
}
1002
{
1000
BEHIND
1070
     0
1002
}
1002
{
1000
OTHER
1070
     0
1002
}
1002
{
1000
REACTOR
1002
}
1001
GENIUS_GENOBJ-N-FIL_13
1002
{
1000
OWNER
1000
GEN
1002
}
  0
LINE
  5
1787
  8
245
 10
-165.04002341824381
 20
-0.0000000000000275
 30
0.0
 11
2.9561731596666041
 21
0.0000000000000009
 31
0.0
  0
LINE
  5
1788
  8
240
 10
-159.85313581913621
 20
-10.00000000000003
 30
0.0
 11
-81.803135819136244
 21
-10.00000000000003
 31
0.0
  0
LINE
  5
1789
  8
240
 10
-81.803135819136244
 20
10.0
 30
0.0
 11
-159.85313581913621
 21
10.0
 31
0.0
  0
ARC
  5
178A
  8
240
 10
-159.85313581913621
 20
-8.0000000000000284
 30
0.0
 40
2.0
 50
180.0
 51
270.0
  0
ARC
  5
178B
  8
240
 10
-159.8531358191361
 20
7.9999999999999707
 30
0.0
 40
2.0
 50
90.0
 51
180.0
  0
LINE
  5
178C
  8
240
 10
-161.85313581913621
 20
-8.0000000000000284
 30
0.0
 11
-161.85313581913621
 21
0.0000000000000009
 31
0.0
  0
LINE
  5
178D
  8
240
 10
-161.85313581913621
 20
0.0000000000000009
 30
0.0
 11
-161.85313581913621
 21
8.0
 31
0.0
  0
LINE
  5
178E
  8
245
 10
-84.381810367162856
 20
2.399999999999749
 30
0.0
 11
2.9561731596666041
 21
2.4000000000001189
 31
0.0
  0
LINE
  5
178F
  8
241
 10
-78.010495132016885
 20
1.2000000000000171
 30
0.0
 11
-1.30313589173275
 21
1.2000000000000171
 31
0.0
  0
LINE
  5
1790
  8
240
 10
-5.8818661277389861
 20
7.4499999999999904
 30
0.0
 11
-78.010495132016885
 21
7.449999999999986
 31
0.0
  0
LINE
  5
1791
  8
240
 10
-78.131815475576559
 20
-5.0499999999999821
 30
0.0
 11
-0.2531358191362187
 21
-5.0499999999999821
 31
0.0
  0
LINE
  5
1792
  8
241
 10
-81.803135819136244
 20
-10.00000000000003
 30
0.0
 11
-81.803135819136244
 21
0.0000000000000009
 31
0.0
  0
LINE
  5
1793
  8
240
 10
-81.803135819136244
 20
-10.00000000000003
 30
0.0
 11
-80.131815475576545
 21
-8.3286796564403573
 31
0.0
  0
ARC
  5
1794
  8
240
 10
-78.131815475576559
 20
-7.0500000000000087
 30
0.0
 40
2.0
 50
90.0
 51
180.0
  0
LINE
  5
1795
  8
240
 10
-80.131815475576545
 20
-8.3286796564403573
 30
0.0
 11
-80.131815475576545
 21
-7.0500000000000087
 31
0.0
  0
LINE
  5
1796
  8
240
 10
-80.131815475576545
 20
8.3286796564403573
 30
0.0
 11
-81.803135819136244
 21
10.0
 31
0.0
  0
ARC
  5
1797
  8
240
 10
-78.010495132016885
 20
10.44999999999999
 30
0.0
 40
3.0000000000000142
 50
225.0
 51
270.0
  0
LINE
  5
1798
  8
241
 10
-81.803135819136244
 20
0.0000000000000009
 30
0.0
 11
-81.803135819136244
 21
10.0
 31
0.0
  0
LINE
  5
1799
  8
241
 10
-79.253135819136148
 20
7.7194608366266086
 30
0.0
 11
-79.253135819136148
 21
0.9594039542052719
 31
0.0
  0
LINE
  5
179A
  8
240
 10
-0.2531358191362472
 20
6.0076624967373551
 30
0.0
 11
-0.2531358191362187
 21
-5.0499999999999821
 31
0.0
  0
LINE
  5
179B
  8
240
 10
-0.0590232694408144
 20
6.4846177589073628
 30
0.0
 11
-3.311714462898919
 21
9.7373089523654794
 31
0.0
  0
LINE
  5
179C
  8
240
 10
-3.5945571753735521
 20
9.7373089523654794
 30
0.0
 11
-5.8818661290274559
 21
7.4499999999999851
 31
0.0
  0
LINE
  5
179D
  8
241
 10
-3.311714462898891
 20
2.949083852974645
 30
0.0
 11
-0.2531358191362472
 21
6.0076624967373107
 31
0.0
  0
LINE
  5
179E
  8
241
 10
-6.8472483688316839
 20
6.201775048264877
 30
0.0
 11
-3.5945571753735219
 21
2.9490838529746419
 31
0.0
  0
LINE
  5
179F
  8
241
 10
-1.353135819136241
 20
1.3557291666666631
 30
0.0
 11
-1.353135819136241
 21
4.9076624967373217
 31
0.0
  0
ENDBLK
  5
17A2
  8
0
  0
BLOCK
  8
0
  2
*U29
 70
     1
 10
0.0
 20
0.0
 30
0.0
  3
*U29
  1

  0
TEXT
  5
19C3
  8
240
 62
    40
 10
-7.5038776812235861
 20
15.67582799370175
 30
0.0
 40
2.799999999999998
  1
45üï
 50
16.60928800639763
  0
ENDBLK
  5
19C5
  8
0
  0
ENDSEC
  0
SECTION
  2
ENTITIES
  0
TEXT
  5
1462
  8
241
 10
-162.33987960781531
 20
21.261625899473639
 30
0.0
 40
3.0
  1
ST20-CM18-45B-78
  7
YOKO
 11
-162.33987960781531
 21
21.261625899473639
 31
0.0
 73
     1
  0
LINE
  5
155A
  8
250
 10
-161.85313581913621
 20
-7.5000000000000249
 30
0.0
 11
-161.85313581913621
 21
-32.777016439767472
 31
0.0
  0
LINE
  5
155B
  8
250
 10
0.0
 20
5.8431964026700589
 30
0.0
 11
0.0
 21
-32.777016439767472
 31
0.0
  0
LINE
  5
155C
  8
250
 10
-159.62313581913619
 20
-31.777016439767461
 30
0.0
 11
-2.229999999999988
 21
-31.777016439767461
 31
0.0
  0
LINE
  5
1560
  8
250
 10
-79.253135819136148
 20
0.4594039542052723
 30
0.0
 11
-79.253135819136148
 21
-25.777016439767468
 31
0.0
  0
LINE
  5
1561
  8
250
 10
0.0
 20
5.8431964026700589
 30
0.0
 11
0.0
 21
-25.777016439767468
 31
0.0
  0
LINE
  5
1562
  8
250
 10
-77.023135819136158
 20
-24.777016439767468
 30
0.0
 11
-2.229999999999988
 21
-24.777016439767468
 31
0.0
  0
LINE
  5
1566
  8
250
 10
-160.35313581913621
 20
-10.0
 30
0.0
 11
-174.17502956131301
 21
-9.9999999999999964
 31
0.0
  0
LINE
  5
1567
  8
250
 10
-160.3531358191361
 20
9.9999999999999716
 30
0.0
 11
-174.17502956131301
 21
9.9999999999999751
 31
0.0
  0
LINE
  5
1568
  8
250
 10
-173.1750295613131
 20
-7.769999999999996
 30
0.0
 11
-173.1750295613131
 21
7.7699999999999738
 31
0.0
  0
LINE
  5
156C
  8
250
 10
-2.953135819136234
 20
9.8499999999999357
 30
0.0
 11
17.824972873704692
 21
9.8499999999999321
 31
0.0
  0
LINE
  5
156D
  8
250
 10
16.824972873704692
 20
7.6199999999999291
 30
0.0
 11
16.824972873704692
 21
-6.6095232744582111
 31
0.0
  0
LINE
  5
1570
  8
250
 10
3.4561731596666041
 20
0.0000000000000007
 30
0.0
 11
10.82497043868687
 21
-0.0000000000000013
 31
0.0
  0
LINE
  5
1571
  8
250
 10
3.4561731596666041
 20
2.400000000000118
 30
0.0
 11
10.82497043868687
 21
2.400000000000118
 31
0.0
  0
LINE
  5
1572
  8
250
 10
9.8249704386868775
 20
4.630000000000118
 30
0.0
 11
9.8249704386868775
 21
6.8600000000001167
 31
0.0
  0
LINE
  5
1573
  8
250
 10
9.8249704386868775
 20
-2.23
 30
0.0
 11
9.8249704386868775
 21
-12.6742857142857
 31
0.0
  0
LINE
  5
1574
  8
250
 10
9.8249704386868775
 20
2.400000000000118
 30
0.0
 11
9.8249704386868775
 21
-0.0000000000000011
 31
0.0
  0
TEXT
  5
1578
  8
250
 10
-44.293234576234752
 20
-23.777016439767468
 30
0.0
 40
2.799999999999998
  1
79.3
  0
LINE
  5
1579
  8
250
 10
-2.229999999999988
 20
-24.405349773100799
 30
0.0
 11
0.0
 21
-24.777016439767468
 31
0.0
  0
LINE
  5
157A
  8
250
 10
-2.229999999999988
 20
-25.148683106434131
 30
0.0
 11
0.0
 21
-24.777016439767468
 31
0.0
  0
LINE
  5
157B
  8
250
 10
0.0
 20
-24.777016439767468
 30
0.0
 11
-2.229999999999988
 21
-24.777016439767468
 31
0.0
  0
LINE
  5
157C
  8
250
 10
-77.023135819136158
 20
-25.148683106434131
 30
0.0
 11
-79.253135819136148
 21
-24.777016439767468
 31
0.0
  0
LINE
  5
157D
  8
250
 10
-77.023135819136158
 20
-24.405349773100799
 30
0.0
 11
-79.253135819136148
 21
-24.777016439767468
 31
0.0
  0
LINE
  5
157E
  8
250
 10
-79.253135819136148
 20
-24.777016439767468
 30
0.0
 11
-77.023135819136158
 21
-24.777016439767468
 31
0.0
  0
TEXT
  5
157F
  8
250
 10
-87.059901242901404
 20
-30.777016439767468
 30
0.0
 40
2.799999999999998
  1
161.9
  0
LINE
  5
1580
  8
250
 10
-2.229999999999988
 20
-31.405349773100809
 30
0.0
 11
0.0
 21
-31.777016439767461
 31
0.0
  0
LINE
  5
1581
  8
250
 10
-2.229999999999988
 20
-32.148683106434142
 30
0.0
 11
0.0
 21
-31.777016439767461
 31
0.0
  0
LINE
  5
1582
  8
250
 10
0.0
 20
-31.777016439767461
 30
0.0
 11
-2.229999999999988
 21
-31.777016439767461
 31
0.0
  0
LINE
  5
1583
  8
250
 10
-159.62313581913619
 20
-32.148683106434142
 30
0.0
 11
-161.85313581913621
 21
-31.777016439767461
 31
0.0
  0
LINE
  5
1584
  8
250
 10
-159.62313581913619
 20
-31.405349773100809
 30
0.0
 11
-161.85313581913621
 21
-31.777016439767461
 31
0.0
  0
LINE
  5
1585
  8
250
 10
-161.85313581913621
 20
-31.777016439767461
 30
0.0
 11
-159.62313581913619
 21
-31.777016439767461
 31
0.0
  0
TEXT
  5
1586
  8
250
 10
-174.17502956131301
 20
-3.8952380952381072
 30
0.0
 40
3.0
  1
\U+2205
 50
90.0
  0
TEXT
  5
1587
  8
250
 10
-174.275029561313
 20
-1.180952380952393
 30
0.0
 40
2.799999999999998
  1
20
 50
90.0
  0
LINE
  5
1588
  8
250
 10
-173.54669622797971
 20
7.769999999999972
 30
0.0
 11
-173.1750295613131
 21
9.9999999999999751
 31
0.0
  0
LINE
  5
1589
  8
250
 10
-172.8033628946464
 20
7.769999999999972
 30
0.0
 11
-173.1750295613131
 21
9.9999999999999751
 31
0.0
  0
LINE
  5
158A
  8
250
 10
-173.1750295613131
 20
9.9999999999999751
 30
0.0
 11
-173.1750295613131
 21
7.769999999999972
 31
0.0
  0
LINE
  5
158B
  8
250
 10
-172.8033628946464
 20
-7.769999999999996
 30
0.0
 11
-173.1750295613131
 21
-9.9999999999999964
 31
0.0
  0
LINE
  5
158C
  8
250
 10
-173.54669622797971
 20
-7.769999999999996
 30
0.0
 11
-173.1750295613131
 21
-9.9999999999999964
 31
0.0
  0
LINE
  5
158D
  8
250
 10
-173.1750295613131
 20
-9.9999999999999964
 30
0.0
 11
-173.1750295613131
 21
-7.769999999999996
 31
0.0
  0
TEXT
  5
158E
  8
250
 10
8.8249704386868757
 20
-12.07428571428567
 30
0.0
 40
2.799999999999998
  1
2.4
 50
90.0
  0
LINE
  5
158F
  8
250
 10
9.4533037720202042
 20
-2.2299999999999991
 30
0.0
 11
9.8249704386868775
 21
-0.0000000000000011
 31
0.0
  0
LINE
  5
1590
  8
250
 10
10.19663710535354
 20
-2.2299999999999991
 30
0.0
 11
9.8249704386868775
 21
-0.0000000000000011
 31
0.0
  0
LINE
  5
1591
  8
250
 10
9.8249704386868775
 20
-0.0000000000000011
 30
0.0
 11
9.8249704386868775
 21
-2.2299999999999991
 31
0.0
  0
LINE
  5
1592
  8
250
 10
10.19663710535354
 20
4.630000000000118
 30
0.0
 11
9.8249704386868775
 21
2.400000000000118
 31
0.0
  0
LINE
  5
1593
  8
250
 10
9.4533037720202042
 20
4.630000000000118
 30
0.0
 11
9.8249704386868775
 21
2.400000000000118
 31
0.0
  0
LINE
  5
1594
  8
250
 10
9.8249704386868775
 20
2.400000000000118
 30
0.0
 11
9.8249704386868775
 21
4.630000000000118
 31
0.0
  0
TEXT
  5
1595
  8
250
 10
15.824972873704681
 20
-5.8952375601724682
 30
0.0
 40
3.0
  1
\U+2205
 50
90.0
  0
TEXT
  5
1596
  8
250
 10
15.724972873704701
 20
-3.1809518458867529
 30
0.0
 40
2.799999999999998
  1
19.7
 50
90.0
  0
LINE
  5
1597
  8
250
 10
16.453306207038018
 20
7.6199999999999299
 30
0.0
 11
16.824972873704692
 21
9.8499999999999321
 31
0.0
  0
LINE
  5
1598
  8
250
 10
17.196639540371361
 20
7.6199999999999299
 30
0.0
 11
16.824972873704692
 21
9.8499999999999321
 31
0.0
  0
LINE
  5
1599
  8
250
 10
16.824972873704692
 20
9.8499999999999321
 30
0.0
 11
16.824972873704692
 21
7.6199999999999299
 31
0.0
  0
INSERT
  5
17A3
  8
240
  2
A$C13E51232
 10
0.0
 20
0.0
 30
0.0
  0
LINE
  5
1996
  8
250
 10
0.0
 20
6.9255944894665493
 30
0.0
 11
0.0000000000000009
 21
17.059215880707448
 31
0.0
  0
LINE
  5
1997
  8
250
 10
-3.6652678534921921
 20
10.090862342958751
 30
0.0
 11
-7.5191057943167587
 21
13.94470028378333
 31
0.0
  0
ARC
  5
1998
  8
250
 10
-0.0000000000000002
 20
6.4255944894665493
 30
0.0
 40
9.6336213912409026
 50
103.2926736968269
 51
121.70732630317291
  0
TEXT
  5
199C
  8
250
 10
-7.5038776812235861
 20
15.67582799370175
 30
0.0
 40
2.799999999999998
  1
45üï
 50
16.60928800639763
  0
LINE
  5
199D
  8
250
 10
-4.8326186656922561
 20
14.329879889625159
 30
0.0
 11
-6.8119990131302126
 21
13.237593502596781
 31
0.0
  0
LINE
  5
199E
  8
250
 10
-5.2938672424278339
 20
14.91279857598188
 30
0.0
 11
-6.8119990131302126
 21
13.237593502596781
 31
0.0
  0
LINE
  5
199F
  8
250
 10
-6.8119990131302126
 20
13.237593502596781
 30
0.0
 11
-5.063242954060045
 21
14.621339232803519
 31
0.0
  0
LINE
  5
19A0
  8
250
 10
-2.258030137067101
 20
16.170283478177769
 30
0.0
 11
0.0000000000000009
 21
16.059215880707448
 31
0.0
  0
LINE
  5
19A1
  8
250
 10
-2.1719963774862809
 20
15.431945725752209
 30
0.0
 11
0.0000000000000009
 21
16.059215880707448
 31
0.0
  0
LINE
  5
19A2
  8
250
 10
0.0000000000000009
 20
16.059215880707448
 30
0.0
 11
-2.215013257276691
 21
15.80111460196499
 31
0.0
  0
VIEWPORT
  5
22
 67
     1
  8
0
 10
261.51769911504419
 20
148.5
 30
0.0
 40
523.0353982300885
 41
297.0
 68
     1
 69
     1
1001
ACAD
1000
MVIEW
1002
{
1070
    16
1010
0.0
1020
0.0
1030
0.0
1010
0.0
1020
0.0
1030
1.0
1040
0.0
1040
297.0
1040
261.51769911504419
1040
148.5
1040
50.0
1040
0.0
1040
0.0
1070
     0
1070
   100
1070
     1
1070
     1
1070
     0
1070
     0
1070
     0
1070
     0
1040
0.0
1040
0.0
1040
0.0
1040
1.0
1040
1.0
1040
10.0
1040
10.0
1070
     0
1002
{
1002
}
1002
}
1001
GENIUS_GENODEF_13
1002
{
1000
HIER
1070
     0
1002
}
1002
{
1000
MANEDIT
1070
     0
1002
}
1002
{
1000
NOSEL
1070
     0
1002
}
1002
{
1000
BEHIND
1070
     0
1002
}
1002
{
1000
OTHER
1070
     0
1002
}
1002
{
1000
REACTOR
1002
}
1001
GENIUS_GENOBJ-N-SDF_13
1002
{
1000
OWNER
1000
GEN
1002
}
1001
GENIUS_GENSCREG_15
1000
PF
1040
1.0
1000
DF
1040
1.0
1000
MIN
1011
0.0
1021
0.0
1031
0.0
1021
0.0
1031
0.0
1000
MAX
1011
523.0353982300885
1021
0.0
1031
0.0
1021
297.0
1031
0.0
1000
FLAGS
1070
     2
  0
ENDSEC
  0
EOF
