  0
SECTION
  2
HEADER
  9
$ACADVER
  1
AC1009
  9
$INSBASE
 10
0.0
 20
0.0
 30
0.0
  9
$EXTMIN
 10
-141.0992442375441
 20
-32.794273485439653
 30
-0.0000000349181948
  9
$EXTMAX
 10
17.8285462763406
 20
24.4237915845207
 30
0.0000000814935747
  9
$LIMMIN
 10
0.0
 20
0.0
  9
$LIMMAX
 10
297.0
 20
210.0
  9
$ORTHOMODE
 70
     1
  9
$REGENMODE
 70
     1
  9
$FILLMODE
 70
     1
  9
$QTEXTMODE
 70
     0
  9
$MIRRTEXT
 70
     1
  9
$DRAGMODE
 70
     2
  9
$LTSCALE
 40
10.0
  9
$OSMODE
 70
  2597
  9
$ATTMODE
 70
     1
  9
$TEXTSIZE
 40
3.0
  9
$TRACEWID
 40
1.0
  9
$TEXTSTYLE
  7
YOKO
  9
$CLAYER
  8
240
  9
$CELTYPE
  6
BYLAYER
  9
$CECOLOR
 62
   256
  9
$DIMSCALE
 40
1.0
  9
$DIMASZ
 40
2.2299999999999991
  9
$DIMEXO
 40
0.5
  9
$DIMDLI
 40
7.0
  9
$DIMRND
 40
0.0
  9
$DIMDLE
 40
0.0
  9
$DIMEXE
 40
1.0
  9
$DIMTP
 40
0.0
  9
$DIMTM
 40
0.01
  9
$DIMTXT
 40
2.799999999999998
  9
$DIMCEN
 40
0.0
  9
$DIMTSZ
 40
0.0
  9
$DIMTOL
 70
     0
  9
$DIMLIM
 70
     0
  9
$DIMTIH
 70
     0
  9
$DIMTOH
 70
     0
  9
$DIMSE1
 70
     0
  9
$DIMSE2
 70
     0
  9
$DIMTAD
 70
     3
  9
$DIMZIN
 70
     9
  9
$DIMBLK
  1
OPEN
  9
$DIMASO
 70
     1
  9
$DIMSHO
 70
     1
  9
$DIMPOST
  1

  9
$DIMAPOST
  1

  9
$DIMALT
 70
     0
  9
$DIMALTD
 70
     2
  9
$DIMALTF
 40
25.399999999999999
  9
$DIMLFAC
 40
1.0
  9
$DIMTOFL
 70
     1
  9
$DIMTVP
 40
0.0
  9
$DIMTIX
 70
     1
  9
$DIMSOXD
 70
     0
  9
$DIMSAH
 70
     0
  9
$DIMBLK1
  1

  9
$DIMBLK2
  1

  9
$DIMSTYLE
  2
BIGT
  9
$DIMCLRD
 70
   256
  9
$DIMCLRE
 70
   256
  9
$DIMCLRT
 70
    40
  9
$DIMTFAC
 40
1.0
  9
$DIMGAP
 40
1.0
  9
$LUNITS
 70
     2
  9
$LUPREC
 70
     3
  9
$SKETCHINC
 40
1.0
  9
$FILLETRAD
 40
0.2
  9
$AUNITS
 70
     0
  9
$AUPREC
 70
     3
  9
$MENU
  1
.
  9
$ELEVATION
 40
0.0
  9
$PELEVATION
 40
0.0
  9
$THICKNESS
 40
0.0
  9
$LIMCHECK
 70
     0
  9
$BLIPMODE
 70
     0
  9
$CHAMFERA
 40
0.25
  9
$CHAMFERB
 40
0.25
  9
$SKPOLY
 70
     0
  9
$TDCREATE
 40
2454678.740762257
  9
$TDUPDATE
 40
2454679.3793601738
  9
$TDINDWG
 40
0.0129401852
  9
$TDUSRTIMER
 40
0.01294
  9
$USRTIMER
 70
     1
  9
$ANGBASE
 50
0.0
  9
$ANGDIR
 70
     0
  9
$PDMODE
 70
     1
  9
$PDSIZE
 40
0.0
  9
$PLINEWID
 40
0.0
  9
$COORDS
 70
     2
  9
$SPLFRAME
 70
     0
  9
$SPLINETYPE
 70
     6
  9
$SPLINESEGS
 70
     4
  9
$ATTDIA
 70
     1
  9
$ATTREQ
 70
     1
  9
$HANDLING
 70
     1
  9
$HANDSEED
  5
19E1
  9
$SURFTAB1
 70
     6
  9
$SURFTAB2
 70
     6
  9
$SURFTYPE
 70
     6
  9
$SURFU
 70
     6
  9
$SURFV
 70
     6
  9
$UCSNAME
  2

  9
$UCSORG
 10
0.0
 20
0.0
 30
0.0
  9
$UCSXDIR
 10
1.0
 20
0.0
 30
0.0
  9
$UCSYDIR
 10
0.0
 20
1.0
 30
0.0
  9
$PUCSNAME
  2

  9
$PUCSORG
 10
0.0
 20
0.0
 30
0.0
  9
$PUCSXDIR
 10
1.0
 20
0.0
 30
0.0
  9
$PUCSYDIR
 10
0.0
 20
1.0
 30
0.0
  9
$USERI1
 70
     1
  9
$USERI2
 70
     0
  9
$USERI3
 70
     0
  9
$USERI4
 70
     0
  9
$USERI5
 70
     0
  9
$USERR1
 40
0.0
  9
$USERR2
 40
0.0
  9
$USERR3
 40
0.0
  9
$USERR4
 40
0.0
  9
$USERR5
 40
0.0
  9
$WORLDVIEW
 70
     1
  9
$SHADEDGE
 70
     3
  9
$SHADEDIF
 70
    70
  9
$TILEMODE
 70
     1
  9
$MAXACTVP
 70
    16
  9
$PLIMCHECK
 70
     0
  9
$PEXTMIN
 10
1.0000000000000000E+020
 20
1.0000000000000000E+020
 30
1.0000000000000000E+020
  9
$PEXTMAX
 10
-1.0000000000000000E+020
 20
-1.0000000000000000E+020
 30
-1.0000000000000000E+020
  9
$PLIMMIN
 10
0.0
 20
0.0
  9
$PLIMMAX
 10
420.0
 20
297.0
  9
$UNITMODE
 70
     0
  9
$VISRETAIN
 70
     1
  9
$PLINEGEN
 70
     0
  9
$PSLTSCALE
 70
     1
  0
ENDSEC
  0
SECTION
  2
TABLES
  0
TABLE
  2
VPORT
 70
    13
  0
VPORT
  2
*ACTIVE
 70
     0
 10
0.0
 20
0.0
 11
1.0
 21
1.0
 12
-61.635348980601741
 22
-4.1852409504594732
 13
0.0
 23
0.0
 14
7.0
 24
7.0
 15
7.0
 25
7.0
 16
0.0
 26
0.0
 36
1.0
 17
0.0
 27
0.0
 37
0.0
 40
107.4482862942896
 41
1.4864532019704431
 42
50.0
 43
0.0
 44
0.0
 50
0.0
 51
0.0
 71
     0
 72
  2000
 73
     1
 74
     0
 75
     0
 76
     0
 77
     0
 78
     0
  0
ENDTAB
  0
TABLE
  2
LTYPE
 70
    21
  0
LTYPE
  2
CONTINUOUS
 70
     0
  3
Solid line
 72
    65
 73
     0
 40
0.0
  0
LTYPE
  2
CENTER2
 70
     0
  3
___ _ ___ _ ___ _ ___ _ ___ _ ___ _ ___ _ ___ _
 72
    65
 73
     4
 40
1.125
 49
0.75
 49
-0.125
 49
0.125
 49
-0.125
  0
LTYPE
  2
HIDDEN2
 70
     0
  3
_ _ _ _ _ _ _ _ _ _ _ _ _ _ _ _ _ _ _ _ _ _ _ _
 72
    65
 73
     2
 40
0.1875
 49
0.125
 49
-0.0625
  0
LTYPE
  2
PHANTOM2
 70
     0
  3
___ _ _ ___ _ _ ___ _ _ ___ _ _ ___ _ _ ___ _ _
 72
    65
 73
     6
 40
1.25
 49
0.625
 49
-0.125
 49
0.125
 49
-0.125
 49
0.125
 49
-0.125
  0
LTYPE
  2
CENTER
 70
     0
  3
____ _ ____ _ ____ _ ____ _ ____ _ ____ _ ____ 
 72
    65
 73
     4
 40
2.0
 49
1.25
 49
-0.25
 49
0.25
 49
-0.25
  0
LTYPE
  2
AMCONSTR
 70
     0
  3
_______________________
 72
    65
 73
     2
 40
9999.0
 49
9999.0
 49
0.0
  0
LTYPE
  2
HIDDEN
 70
     0
  3
Hidden __ __ __ __ __ __ __ __ __ __ __ __ __ _
 72
    65
 73
     2
 40
9.5249999999999986
 49
6.3499999999999979
 49
-3.174999999999998
  0
LTYPE
  2
AMZIGZAG2
 70
     0
  3
/\/-/\/-/\/-/\/-/\/-/\/
 72
    65
 73
     2
 40
0.4401
 49
0.0001
 49
-0.4400000000000001
  0
LTYPE
  2
ACANSTGB
 70
     0
  3
__ . . __ . .
 72
    65
 73
     6
 40
0.35433070866
 49
0.15748031496
 49
-0.03937007874
 49
0.03937007874
 49
-0.03937007874
 49
0.03937007874
 49
-0.03937007874
  0
LTYPE
  2
ACANSTGL
 70
     0
  3
_ _ _ _ _
 72
    65
 73
     2
 40
0.11811023622
 49
0.07874015748
 49
-0.03937007874
  0
ENDTAB
  0
TABLE
  2
LAYER
 70
     9
  0
LAYER
  2
0
 70
     0
 62
     7
  6
CONTINUOUS
  0
LAYER
  2
240
 70
     0
 62
     4
  6
CONTINUOUS
  0
LAYER
  2
DEFPOINTS
 70
     0
 62
     7
  6
CONTINUOUS
  0
LAYER
  2
245
 70
     0
 62
     2
  6
CENTER2
  0
LAYER
  2
241
 70
     0
 62
   211
  6
CONTINUOUS
  0
LAYER
  2
246
 70
     0
 62
     3
  6
PHANTOM2
  0
LAYER
  2
247
 70
     0
 62
    60
  6
CONTINUOUS
  0
LAYER
  2
250
 70
     0
 62
     3
  6
CONTINUOUS
  0
ENDTAB
  0
TABLE
  2
STYLE
 70
     9
  0
STYLE
  2
STANDARD
 70
     0
 40
0.0
 41
1.0
 50
0.0
 71
     0
 42
3.0
  3
romans.shx
  4
extfont.shx
  0
STYLE
  2
YOKO
 70
     0
 40
0.0
 41
1.0
 50
0.0
 71
     0
 42
3.0
  3
romans.shx
  4
extfont.shx
  0
STYLE
  2

 70
     1
 40
0.0
 41
1.0
 50
0.0
 71
     0
 42
3.0
  3
ltypeshp.shx
  4

  0
STYLE
  2
ACANSTS
 70
     0
 40
1.0
 41
1.0
 50
0.0
 71
     0
 42
3.0
  3
romans.shx
  4
extfont.shx
  0
STYLE
  2
ACANSGDT
 70
     0
 40
0.0
 41
1.0
 50
0.0
 71
     0
 42
3.0
  3
amgdtans.shx
  4

  0
ENDTAB
  0
TABLE
  2
VIEW
 70
     0
  0
ENDTAB
  0
TABLE
  2
UCS
 70
     0
  0
ENDTAB
  0
TABLE
  2
APPID
 70
    31
  0
APPID
  2
ACAD
 70
     0
  0
APPID
  2
GLOBAL
 70
     0
  0
APPID
  2
DETAIL
 70
     0
  0
APPID
  2
GRPNAME
 70
     0
  0
APPID
  2
GPARA
 70
     0
  0
APPID
  2
MCAD_NO_VIS
 70
     0
  0
APPID
  2
ACAD_TEMP_GRAPHIC
 70
     0
  0
APPID
  2
ACATTRIBSERVICES
 70
     0
  0
APPID
  2
GENIUS_GENSCREG_15
 70
     0
  0
APPID
  2
GENIUS_GENODEF_13
 70
     0
  0
APPID
  2
GENIUS_GENOBJ-N-SDF_13
 70
     0
  0
APPID
  2
GENIUS_GENREC_14
 70
     0
  0
APPID
  2
GENIUS_GENOBJ-N-REC_13
 70
     0
  0
APPID
  2
GENIUS_GENDIMSH_14
 70
     0
  0
APPID
  2
GENIUS_GENOBJ-N-DIM_13
 70
     0
  0
APPID
  2
GENIUS_GENDIM_13
 70
     0
  0
APPID
  2
GENIUS_GENDTOL_13
 70
     0
  0
APPID
  2
GENIUS_GENOLIS_13
 70
     0
  0
APPID
  2
GENIUS_GENOENT_13
 70
     0
  0
APPID
  2
GENIUS_GENOBJ-F-FEM_13
 70
     0
  0
APPID
  2
GENIUS_GENOREF_13
 70
     0
  0
APPID
  2
GENIUS_GEFFEM_13
 70
     0
  0
APPID
  2
GENIUS_GEFFEMP_13
 70
     0
  0
APPID
  2
AD_DRAW
 70
     0
  0
APPID
  2
DESIGNERASSEMBLIES
 70
     0
  0
APPID
  2
ACADM_DIM_EDIT
 70
     0
  0
APPID
  2
AMDT_DM_ADJ
 70
     0
  0
APPID
  2
GENIUS_GENOBJ-N-FIL_13
 70
     0
  0
APPID
  2
HATCH_TYPE
 70
     0
  0
APPID
  2
HATCH_DISPLAY
 70
     0
  0
APPID
  2
HATCH_DISTANCE
 70
     0
  0
ENDTAB
  0
TABLE
  2
DIMSTYLE
 70
    29
  0
DIMSTYLE
  2
BIGT
 70
     0
  3

  4

  5

  6

  7

 40
1.0
 41
2.2299999999999991
 42
0.5
 43
7.0
 44
1.0
 45
0.0
 46
0.0
 47
0.0
 48
0.01
140
2.799999999999998
141
0.0
142
0.0
143
25.399999999999999
144
1.0
145
0.0
146
1.0
147
1.0
 71
     0
 72
     0
 73
     0
 74
     0
 75
     0
 76
     0
 77
     3
 78
     9
170
     0
171
     2
172
     1
173
     0
174
     1
175
     0
176
   256
177
   256
178
    40
  0
DIMSTYLE
  2
AM_ANSI
 70
     0
  3

  4
mm
  5

  6

  7

 40
1.0
 41
0.1
 42
0.05
 43
0.5
 44
0.1
 45
0.0
 46
0.0
 47
0.1
 48
0.1
140
0.12
141
0.0
142
0.0
143
25.399999999999999
144
1.0
145
0.0
146
0.71
147
0.06
 71
     0
 72
     0
 73
     1
 74
     1
 75
     0
 76
     0
 77
     0
 78
     7
170
     0
171
     2
172
     0
173
     0
174
     0
175
     0
176
   256
177
   256
178
     2
  0
DIMSTYLE
  2
AM_ANSI$3
 70
     0
  3

  4
mm
  5

  6

  7

 40
1.0
 41
0.1
 42
0.05
 43
0.5
 44
0.1
 45
0.0
 46
0.0
 47
0.1
 48
0.1
140
0.12
141
0.0
142
0.0
143
25.399999999999999
144
1.0
145
0.0
146
0.71
147
0.06
 71
     0
 72
     0
 73
     1
 74
     1
 75
     0
 76
     0
 77
     0
 78
     7
170
     0
171
     2
172
     0
173
     0
174
     0
175
     0
176
   256
177
   256
178
     2
  0
DIMSTYLE
  2
AM_ANSI$4
 70
     0
  3

  4
mm
  5

  6

  7

 40
1.0
 41
0.1
 42
0.05
 43
0.5
 44
0.1
 45
0.0
 46
0.0
 47
0.1
 48
0.1
140
0.12
141
0.0
142
0.0
143
25.399999999999999
144
1.0
145
0.0
146
0.71
147
0.06
 71
     0
 72
     0
 73
     1
 74
     1
 75
     0
 76
     0
 77
     0
 78
     7
170
     0
171
     2
172
     0
173
     0
174
     0
175
     0
176
   256
177
   256
178
     2
  0
DIMSTYLE
  2
AM_ANSI$7
 70
     0
  3

  4
mm
  5

  6

  7

 40
1.0
 41
0.1
 42
0.05
 43
0.5
 44
0.1
 45
0.0
 46
0.0
 47
0.1
 48
0.1
140
0.24
141
0.0
142
0.0
143
25.399999999999999
144
1.0
145
0.0
146
0.71
147
0.06
 71
     0
 72
     0
 73
     1
 74
     1
 75
     0
 76
     0
 77
     0
 78
     7
170
     0
171
     2
172
     0
173
     0
174
     0
175
     0
176
   256
177
   256
178
     2
  0
DIMSTYLE
  2
AM_ANSI$SF
 70
     0
  3

  4
mm
  5

  6

  7

 40
1.0
 41
0.1
 42
0.05
 43
0.5
 44
0.1
 45
0.0
 46
0.0
 47
0.1
 48
0.1
140
0.12
141
0.0
142
0.0
143
25.399999999999999
144
1.0
145
0.0
146
0.71
147
0.06
 71
     0
 72
     0
 73
     1
 74
     1
 75
     1
 76
     1
 77
     0
 78
     7
170
     0
171
     2
172
     0
173
     0
174
     0
175
     0
176
   256
177
   256
178
     2
  0
DIMSTYLE
  2
AM_ANSI$SH
 70
     0
  3

  4
mm
  5

  6
GENAXEH
  7

 40
1.0
 41
0.1
 42
0.05
 43
0.5
 44
0.1
 45
0.0
 46
0.0
 47
0.1
 48
0.1
140
0.12
141
0.0
142
0.0
143
25.399999999999999
144
1.0
145
0.0
146
0.71
147
0.06
 71
     0
 72
     0
 73
     1
 74
     1
 75
     1
 76
     1
 77
     0
 78
     7
170
     0
171
     2
172
     0
173
     1
174
     0
175
     0
176
   256
177
   256
178
     2
  0
ENDTAB
  0
ENDSEC
  0
SECTION
  2
BLOCKS
  0
BLOCK
  8
0
  2
$MODEL_SPACE
 70
     0
 10
0.0
 20
0.0
 30
0.0
  3
$MODEL_SPACE
  1

  0
ENDBLK
  5
1837
  8
0
  0
BLOCK
 67
     1
  8
0
  2
$PAPER_SPACE
 70
     0
 10
0.0
 20
0.0
 30
0.0
  3
$PAPER_SPACE
  1

  0
ENDBLK
  5
1833
 67
     1
  8
0
  0
BLOCK
  8
0
  2
_OPEN
 70
     0
 10
0.0
 20
0.0
 30
0.0
  3
_OPEN
  1

  0
LINE
  5
595
  8
0
  6
BYBLOCK
 62
     0
 10
-1.0
 20
0.1666666666666666
 30
0.0
 11
0.0
 21
0.0
 31
0.0
  0
LINE
  5
596
  8
0
  6
BYBLOCK
 62
     0
 10
-1.0
 20
-0.1666666666666666
 30
0.0
 11
0.0
 21
0.0
 31
0.0
  0
LINE
  5
597
  8
0
  6
BYBLOCK
 62
     0
 10
0.0
 20
0.0
 30
0.0
 11
-1.0
 21
0.0
 31
0.0
  0
ENDBLK
  5
599
  8
0
  0
BLOCK
  8
0
  2
GENAXEH
 70
     0
 10
0.0
 20
0.0
 30
0.0
  3
GENAXEH
  1

  0
LINE
  5
6E8
  8
0
 10
-1.0
 20
0.0
 30
0.0
 11
1.0
 21
0.0
 31
0.0
  0
ENDBLK
  5
6EA
  8
0
  0
BLOCK
  8
0
  2
*X5
 70
     1
 10
0.0
 20
0.0
 30
0.0
  3
*X5
  1

  0
LINE
  5
16D1
  8
0
 62
     0
 10
4.2731626460786929
 20
-5.8571670211471281
 30
0.0
 11
3.510115154589633
 21
-5.094119529658065
 31
0.0
  0
LINE
  5
16D2
  8
0
 62
     0
 10
3.4940719416106631
 20
-5.3367076929658772
 30
0.0
 11
3.188391765925398
 21
-5.03102751728062
 31
0.0
  0
LINE
  5
16D3
  8
0
 62
     0
 10
4.336254658456145
 20
-6.1788904098113671
 30
0.0
 11
4.030574482770878
 21
-5.8732102341260974
 31
0.0
  0
LINE
  5
16D4
  8
0
 62
     0
 10
3.161466872339401
 20
-5.2627339999814282
 30
0.0
 11
2.940339387738502
 21
-5.0416065153805283
 31
0.0
  0
LINE
  5
16D5
  8
0
 62
     0
 10
4.3383903626899851
 20
-6.4396574903320083
 30
0.0
 11
4.1045481757553324
 21
-6.2058153033973564
 31
0.0
  0
LINE
  5
16D6
  8
0
 62
     0
 10
2.9211994892945912
 20
-5.281097993223403
 30
0.0
 11
2.7312050109658839
 21
-5.091103514894697
 31
0.0
  0
LINE
  5
16D7
  8
0
 62
     0
 10
4.338390362689978
 20
-6.6982888666187872
 30
0.0
 11
4.105585681181485
 21
-6.4654841851102951
 31
0.0
  0
LINE
  5
16D8
  8
0
 62
     0
 10
2.7241461983551192
 20
-5.342676078570725
 30
0.0
 11
2.549611000613679
 21
-5.1681408808292844
 31
0.0
  0
LINE
  5
16D9
  8
0
 62
     0
 10
4.338390362689978
 20
-6.9569202429055821
 30
0.0
 11
4.105585681181485
 21
-6.7241155613970891
 31
0.0
  0
LINE
  5
16DA
  8
0
 62
     0
 10
2.5574155323842751
 20
-5.4345767888866652
 30
0.0
 11
2.3904879894348241
 21
-5.2676492459372142
 31
0.0
  0
LINE
  5
16DB
  8
0
 62
     0
 10
4.3383903626899851
 20
-7.2155516191923716
 30
0.0
 11
4.105585681181485
 21
-6.9827469376838751
 31
0.0
  0
LINE
  5
16DC
  8
0
 62
     0
 10
2.4161255819181502
 20
-5.5519182147073352
 30
0.0
 11
2.251507783582793
 21
-5.3873004163719713
 31
0.0
  0
LINE
  5
16DD
  8
0
 62
     0
 10
4.3383903626899851
 20
-7.4741829954791603
 30
0.0
 11
4.105585681181493
 21
-7.2413783139706691
 31
0.0
  0
LINE
  5
16DE
  8
0
 62
     0
 10
2.2989457159389901
 20
-5.6933697250149731
 30
0.0
 11
2.1319866093836382
 21
-5.526410618459618
 31
0.0
  0
LINE
  5
16DF
  8
0
 62
     0
 10
4.3383903626899851
 20
-7.7328143717659659
 30
0.0
 11
4.105585681181477
 21
-7.5000096902574622
 31
0.0
  0
LINE
  5
16E0
  8
0
 62
     0
 10
2.207225207815394
 20
-5.8602805931781683
 30
0.0
 11
2.03261766024983
 21
-5.6856730456126012
 31
0.0
  0
LINE
  5
16E1
  8
0
 62
     0
 10
4.338390362689978
 20
-7.9914457480527474
 30
0.0
 11
4.105585681181485
 21
-7.758641066544258
 31
0.0
  0
LINE
  5
16E2
  8
0
 62
     0
 10
2.1458777492053511
 20
-6.0575645108549052
 30
0.0
 11
1.955742399326019
 21
-5.8674291609755747
 31
0.0
  0
LINE
  5
16E3
  8
0
 62
     0
 10
4.338390362689978
 20
-8.2500771243395317
 30
0.0
 11
4.105585681181485
 21
-8.0172724428310431
 31
0.0
  0
LINE
  5
16E4
  8
0
 62
     0
 10
2.127884606905837
 20
-6.298202744842186
 30
0.0
 11
1.9064556573934901
 21
-6.0767737953298466
 31
0.0
  0
LINE
  5
16E5
  8
0
 62
     0
 10
4.3383903626899851
 20
-8.5087085006263337
 30
0.0
 11
4.105585681181485
 21
-8.2759038191178362
 31
0.0
  0
LINE
  5
16E6
  8
0
 62
     0
 10
2.0859571237484991
 20
-6.514906637971646
 30
0.0
 11
1.896203437136684
 21
-6.325152951359831
 31
0.0
  0
LINE
  5
16E7
  8
0
 62
     0
 10
4.338390362689978
 20
-8.7673398769131232
 30
0.0
 11
4.105585681181485
 21
-8.5345351954046365
 31
0.0
  0
LINE
  5
16E8
  8
0
 62
     0
 10
4.338390362689978
 20
-9.0259712531999217
 30
0.0
 11
4.105585681181485
 21
-8.7931665716914225
 31
0.0
  0
LINE
  5
16E9
  8
0
 62
     0
 10
4.338390362689978
 20
-9.2846026294867023
 30
0.0
 11
4.105585681181485
 21
-9.0517979479782156
 31
0.0
  0
LINE
  5
16EA
  8
0
 62
     0
 10
4.338390362689978
 20
-9.5432340057735008
 30
0.0
 11
4.105585681181485
 21
-9.3104293242650016
 31
0.0
  0
LINE
  5
16EB
  8
0
 62
     0
 10
4.3383903626899851
 20
-9.8018653820602886
 30
0.0
 11
4.105585681181485
 21
-9.5690607005517911
 31
0.0
  0
LINE
  5
16EC
  8
0
 62
     0
 10
4.3383903626899851
 20
-10.06049675834708
 30
0.0
 11
4.105585681181493
 21
-9.8276920768385896
 31
0.0
  0
LINE
  5
16ED
  8
0
 62
     0
 10
4.338390362689978
 20
-10.31912813463388
 30
0.0
 11
4.105585681181485
 21
-10.086323453125379
 31
0.0
  0
LINE
  5
16EE
  8
0
 62
     0
 10
4.338390362689978
 20
-10.577759510920661
 30
0.0
 11
4.105585681181485
 21
-10.34495482941217
 31
0.0
  0
LINE
  5
16EF
  8
0
 62
     0
 10
4.338390362689978
 20
-10.836390887207459
 30
0.0
 11
4.105585681181485
 21
-10.60358620569896
 31
0.0
  0
LINE
  5
16F0
  8
0
 62
     0
 10
4.3331743680063184
 20
-11.08980626881058
 30
0.0
 11
4.105585681181485
 21
-10.862217581985741
 31
0.0
  0
LINE
  5
16F1
  8
0
 62
     0
 10
4.2927234683474307
 20
-11.30798674543848
 30
0.0
 11
4.0963826280125373
 21
-11.11164590510359
 31
0.0
  0
LINE
  5
16F2
  8
0
 62
     0
 10
4.2225300722551111
 20
-11.496424725632959
 30
0.0
 11
4.0447379717610339
 21
-11.31863262513888
 31
0.0
  0
LINE
  5
16F3
  8
0
 62
     0
 10
4.1288343457024572
 20
-11.661360375367099
 30
0.0
 11
3.960418835935497
 21
-11.492944865600141
 31
0.0
  0
LINE
  5
16F4
  8
0
 62
     0
 10
4.0145495478446014
 20
-11.80570695379603
 30
0.0
 11
3.849766277175481
 21
-11.640923683126911
 31
0.0
  0
LINE
  5
16F5
  8
0
 62
     0
 10
3.880757097170298
 20
-11.93054587940852
 30
0.0
 11
3.7149104705198961
 21
-11.76469925275811
 31
0.0
  0
LINE
  5
16F6
  8
0
 62
     0
 10
3.7271431977453031
 20
-12.03556335627032
 30
0.0
 11
3.555244829520197
 21
-11.86366498804521
 31
0.0
  0
LINE
  5
16F7
  8
0
 62
     0
 10
2.1267631408982761
 20
-10.69381467571009
 30
0.0
 11
1.9433546960822801
 21
-10.51040623089408
 31
0.0
  0
LINE
  5
16F8
  8
0
 62
     0
 10
3.551878254361716
 20
-12.11892978917353
 30
0.0
 11
3.367040741413724
 21
-11.93409227622552
 31
0.0
  0
LINE
  5
16F9
  8
0
 62
     0
 10
2.1267631408982761
 20
-10.95244605199688
 30
0.0
 11
1.8939584533982801
 21
-10.719641364496891
 31
0.0
  0
LINE
  5
16FA
  8
0
 62
     0
 10
3.3508120748548631
 20
-12.17649498595347
 30
0.0
 11
3.140443698089034
 21
-11.96612660918764
 31
0.0
  0
LINE
  5
16FB
  8
0
 62
     0
 10
2.1649602340683489
 20
-11.24927452145374
 30
0.0
 11
1.893959103096269
 21
-10.978273390481659
 31
0.0
  0
LINE
  5
16FC
  8
0
 62
     0
 10
3.1149140586925621
 20
-12.19922834607795
 30
0.0
 11
2.8439129277204782
 21
-11.928227215105871
 31
0.0
  0
LINE
  5
16FD
  8
0
 62
     0
 10
2.8198068968923562
 20
-12.162752560564529
 30
0.0
 11
1.930434888609696
 21
-11.27338055228187
 31
0.0
  0
ENDBLK
  5
16FE
  8
0
  0
BLOCK
  8
0
  2
*X6
 70
     1
 10
0.0
 20
0.0
 30
0.0
  3
*X6
  1

  0
LINE
  5
1701
  8
0
 62
     0
 10
3.9891833374314549
 20
-8.6767642279413888
 30
0.0
 11
3.9699999022341181
 21
-8.6575807927440565
 31
0.0
  0
LINE
  5
1702
  8
0
 62
     0
 10
3.9891833374314549
 20
-8.9353956042281784
 30
0.0
 11
3.6073930521298831
 21
-8.5536053189266141
 31
0.0
  0
LINE
  5
1703
  8
0
 62
     0
 10
3.9748178468112911
 20
-9.179661489894805
 30
0.0
 11
3.2447862020256362
 21
-8.4496298451091505
 31
0.0
  0
LINE
  5
1704
  8
0
 62
     0
 10
3.6122095777595682
 20
-9.0756845971298823
 30
0.0
 11
2.8821793519213919
 21
-8.3456543712917011
 31
0.0
  0
LINE
  5
1705
  8
0
 62
     0
 10
3.249601308707851
 20
-8.9717077043649454
 30
0.0
 11
2.5195725018171511
 21
-8.2416788974742428
 31
0.0
  0
LINE
  5
1706
  8
0
 62
     0
 10
2.8869930396561161
 20
-8.8677308116000084
 30
0.0
 11
2.1569656517128979
 21
-8.1377034236567951
 31
0.0
  0
LINE
  5
1707
  8
0
 62
     0
 10
2.52438477060439
 20
-8.763753918835075
 30
0.0
 11
1.8939584533982801
 21
-8.1333276016289702
 31
0.0
  0
LINE
  5
1708
  8
0
 62
     0
 10
2.1617765015526582
 20
-8.659777026070131
 30
0.0
 11
1.8939584533982901
 21
-8.3919589779157633
 31
0.0
  0
LINE
  5
1709
  8
0
 62
     0
 10
1.918015068738405
 20
-8.674646969542664
 30
0.0
 11
1.8939584533982801
 21
-8.6505903542025422
 31
0.0
  0
ENDBLK
  5
170A
  8
0
  0
BLOCK
  8
0
  2
*X7
 70
     1
 10
0.0
 20
0.0
 30
0.0
  3
*X7
  1

  0
LINE
  5
170D
  8
0
 62
     0
 10
3.868211204180473
 20
-7.0040038369696571
 30
0.0
 11
3.649960323505288
 21
-6.7857529562944654
 31
0.0
  0
LINE
  5
170E
  8
0
 62
     0
 10
3.9856529491582982
 20
-7.380076958234282
 30
0.0
 11
3.2873524678243831
 21
-6.6817764769003682
 31
0.0
  0
LINE
  5
170F
  8
0
 62
     0
 10
3.617185728354428
 20
-7.2702411137172014
 30
0.0
 11
2.924744612143483
 21
-6.5777999975062524
 31
0.0
  0
LINE
  5
1710
  8
0
 62
     0
 10
3.9698966386926511
 20
-7.6229520240554223
 30
0.0
 11
3.6965801245195551
 21
-7.3496355098823214
 31
0.0
  0
LINE
  5
1711
  8
0
 62
     0
 10
3.2412377906756031
 20
-7.1529245523251603
 30
0.0
 11
2.8018861877732841
 21
-6.7135729494228391
 31
0.0
  0
LINE
  5
1712
  8
0
 62
     0
 10
3.899258026677503
 20
-7.8109447883270624
 30
0.0
 11
3.6959786603753511
 21
-7.6076654220249154
 31
0.0
  0
LINE
  5
1713
  8
0
 62
     0
 10
3.034690875273276
 20
-7.2050090132096241
 30
0.0
 11
2.8018861877732761
 21
-6.9722043257096251
 31
0.0
  0
LINE
  5
1714
  8
0
 62
     0
 10
3.792131315773708
 20
-7.9624494537100619
 30
0.0
 11
3.5455738235496872
 21
-7.7158919614860322
 31
0.0
  0
LINE
  5
1715
  8
0
 62
     0
 10
2.202988506504409
 20
-6.6319380207275582
 30
0.0
 11
2.1787499076577741
 21
-6.6076994218809206
 31
0.0
  0
LINE
  5
1716
  8
0
 62
     0
 10
3.6531656331833751
 20
-8.082115147406526
 30
0.0
 11
3.2290805876554312
 21
-7.658030101878575
 31
0.0
  0
LINE
  5
1717
  8
0
 62
     0
 10
2.2677871082174681
 20
-6.9553679987274011
 30
0.0
 11
1.982121972154764
 21
-6.669702862664697
 31
0.0
  0
LINE
  5
1718
  8
0
 62
     0
 10
3.4804499382598562
 20
-8.168030828769794
 30
0.0
 11
2.8664723785437469
 21
-7.5540532690536812
 31
0.0
  0
LINE
  5
1719
  8
0
 62
     0
 10
2.1576583608831101
 20
-7.1038706276798393
 30
0.0
 11
1.983335797400418
 21
-6.929548064197145
 31
0.0
  0
LINE
  5
171A
  8
0
 62
     0
 10
3.262962952369413
 20
-8.2091752191661413
 30
0.0
 11
2.503864169432068
 21
-7.4500764362287972
 31
0.0
  0
LINE
  5
171B
  8
0
 62
     0
 10
2.9676848492862362
 20
-8.1725284923697501
 30
0.0
 11
1.9129553288231691
 21
-7.1177989719066872
 31
0.0
  0
LINE
  5
171C
  8
0
 62
     0
 10
2.623189712588176
 20
-8.0866647319584857
 30
0.0
 11
1.8976699797883021
 21
-7.3611449991586113
 31
0.0
  0
ENDBLK
  5
171D
  8
0
  0
BLOCK
  8
0
  2
A$C7D4E6442
 70
     0
 10
0.0
 20
0.0
 30
0.0
  3
A$C7D4E6442
  1

  0
TEXT
  5
171F
  8
247
 10
-114.6078233883561
 20
-6.5818186580768092
 30
0.0
 40
2.0
  1
ST20-CM18-45B-42
 41
0.7
  7
YOKO
 11
-114.6078233883561
 21
-6.5818186580768092
 31
0.0
 73
     1
  0
INSERT
  5
1720
  8
247
  6
CONTINUOUS
  2
*X5
 10
-110.6078233883559
 20
-2.5402170193110689
 30
0.0
 50
270.0
1001
ACAD
1000
HATCH
1002
{
1070
    19
1000
ANSI31
1040
0.0576
1040
6.2831853071795827
1002
}
  0
INSERT
  5
1721
  8
247
  6
CONTINUOUS
  2
*X6
 10
-110.6078233883559
 20
-2.5402170193110689
 30
0.0
 50
270.0
1001
ACAD
1000
HATCH
1002
{
1070
    19
1000
ANSI31
1040
0.0576
1040
6.2831853071795827
1002
}
  0
INSERT
  5
1722
  8
247
  6
CONTINUOUS
  2
*X7
 10
-110.6078233883559
 20
-2.5402170193110689
 30
0.0
 50
270.0
1001
ACAD
1000
HATCH
1002
{
1070
    19
1000
ANSI31
1040
0.0576
1040
6.2831853071795827
1002
}
  0
LINE
  5
1723
  8
247
 10
-119.2755719153819
 20
-4.4341754727093532
 30
0.0
 11
-118.6701109778819
 21
-4.4341754727093532
 31
0.0
  0
POLYLINE
  5
1724
  8
247
 66
     1
 10
0.0
 20
0.0
 30
0.0
 70
     1
1001
HATCH_DISTANCE
1040
1.0
1001
HATCH_DISPLAY
1070
     0
1001
HATCH_TYPE
1070
     7
  0
VERTEX
  5
1725
  8
247
 10
-119.2755719153819
 20
-4.4341754727093532
 30
0.0
  0
VERTEX
  5
1726
  8
247
 10
-119.3490045325694
 20
-4.69025359770934
 30
0.0
  0
VERTEX
  5
1727
  8
247
 10
-119.2642340247569
 20
-4.69025359770934
 30
0.0
  0
VERTEX
  5
1728
  8
247
 10
-119.7916041419444
 20
-6.5294003567425252
 30
0.0
  0
VERTEX
  5
1729
  8
247
 10
-119.27090492319439
 20
-6.5294003567425252
 30
0.0
  0
VERTEX
  5
172A
  8
247
 10
-118.6701109778819
 20
-4.4341754727093532
 30
0.0
  0
SEQEND
  5
172B
  8
247
  0
POLYLINE
  5
172C
  8
247
 66
     1
 10
0.0
 20
0.0
 30
0.0
 70
     1
  0
VERTEX
  5
172D
  8
247
 10
-119.2755719153819
 20
-4.4341754727093532
 30
0.0
  0
VERTEX
  5
172E
  8
247
 10
-119.3490045325694
 20
-4.69025359770934
 30
0.0
  0
VERTEX
  5
172F
  8
247
 10
-119.2642340247569
 20
-4.69025359770934
 30
0.0
  0
VERTEX
  5
1730
  8
247
 10
-119.7916041419444
 20
-6.5294003567425252
 30
0.0
  0
VERTEX
  5
1731
  8
247
 10
-119.27090492319439
 20
-6.5294003567425252
 30
0.0
  0
VERTEX
  5
1732
  8
247
 10
-118.6701109778819
 20
-4.4341754727093532
 30
0.0
  0
SEQEND
  5
1733
  8
247
  0
LINE
  5
1734
  8
247
 10
-119.27090492319439
 20
-6.5294003567425252
 30
0.0
 11
-118.6701109778819
 21
-4.4341754727093532
 31
0.0
  0
LINE
  5
1735
  8
247
 10
-121.58483656381939
 20
-6.8786073820010483
 30
0.0
 11
-116.8589312903819
 21
-6.8786073820010483
 31
0.0
  0
LINE
  5
1736
  8
247
 10
-121.58483656381939
 20
-6.6458027004925491
 30
0.0
 11
-116.8589312903819
 21
-6.6458027004925491
 31
0.0
  0
ARC
  5
1737
  8
247
 10
-118.0609937903819
 20
-5.7727936367718478
 30
0.0
 40
0.756615234375
 50
163.99975070172931
 51
304.96387329163002
  0
ARC
  5
1738
  8
247
 10
-121.58483656381939
 20
-5.6563912930218532
 30
0.0
 40
0.9894111328124999
 50
90.0
 51
270.0
  0
ARC
  5
1739
  8
247
 10
-121.58483656381939
 20
-5.6563912930218532
 30
0.0
 40
1.2222158203124971
 50
90.0
 51
270.0
  0
LINE
  5
173A
  8
247
 10
-119.7916041419444
 20
-6.5294003567425252
 30
0.0
 11
-119.27090492319439
 21
-6.5294003567425252
 31
0.0
  0
LINE
  5
173B
  8
247
 10
-120.2754772372752
 20
-6.4857644725731909
 30
0.0
 11
-119.9582163139556
 21
-6.1685035492536251
 31
0.0
  0
LINE
  5
173C
  8
247
 10
-121.3536386265916
 20
-6.5294003567425252
 30
0.0
 11
-120.69159773825859
 21
-5.8673594684095569
 31
0.0
  0
LINE
  5
173D
  8
247
 10
-121.0950072503049
 20
-6.5294003567425252
 30
0.0
 11
-120.7955685382114
 21
-6.2299616446491202
 31
0.0
  0
LINE
  5
173E
  8
247
 10
-120.5777444977313
 20
-6.5294003567425527
 30
0.0
 11
-119.91958484279959
 21
-5.871240701810831
 31
0.0
  0
LINE
  5
173F
  8
247
 10
-120.6161594010666
 20
-5.6042653568883161
 30
0.0
 11
-120.80694336385579
 21
-6.2696317879475139
 31
0.0
  0
ARC
  5
1740
  8
247
 10
-120.7563092200694
 20
-5.9241149258343277
 30
0.0
 40
0.3492072715759277
 50
261.66285421114719
 51
66.338192159113646
  0
LINE
  5
1741
  8
247
 10
-120.8363758740181
 20
-6.5294003567425252
 30
0.0
 11
-119.9821625442074
 21
-5.6751870269318756
 31
0.0
  0
LINE
  5
1742
  8
247
 10
-121.46267738413189
 20
-6.5294003567425252
 30
0.0
 11
-120.4965836341318
 21
-6.5294003567425252
 31
0.0
  0
LINE
  5
1743
  8
247
 10
-121.402537481916
 20
-6.3196678357800922
 30
0.0
 11
-120.4175164478636
 21
-5.3346468017276552
 31
0.0
  0
LINE
  5
1744
  8
247
 10
-121.298561324468
 20
-5.9570603020454014
 30
0.0
 11
-120.48364481559651
 21
-5.1421437931737843
 31
0.0
  0
ARC
  5
1745
  8
247
 10
-120.4965836341318
 20
-5.9473971523968707
 30
0.0
 40
0.5820029296875
 50
270.0
 51
40.329840654167079
  0
LINE
  5
1746
  8
247
 10
-120.4151558345813
 20
-5.8495489410189627
 30
0.0
 11
-119.6517794434659
 21
-5.086172549903619
 31
0.0
  0
LINE
  5
1747
  8
247
 10
-119.3490045325694
 20
-4.69025359770934
 30
0.0
 11
-119.2755719153819
 21
-4.4341754727093532
 31
0.0
  0
LINE
  5
1748
  8
247
 10
-119.3490045325694
 20
-4.69025359770934
 30
0.0
 11
-119.2642340247569
 21
-4.69025359770934
 31
0.0
  0
LINE
  5
1749
  8
247
 10
-120.29975379033711
 20
-4.6996213916277272
 30
0.0
 11
-120.059655885978
 21
-4.4595234872685534
 31
0.0
  0
LINE
  5
174A
  8
247
 10
-121.0430066877792
 20
-4.6669801602094019
 30
0.0
 11
-120.8102020002792
 21
-4.43417547270941
 31
0.0
  0
LINE
  5
174B
  8
247
 10
-121.1040660560069
 20
-4.4341754727093532
 30
0.0
 11
-121.1708189856943
 21
-4.666980160209345
 31
0.0
  0
LINE
  5
174C
  8
247
 10
-120.9829791419442
 20
-4.4341754727093532
 30
0.0
 11
-121.04973207163221
 21
-4.666980160209345
 31
0.0
  0
LINE
  5
174D
  8
247
 10
-120.9829791419442
 20
-4.4341754727093532
 30
0.0
 11
-120.23196202026649
 21
-4.4341754727094367
 31
0.0
  0
LINE
  5
174E
  8
247
 10
-121.58483656381939
 20
-4.4341754727093532
 30
0.0
 11
-121.1040660560069
 21
-4.4341754727093532
 31
0.0
  0
LINE
  5
174F
  8
247
 10
-120.1773858265753
 20
-4.8358848041526814
 30
0.0
 11
-119.8870955864142
 21
-4.54559456399154
 31
0.0
  0
LINE
  5
1750
  8
247
 10
-121.04973207163221
 20
-4.666980160209345
 30
0.0
 11
-120.9286363685071
 21
-4.666980160210084
 31
0.0
  0
LINE
  5
1751
  8
247
 10
-121.58483656381939
 20
-4.666980160209345
 30
0.0
 11
-121.1708189856943
 21
-4.666980160209345
 31
0.0
  0
LINE
  5
1752
  8
247
 10
-120.9866328521243
 20
-4.8692377008412224
 30
0.0
 11
-120.5515706239925
 21
-4.43417547270941
 31
0.0
  0
LINE
  5
1753
  8
247
 10
-120.1475468754261
 20
-5.064677229290238
 30
0.0
 11
-119.75797070577551
 21
-4.6751010596395126
 31
0.0
  0
ARC
  5
1754
  8
247
 10
-120.22956312631941
 20
-5.016178402396843
 30
0.0
 40
0.5820078735351563
 50
287.66957754739968
 51
90.236159842671569
  0
LINE
  5
1755
  8
247
 10
-121.0906090095722
 20
-5.2318452345759683
 30
0.0
 11
-120.2929392477057
 21
-4.4341754727094367
 31
0.0
  0
LINE
  5
1756
  8
247
 10
-120.5054364232418
 20
-5.6811981533927964
 30
0.0
 11
-119.6723497998053
 21
-4.8481115299561681
 31
0.0
  0
LINE
  5
1757
  8
247
 10
-119.7916041419444
 20
-6.5294003567425252
 30
0.0
 11
-119.2642340247569
 21
-4.69025359770934
 31
0.0
  0
LINE
  5
1758
  8
247
 10
-120.3491416718206
 20
-4.6730650861550602
 30
0.0
 11
-120.5399224960241
 21
-5.3384117823666033
 31
0.0
  0
ARC
  5
1759
  8
247
 10
-120.48928871225679
 20
-4.9929049648968764
 30
0.0
 40
0.349197280883789
 50
261.6626016879294
 51
66.338155095189776
  0
LINE
  5
175A
  8
247
 10
-121.19458516702019
 20
-5.5944527683106564
 30
0.0
 11
-120.3796720901156
 21
-4.7795396914061827
 31
0.0
  0
LINE
  5
175B
  8
247
 10
-121.46267738413189
 20
-6.5294003567425252
 30
0.0
 11
-120.9286363685071
 21
-4.666980160210084
 31
0.0
  0
ARC
  5
175C
  8
247
 10
-116.8589312903819
 20
-5.6563912930218532
 30
0.0
 40
1.2222158203124971
 50
270.0
 51
104.7707939660941
  0
ARC
  5
175D
  8
247
 10
-116.8589312903819
 20
-5.6563912930218532
 30
0.0
 40
0.9894111328124999
 50
270.0
 51
104.1274364964102
  0
LINE
  5
175E
  8
247
 10
-117.8510142981944
 20
-6.0962487148968432
 30
0.0
 11
-117.7015211341318
 21
-5.5749078945843404
 31
0.0
  0
LINE
  5
175F
  8
247
 10
-117.8952672278819
 20
-5.5749078945843404
 30
0.0
 11
-117.7015211341318
 21
-5.5749078945843404
 31
0.0
  0
LINE
  5
1760
  8
247
 10
-117.6274117591319
 20
-6.3928446926800691
 30
0.0
 11
-117.4908473060069
 21
-6.5294003567425252
 31
0.0
  0
LINE
  5
1761
  8
247
 10
-117.8952672278819
 20
-5.5749078945843404
 30
0.0
 11
-117.82851429819441
 21
-5.3421032070843459
 31
0.0
  0
LINE
  5
1762
  8
247
 10
-117.82851429819441
 20
-5.3421032070843459
 30
0.0
 11
-117.1503941810069
 21
-5.3421032070843459
 31
0.0
  0
LINE
  5
1763
  8
247
 10
-117.4908473060069
 20
-6.5294003567425252
 30
0.0
 11
-117.1503941810069
 21
-5.3421032070843459
 31
0.0
  0
POLYLINE
  5
1764
  8
247
 66
     1
 10
0.0
 20
0.0
 30
0.0
 70
     1
1001
HATCH_DISTANCE
1040
1.0
1001
HATCH_DISPLAY
1070
     0
1001
HATCH_TYPE
1070
     7
  0
VERTEX
  5
1765
  8
247
 10
-117.10042836069439
 20
-4.6968981289593454
 30
0.0
  0
VERTEX
  5
1766
  8
247
 10
-117.1705387122569
 20
-4.4745612148968608
 30
0.0
  0
VERTEX
  5
1767
  8
247
 10
-117.1705387122569
 20
-4.4745612148968608
 30
0.0
  0
VERTEX
  5
1768
  8
247
 10
-117.10042836069439
 20
-4.6968981289593454
 30
0.0
  0
SEQEND
  5
1769
  8
247
  0
POLYLINE
  5
176A
  8
247
 66
     1
 10
0.0
 20
0.0
 30
0.0
 70
     1
  0
VERTEX
  5
176B
  8
247
 10
-117.10042836069439
 20
-4.6968981289593454
 30
0.0
  0
VERTEX
  5
176C
  8
247
 10
-117.1705387122569
 20
-4.4745612148968608
 30
0.0
  0
VERTEX
  5
176D
  8
247
 10
-117.1705387122569
 20
-4.4745612148968608
 30
0.0
  0
VERTEX
  5
176E
  8
247
 10
-117.10042836069439
 20
-4.6968981289593454
 30
0.0
  0
SEQEND
  5
176F
  8
247
  0
LINE
  5
1770
  8
247
 10
-117.10042836069439
 20
-4.6968981289593454
 30
0.0
 11
-117.1705387122569
 21
-4.4745612148968608
 31
0.0
  0
POLYLINE
  5
1771
  8
247
 66
     1
 10
0.0
 20
0.0
 30
0.0
 70
     1
1001
HATCH_DISTANCE
1040
1.0
1001
HATCH_DISPLAY
1070
     0
1001
HATCH_TYPE
1070
     7
  0
VERTEX
  5
1772
  8
247
 10
-117.10042836069439
 20
-4.6968981289593454
 30
0.0
  0
VERTEX
  5
1773
  8
247
 10
-117.1705387122569
 20
-4.4745612148968608
 30
0.0
  0
VERTEX
  5
1774
  8
247
 10
-117.1705387122569
 20
-4.4745612148968608
 30
0.0
  0
VERTEX
  5
1775
  8
247
 10
-117.10042836069439
 20
-4.6968981289593454
 30
0.0
  0
SEQEND
  5
1776
  8
247
  0
POLYLINE
  5
1777
  8
247
 66
     1
 10
0.0
 20
0.0
 30
0.0
 70
     1
  0
VERTEX
  5
1778
  8
247
 10
-117.10042836069439
 20
-4.6968981289593454
 30
0.0
  0
VERTEX
  5
1779
  8
247
 10
-117.1705387122569
 20
-4.4745612148968608
 30
0.0
  0
VERTEX
  5
177A
  8
247
 10
-117.1705387122569
 20
-4.4745612148968608
 30
0.0
  0
VERTEX
  5
177B
  8
247
 10
-117.10042836069439
 20
-4.6968981289593454
 30
0.0
  0
SEQEND
  5
177C
  8
247
  0
LINE
  5
177D
  8
247
 10
-117.2114430091319
 20
-4.7319049648968532
 30
0.0
 11
-117.2815533606944
 21
-4.5095680508343161
 31
0.0
  0
ARC
  5
177E
  8
247
 10
-116.8589312903819
 20
-5.6563912930218532
 30
0.0
 40
1.222216369628905
 50
110.22964506332001
 51
118.57168892371671
  0
ARC
  5
177F
  8
247
 10
-117.7722379310069
 20
-4.9347037930218498
 30
0.0
 40
0.2444448051452637
 50
1.7101213820627339
 51
163.99839835444709
  0
ARC
  5
1780
  8
247
 10
-116.8589312903819
 20
-5.6563912930218532
 30
0.0
 40
0.9894138793945311
 50
110.8721834020736
 51
132.5419489373877
  0
ARC
  5
1781
  8
247
 10
-116.82396839975679
 20
-5.8125729336468428
 30
0.0
 40
1.9799648437499999
 50
155.2051773698409
 51
172.79482596205219
  0
ARC
  5
1782
  8
247
 10
-118.08598988413191
 20
-6.0288717617718639
 30
0.0
 40
0.2444446334838867
 50
164.000273057182
 51
344.00027305718248
  0
LINE
  5
1783
  8
247
 10
-118.3209654700694
 20
-5.9614948086468571
 30
0.0
 11
-118.0072135169444
 21
-4.8673180508343528
 31
0.0
  0
ARC
  5
1784
  8
247
 10
-117.89410707163179
 20
-5.1907819180218358
 30
0.0
 40
0.7566075439453125
 50
53.444012197057482
 51
164.00018438768521
  0
LINE
  5
1785
  8
241
 10
-5.8818661277116462
 20
7.4499999999999851
 30
0.0
 11
-6.8472483688315151
 21
6.484617758868529
 31
0.0
  0
LINE
  5
1786
  8
240
 10
-0.2531358191362045
 20
6.007662494907664
 30
0.0
 11
-0.059023269440786
 21
6.2017750446007263
 31
0.0
  0
LINE
  5
1787
  8
241
 10
-44.131815475576552
 20
-7.0500000000000087
 30
0.0
 11
-44.131815475576552
 21
-2.9532489959167072
 31
0.0
  0
CIRCLE
  5
1788
  8
246
 10
-3.4531358177917322
 20
6.3431964013059172
 30
0.0
 40
2.4999999993661439
  0
ARC
  5
1789
  8
241
 10
-33.540648829415602
 20
-2.4631595848114829
 30
0.0
 40
10.6024996372379
 50
166.5663745316543
 51
182.6493812767097
  0
ARC
  5
178A
  8
241
 10
-42.290822746411791
 20
-0.3841685765674147
 30
0.0
 40
1.608780174658708
 50
79.965068601304424
 51
166.18457192059441
  0
ARC
  5
178B
  8
241
 10
-6.705827012594197
 20
6.3431964026312198
 30
0.0
 40
0.2
 50
135.00000000000011
 51
225.0000000157826
1001
GENIUS_GENOBJ-N-FIL_13
1002
{
1000
OWNER
1000
GEN
1002
}
1001
GENIUS_GENODEF_13
1002
{
1000
HIER
1070
     0
1002
}
1002
{
1000
MANEDIT
1070
     0
1002
}
1002
{
1000
NOSEL
1070
     0
1002
}
1002
{
1000
BEHIND
1070
     0
1002
}
1002
{
1000
OTHER
1070
     0
1002
}
1002
{
1000
REACTOR
1002
}
  0
ARC
  5
178C
  8
241
 10
-3.453135817343862
 20
3.0905052092117882
 30
0.0
 40
0.2
 50
225.0000000000004
 51
314.99999998386733
1001
GENIUS_GENODEF_13
1002
{
1000
HIER
1070
     0
1002
}
1002
{
1000
MANEDIT
1070
     0
1002
}
1002
{
1000
NOSEL
1070
     0
1002
}
1002
{
1000
BEHIND
1070
     0
1002
}
1002
{
1000
OTHER
1070
     0
1002
}
1002
{
1000
REACTOR
1002
}
1001
GENIUS_GENOBJ-N-FIL_13
1002
{
1000
OWNER
1000
GEN
1002
}
  0
ARC
  5
178D
  8
240
 10
-0.2004446256781023
 20
6.3431964008380337
 30
0.0
 40
0.2
 50
315.0
 51
45.000000000000227
1001
GENIUS_GENODEF_13
1002
{
1000
HIER
1070
     0
1002
}
1002
{
1000
MANEDIT
1070
     0
1002
}
1002
{
1000
NOSEL
1070
     0
1002
}
1002
{
1000
BEHIND
1070
     0
1002
}
1002
{
1000
OTHER
1070
     0
1002
}
1002
{
1000
REACTOR
1002
}
1001
GENIUS_GENOBJ-N-FIL_13
1002
{
1000
OWNER
1000
GEN
1002
}
  0
ARC
  5
178E
  8
240
 10
-3.453135819136234
 20
9.5958875961281596
 30
0.0
 40
0.2
 50
45.000000000000227
 51
135.0000000000002
1001
GENIUS_GENODEF_13
1002
{
1000
HIER
1070
     0
1002
}
1002
{
1000
MANEDIT
1070
     0
1002
}
1002
{
1000
NOSEL
1070
     0
1002
}
1002
{
1000
BEHIND
1070
     0
1002
}
1002
{
1000
OTHER
1070
     0
1002
}
1002
{
1000
REACTOR
1002
}
1001
GENIUS_GENOBJ-N-FIL_13
1002
{
1000
OWNER
1000
GEN
1002
}
  0
ARC
  5
178F
  8
241
 10
87.585365786902699
 20
29.977839311795879
 30
0.0
 40
93.430628046092565
 50
197.83916789019429
 51
199.9237836905279
  0
LINE
  5
1790
  8
245
 10
-129.04002341824381
 20
-0.0000000000000275
 30
0.0
 11
2.9561731596666041
 21
0.0000000000000009
 31
0.0
  0
LINE
  5
1791
  8
245
 10
-48.381810367162863
 20
2.399999999999749
 30
0.0
 11
2.9561731596666041
 21
2.4000000000001189
 31
0.0
  0
LINE
  5
1792
  8
241
 10
-42.010495132016899
 20
1.2000000000000171
 30
0.0
 11
-1.3031358917327209
 21
1.2000000000000171
 31
0.0
  0
LINE
  5
1793
  8
240
 10
-5.8818661277390287
 20
7.449999999999986
 30
0.0
 11
-42.010495132016899
 21
7.449999999999986
 31
0.0
  0
LINE
  5
1794
  8
240
 10
-42.131815475576552
 20
-5.0499999999999821
 30
0.0
 11
-0.2531358191362187
 21
-5.0499999999999821
 31
0.0
  0
LINE
  5
1795
  8
240
 10
-0.0590232694408002
 20
6.4846177570753438
 30
0.0
 11
-3.3117144628989319
 21
9.7373089523654706
 31
0.0
  0
LINE
  5
1796
  8
241
 10
-3.3117144611463791
 20
2.9490838529346579
 30
0.0
 11
-0.2531358191362045
 21
6.007662494907664
 31
0.0
  0
LINE
  5
1797
  8
240
 10
-0.2531358191362045
 20
6.007662494907656
 30
0.0
 11
-0.2531358191362187
 21
-5.0499999999999821
 31
0.0
  0
LINE
  5
1798
  8
241
 10
-6.8472483687925481
 20
6.201775046354955
 30
0.0
 11
-3.5945571735811641
 21
2.9490838529744781
 31
0.0
  0
LINE
  5
1799
  8
241
 10
-1.353135819136241
 20
1.3557291666666631
 30
0.0
 11
-1.353135819136227
 21
4.9076624967373217
 31
0.0
  0
LINE
  5
179A
  8
240
 10
-3.5945571753735521
 20
9.7373089523654706
 30
0.0
 11
-5.8818661277116462
 21
7.4499999999999851
 31
0.0
  0
ARC
  5
179B
  8
240
 10
-123.8531358191362
 20
-8.0000000000000284
 30
0.0
 40
2.0
 50
180.0
 51
270.0
  0
LINE
  5
179C
  8
240
 10
-44.131815475576552
 20
-8.3286796564403573
 30
0.0
 11
-44.131815475576552
 21
-7.0500000000000087
 31
0.0
  0
LINE
  5
179D
  8
241
 10
-45.80313581913623
 20
-10.00000000000003
 30
0.0
 11
-45.80313581913623
 21
0.0000000000000009
 31
0.0
  0
LINE
  5
179E
  8
240
 10
-123.8531358191362
 20
-10.00000000000003
 30
0.0
 11
-45.80313581913623
 21
-10.00000000000003
 31
0.0
  0
LINE
  5
179F
  8
240
 10
-45.80313581913623
 20
-10.00000000000003
 30
0.0
 11
-44.131815475576552
 21
-8.3286796564403573
 31
0.0
  0
LINE
  5
17A0
  8
240
 10
-45.80313581913623
 20
10.0
 30
0.0
 11
-123.8531358191362
 21
10.0
 31
0.0
  0
LINE
  5
17A1
  8
241
 10
-45.80313581913623
 20
0.0000000000000009
 30
0.0
 11
-45.80313581913623
 21
10.0
 31
0.0
  0
ARC
  5
17A2
  8
240
 10
-42.131815475576552
 20
-7.0500000000000087
 30
0.0
 40
2.0
 50
90.0
 51
180.0
  0
LINE
  5
17A3
  8
240
 10
-44.131815475576552
 20
8.3286796564403573
 30
0.0
 11
-45.80313581913623
 21
10.0
 31
0.0
  0
ARC
  5
17A4
  8
240
 10
-42.010495132016899
 20
10.44999999999999
 30
0.0
 40
3.0000000000000142
 50
225.0
 51
270.0
  0
LINE
  5
17A5
  8
240
 10
-125.8531358191362
 20
0.0000000000000009
 30
0.0
 11
-125.8531358191362
 21
8.0
 31
0.0
  0
LINE
  5
17A6
  8
240
 10
-125.8531358191362
 20
-8.0000000000000284
 30
0.0
 11
-125.8531358191362
 21
0.0000000000000009
 31
0.0
  0
ARC
  5
17A7
  8
240
 10
-123.8531358191361
 20
7.9999999999999707
 30
0.0
 40
2.0
 50
90.0
 51
180.0
  0
LINE
  5
17A8
  8
241
 10
-43.253135819136148
 20
7.7194608366266086
 30
0.0
 11
-43.253135819136148
 21
0.9050665456809262
 31
0.0
  0
ENDBLK
  5
17AB
  8
0
  0
BLOCK
  8
0
  2
*U29
 70
     1
 10
0.0
 20
0.0
 30
0.0
  3
*U29
  1

  0
TEXT
  5
19DE
  8
240
 62
    40
 10
-7.933191716369822
 20
15.71485985729138
 30
0.0
 40
2.799999999999998
  1
45üï
 50
18.646822837701979
  0
ENDBLK
  5
19E0
  8
0
  0
ENDSEC
  0
SECTION
  2
ENTITIES
  0
TEXT
  5
1462
  8
241
 10
-126.65721826698361
 20
21.421062086866471
 30
0.0
 40
3.0
  1
ST20-CM18-45B-42
  7
YOKO
 11
-126.65721826698361
 21
21.421062086866471
 31
0.0
 73
     1
  0
LINE
  5
153F
  8
250
 10
-125.8531358191362
 20
-7.5000000000000249
 30
0.0
 11
-125.8531358191362
 21
-32.777016439767472
 31
0.0
  0
LINE
  5
1540
  8
250
 10
0.0
 20
5.8431964026700589
 30
0.0
 11
0.0
 21
-32.777016439767472
 31
0.0
  0
LINE
  5
1541
  8
250
 10
-123.6231358191361
 20
-31.777016439767461
 30
0.0
 11
-2.2300000000000031
 21
-31.777016439767461
 31
0.0
  0
LINE
  5
1545
  8
250
 10
-43.253135819136148
 20
0.4594039542052723
 30
0.0
 11
-43.253135819136148
 21
-25.777016439767468
 31
0.0
  0
LINE
  5
1546
  8
250
 10
0.0
 20
5.8431964026700589
 30
0.0
 11
0.0
 21
-25.777016439767468
 31
0.0
  0
LINE
  5
1547
  8
250
 10
-41.023135819136151
 20
-24.777016439767468
 30
0.0
 11
-2.2300000000000031
 21
-24.777016439767468
 31
0.0
  0
LINE
  5
154B
  8
250
 10
-124.3531358191362
 20
-10.0
 30
0.0
 11
-138.17502956131301
 21
-9.9999999999999964
 31
0.0
  0
LINE
  5
154C
  8
250
 10
-124.3531358191361
 20
9.9999999999999716
 30
0.0
 11
-138.17502956131301
 21
9.9999999999999751
 31
0.0
  0
LINE
  5
154D
  8
250
 10
-137.17502956131301
 20
-7.769999999999996
 30
0.0
 11
-137.17502956131301
 21
7.7699999999999738
 31
0.0
  0
LINE
  5
1551
  8
250
 10
-2.953135819136234
 20
9.8499999999999357
 30
0.0
 11
17.824972873704692
 21
9.8499999999999304
 31
0.0
  0
LINE
  5
1552
  8
250
 10
16.824972873704692
 20
7.6199999999999299
 30
0.0
 11
16.824972873704692
 21
-6.609523274458204
 31
0.0
  0
LINE
  5
1555
  8
250
 10
3.4561731596666041
 20
0.0000000000000007
 30
0.0
 11
10.82497043868687
 21
-0.0000000000000013
 31
0.0
  0
LINE
  5
1556
  8
250
 10
3.4561731596666041
 20
2.400000000000118
 30
0.0
 11
10.82497043868687
 21
2.400000000000118
 31
0.0
  0
LINE
  5
1557
  8
250
 10
9.8249704386868775
 20
4.630000000000118
 30
0.0
 11
9.8249704386868775
 21
6.8600000000001158
 31
0.0
  0
LINE
  5
1558
  8
250
 10
9.8249704386868775
 20
-2.23
 30
0.0
 11
9.8249704386868775
 21
-12.67428571428569
 31
0.0
  0
LINE
  5
1559
  8
250
 10
9.8249704386868775
 20
2.400000000000118
 30
0.0
 11
9.8249704386868775
 21
-0.0000000000000011
 31
0.0
  0
TEXT
  5
155D
  8
250
 10
8.8249704386868757
 20
-12.07428571428567
 30
0.0
 40
2.799999999999998
  1
2.4
 50
90.0
  0
LINE
  5
155E
  8
250
 10
9.4533037720202042
 20
-2.2299999999999991
 30
0.0
 11
9.8249704386868775
 21
-0.0000000000000011
 31
0.0
  0
LINE
  5
155F
  8
250
 10
10.19663710535354
 20
-2.2299999999999991
 30
0.0
 11
9.8249704386868775
 21
-0.0000000000000011
 31
0.0
  0
LINE
  5
1560
  8
250
 10
9.8249704386868775
 20
-0.0000000000000011
 30
0.0
 11
9.8249704386868775
 21
-2.2299999999999991
 31
0.0
  0
LINE
  5
1561
  8
250
 10
10.19663710535354
 20
4.630000000000118
 30
0.0
 11
9.8249704386868775
 21
2.400000000000118
 31
0.0
  0
LINE
  5
1562
  8
250
 10
9.4533037720202042
 20
4.630000000000118
 30
0.0
 11
9.8249704386868775
 21
2.400000000000118
 31
0.0
  0
LINE
  5
1563
  8
250
 10
9.8249704386868775
 20
2.400000000000118
 30
0.0
 11
9.8249704386868775
 21
4.630000000000118
 31
0.0
  0
TEXT
  5
1564
  8
250
 10
15.824972873704681
 20
-5.8952375601724682
 30
0.0
 40
3.0
  1
\U+2205
 50
90.0
  0
TEXT
  5
1565
  8
250
 10
15.724972873704701
 20
-3.1809518458867529
 30
0.0
 40
2.799999999999998
  1
19.7
 50
90.0
  0
LINE
  5
1566
  8
250
 10
16.453306207038018
 20
7.6199999999999299
 30
0.0
 11
16.824972873704692
 21
9.8499999999999304
 31
0.0
  0
LINE
  5
1567
  8
250
 10
17.196639540371361
 20
7.6199999999999299
 30
0.0
 11
16.824972873704692
 21
9.8499999999999304
 31
0.0
  0
LINE
  5
1568
  8
250
 10
16.824972873704692
 20
9.8499999999999304
 30
0.0
 11
16.824972873704692
 21
7.6199999999999299
 31
0.0
  0
TEXT
  5
1569
  8
250
 10
-26.293234576234749
 20
-23.777016439767468
 30
0.0
 40
2.799999999999998
  1
43.3
  0
LINE
  5
156A
  8
250
 10
-2.2300000000000031
 20
-24.405349773100799
 30
0.0
 11
0.0
 21
-24.777016439767468
 31
0.0
  0
LINE
  5
156B
  8
250
 10
-2.2300000000000031
 20
-25.148683106434131
 30
0.0
 11
0.0
 21
-24.777016439767468
 31
0.0
  0
LINE
  5
156C
  8
250
 10
0.0
 20
-24.777016439767468
 30
0.0
 11
-2.2300000000000031
 21
-24.777016439767468
 31
0.0
  0
LINE
  5
156D
  8
250
 10
-41.023135819136151
 20
-25.148683106434131
 30
0.0
 11
-43.253135819136148
 21
-24.777016439767468
 31
0.0
  0
LINE
  5
156E
  8
250
 10
-41.023135819136151
 20
-24.405349773100799
 30
0.0
 11
-43.253135819136148
 21
-24.777016439767468
 31
0.0
  0
LINE
  5
156F
  8
250
 10
-43.253135819136148
 20
-24.777016439767468
 30
0.0
 11
-41.023135819136151
 21
-24.777016439767468
 31
0.0
  0
TEXT
  5
1570
  8
250
 10
-69.059901242901404
 20
-30.777016439767468
 30
0.0
 40
2.799999999999998
  1
125.9
  0
LINE
  5
1571
  8
250
 10
-2.2300000000000031
 20
-31.405349773100809
 30
0.0
 11
0.0
 21
-31.777016439767461
 31
0.0
  0
LINE
  5
1572
  8
250
 10
-2.2300000000000031
 20
-32.148683106434142
 30
0.0
 11
0.0
 21
-31.777016439767461
 31
0.0
  0
LINE
  5
1573
  8
250
 10
0.0
 20
-31.777016439767461
 30
0.0
 11
-2.2300000000000031
 21
-31.777016439767461
 31
0.0
  0
LINE
  5
1574
  8
250
 10
-123.6231358191361
 20
-32.148683106434142
 30
0.0
 11
-125.8531358191362
 21
-31.777016439767461
 31
0.0
  0
LINE
  5
1575
  8
250
 10
-123.6231358191361
 20
-31.405349773100809
 30
0.0
 11
-125.8531358191362
 21
-31.777016439767461
 31
0.0
  0
LINE
  5
1576
  8
250
 10
-125.8531358191362
 20
-31.777016439767461
 30
0.0
 11
-123.6231358191361
 21
-31.777016439767461
 31
0.0
  0
TEXT
  5
1577
  8
250
 10
-138.17502956131301
 20
-3.8952380952381072
 30
0.0
 40
3.0
  1
\U+2205
 50
90.0
  0
TEXT
  5
1578
  8
250
 10
-138.275029561313
 20
-1.180952380952393
 30
0.0
 40
2.799999999999998
  1
20
 50
90.0
  0
LINE
  5
1579
  8
250
 10
-137.54669622797971
 20
7.769999999999972
 30
0.0
 11
-137.17502956131301
 21
9.9999999999999751
 31
0.0
  0
LINE
  5
157A
  8
250
 10
-136.8033628946464
 20
7.769999999999972
 30
0.0
 11
-137.17502956131301
 21
9.9999999999999751
 31
0.0
  0
LINE
  5
157B
  8
250
 10
-137.17502956131301
 20
9.9999999999999751
 30
0.0
 11
-137.17502956131301
 21
7.769999999999972
 31
0.0
  0
LINE
  5
157C
  8
250
 10
-136.8033628946464
 20
-7.769999999999996
 30
0.0
 11
-137.17502956131301
 21
-9.9999999999999964
 31
0.0
  0
LINE
  5
157D
  8
250
 10
-137.54669622797971
 20
-7.769999999999996
 30
0.0
 11
-137.17502956131301
 21
-9.9999999999999964
 31
0.0
  0
LINE
  5
157E
  8
250
 10
-137.17502956131301
 20
-9.9999999999999964
 30
0.0
 11
-137.17502956131301
 21
-7.769999999999996
 31
0.0
  0
INSERT
  5
17AC
  8
240
  2
A$C7D4E6442
 10
0.0
 20
0.0
 30
0.0
  0
LINE
  5
19B1
  8
250
 10
0.0000000000000004
 20
6.9255944876013009
 30
0.0
 11
0.0000000000000018
 21
17.63827588718301
 31
0.0
  0
LINE
  5
19B2
  8
250
 10
-3.6652678533926411
 20
10.09086234305831
 30
0.0
 11
-7.9285630506957041
 21
14.354157542762589
 31
0.0
  0
ARC
  5
19B3
  8
250
 10
0.0
 20
6.4255944876013018
 30
0.0
 40
10.21268139958171
 50
102.5358646377193
 51
122.4641353461454
  0
TEXT
  5
19B7
  8
250
 10
-7.933191716369822
 20
15.71485985729138
 30
0.0
 40
2.799999999999998
  1
45üï
 50
18.646822837701979
  0
LINE
  5
19B8
  8
250
 10
-5.249332939444419
 20
14.75238586049394
 30
0.0
 11
-7.2214562697082894
 21
13.64705076137691
 31
0.0
  0
LINE
  5
19B9
  8
250
 10
-5.7144212597128519
 20
15.33224558387049
 30
0.0
 11
-7.2214562697082894
 21
13.64705076137691
 31
0.0
  0
LINE
  5
19BA
  8
250
 10
-7.2214562697082894
 20
13.64705076137691
 30
0.0
 11
-5.481877099578635
 21
15.042315722182209
 31
0.0
  0
LINE
  5
19BB
  8
250
 10
-2.2572473616235
 20
16.764253899371042
 30
0.0
 11
0.0000000000000009
 21
16.63827588718301
 31
0.0
  0
LINE
  5
19BC
  8
250
 10
-2.1760917244075371
 20
16.025364051699199
 30
0.0
 11
0.0000000000000009
 21
16.63827588718301
 31
0.0
  0
LINE
  5
19BD
  8
250
 10
0.0000000000000009
 20
16.63827588718301
 30
0.0
 11
-2.2166695430155192
 21
16.394808975535121
 31
0.0
  0
VIEWPORT
  5
22
 67
     1
  8
0
 10
261.51769911504419
 20
148.5
 30
0.0
 40
523.0353982300885
 41
297.0
 68
     1
 69
     1
1001
ACAD
1000
MVIEW
1002
{
1070
    16
1010
0.0
1020
0.0
1030
0.0
1010
0.0
1020
0.0
1030
1.0
1040
0.0
1040
297.0
1040
261.51769911504419
1040
148.5
1040
50.0
1040
0.0
1040
0.0
1070
     0
1070
   100
1070
     1
1070
     1
1070
     0
1070
     0
1070
     0
1070
     0
1040
0.0
1040
0.0
1040
0.0
1040
1.0
1040
1.0
1040
10.0
1040
10.0
1070
     0
1002
{
1002
}
1002
}
1001
GENIUS_GENODEF_13
1002
{
1000
HIER
1070
     0
1002
}
1002
{
1000
MANEDIT
1070
     0
1002
}
1002
{
1000
NOSEL
1070
     0
1002
}
1002
{
1000
BEHIND
1070
     0
1002
}
1002
{
1000
OTHER
1070
     0
1002
}
1002
{
1000
REACTOR
1002
}
1001
GENIUS_GENOBJ-N-SDF_13
1002
{
1000
OWNER
1000
GEN
1002
}
1001
GENIUS_GENSCREG_15
1000
PF
1040
1.0
1000
DF
1040
1.0
1000
MIN
1011
0.0
1021
-2.1062458337634626E+066
1031
0.0
1021
0.0
1031
0.0
1000
MAX
1011
523.0353982300885
1021
-2.1062458337634626E+066
1031
0.0
1021
297.0
1031
0.0
1000
FLAGS
1070
     2
  0
ENDSEC
  0
EOF
