  0
SECTION
  2
HEADER
  9
$ACADVER
  1
AC1009
  9
$INSBASE
 10
0.0
 20
0.0
 30
0.0
  9
$EXTMIN
 10
-221.91611660514531
 20
-21.000000000000021
 30
0.0
  9
$EXTMAX
 10
22.000000000000028
 20
53.999999999999993
 30
0.0
  9
$LIMMIN
 10
0.0
 20
0.0
  9
$LIMMAX
 10
297.0
 20
210.0
  9
$ORTHOMODE
 70
     1
  9
$REGENMODE
 70
     1
  9
$FILLMODE
 70
     1
  9
$QTEXTMODE
 70
     0
  9
$MIRRTEXT
 70
     1
  9
$DRAGMODE
 70
     2
  9
$LTSCALE
 40
10.0
  9
$OSMODE
 70
  3071
  9
$ATTMODE
 70
     1
  9
$TEXTSIZE
 40
3.0
  9
$TRACEWID
 40
1.0
  9
$TEXTSTYLE
  7
YOKO
  9
$CLAYER
  8
240
  9
$CELTYPE
  6
BYLAYER
  9
$CECOLOR
 62
   256
  9
$DIMSCALE
 40
1.0
  9
$DIMASZ
 40
2.2299999999999991
  9
$DIMEXO
 40
0.5
  9
$DIMDLI
 40
7.0
  9
$DIMRND
 40
0.0
  9
$DIMDLE
 40
0.0
  9
$DIMEXE
 40
1.0
  9
$DIMTP
 40
0.0
  9
$DIMTM
 40
0.01
  9
$DIMTXT
 40
2.7999999999999989
  9
$DIMCEN
 40
0.0
  9
$DIMTSZ
 40
0.0
  9
$DIMTOL
 70
     0
  9
$DIMLIM
 70
     0
  9
$DIMTIH
 70
     0
  9
$DIMTOH
 70
     0
  9
$DIMSE1
 70
     0
  9
$DIMSE2
 70
     0
  9
$DIMTAD
 70
     3
  9
$DIMZIN
 70
     9
  9
$DIMBLK
  1
OPEN
  9
$DIMASO
 70
     1
  9
$DIMSHO
 70
     1
  9
$DIMPOST
  1

  9
$DIMAPOST
  1

  9
$DIMALT
 70
     0
  9
$DIMALTD
 70
     2
  9
$DIMALTF
 40
25.399999999999999
  9
$DIMLFAC
 40
1.0
  9
$DIMTOFL
 70
     1
  9
$DIMTVP
 40
0.0
  9
$DIMTIX
 70
     1
  9
$DIMSOXD
 70
     0
  9
$DIMSAH
 70
     0
  9
$DIMBLK1
  1

  9
$DIMBLK2
  1

  9
$DIMSTYLE
  2
BIGT
  9
$DIMCLRD
 70
   256
  9
$DIMCLRE
 70
   256
  9
$DIMCLRT
 70
    40
  9
$DIMTFAC
 40
1.0
  9
$DIMGAP
 40
1.0
  9
$LUNITS
 70
     2
  9
$LUPREC
 70
     3
  9
$SKETCHINC
 40
1.0
  9
$FILLETRAD
 40
0.0
  9
$AUNITS
 70
     0
  9
$AUPREC
 70
     3
  9
$MENU
  1
.
  9
$ELEVATION
 40
0.0
  9
$PELEVATION
 40
0.0
  9
$THICKNESS
 40
0.0
  9
$LIMCHECK
 70
     0
  9
$BLIPMODE
 70
     0
  9
$CHAMFERA
 40
0.25
  9
$CHAMFERB
 40
0.25
  9
$SKPOLY
 70
     0
  9
$TDCREATE
 40
2455933.4647837961
  9
$TDUPDATE
 40
2455933.473929178
  9
$TDINDWG
 40
0.0089820949
  9
$TDUSRTIMER
 40
0.0089820949
  9
$USRTIMER
 70
     1
  9
$ANGBASE
 50
0.0
  9
$ANGDIR
 70
     0
  9
$PDMODE
 70
     1
  9
$PDSIZE
 40
0.0
  9
$PLINEWID
 40
0.0
  9
$COORDS
 70
     0
  9
$SPLFRAME
 70
     0
  9
$SPLINETYPE
 70
     6
  9
$SPLINESEGS
 70
     4
  9
$ATTDIA
 70
     1
  9
$ATTREQ
 70
     1
  9
$HANDLING
 70
     1
  9
$HANDSEED
  5
22FC
  9
$SURFTAB1
 70
     6
  9
$SURFTAB2
 70
     6
  9
$SURFTYPE
 70
     6
  9
$SURFU
 70
     6
  9
$SURFV
 70
     6
  9
$UCSNAME
  2

  9
$UCSORG
 10
0.0
 20
0.0
 30
0.0
  9
$UCSXDIR
 10
1.0
 20
0.0
 30
0.0
  9
$UCSYDIR
 10
0.0
 20
1.0
 30
0.0
  9
$PUCSNAME
  2

  9
$PUCSORG
 10
0.0
 20
0.0
 30
0.0
  9
$PUCSXDIR
 10
1.0
 20
0.0
 30
0.0
  9
$PUCSYDIR
 10
0.0
 20
1.0
 30
0.0
  9
$USERI1
 70
     1
  9
$USERI2
 70
     0
  9
$USERI3
 70
     0
  9
$USERI4
 70
     0
  9
$USERI5
 70
     0
  9
$USERR1
 40
0.0
  9
$USERR2
 40
0.0
  9
$USERR3
 40
0.0
  9
$USERR4
 40
0.0
  9
$USERR5
 40
0.0
  9
$WORLDVIEW
 70
     1
  9
$SHADEDGE
 70
     3
  9
$SHADEDIF
 70
    70
  9
$TILEMODE
 70
     1
  9
$MAXACTVP
 70
    16
  9
$PLIMCHECK
 70
     0
  9
$PEXTMIN
 10
1.0000000000000000E+020
 20
1.0000000000000000E+020
 30
1.0000000000000000E+020
  9
$PEXTMAX
 10
-1.0000000000000000E+020
 20
-1.0000000000000000E+020
 30
-1.0000000000000000E+020
  9
$PLIMMIN
 10
0.0
 20
0.0
  9
$PLIMMAX
 10
420.0
 20
297.0
  9
$UNITMODE
 70
     0
  9
$VISRETAIN
 70
     1
  9
$PLINEGEN
 70
     0
  9
$PSLTSCALE
 70
     1
  0
ENDSEC
  0
SECTION
  2
TABLES
  0
TABLE
  2
VPORT
 70
     3
  0
VPORT
  2
*ACTIVE
 70
     0
 10
0.0
 20
0.0
 11
1.0
 21
1.0
 12
-95.027604367728884
 22
18.399601403607999
 13
0.0
 23
0.0
 14
7.0
 24
7.0
 15
7.0
 25
7.0
 16
0.0
 26
0.0
 36
1.0
 17
0.0
 27
0.0
 37
0.0
 40
190.99957114839779
 41
1.439203354297693
 42
50.0
 43
0.0
 44
0.0
 50
0.0
 51
0.0
 71
     0
 72
  2000
 73
     1
 74
     0
 75
     0
 76
     0
 77
     0
 78
     0
  0
ENDTAB
  0
TABLE
  2
LTYPE
 70
    15
  0
LTYPE
  2
CONTINUOUS
 70
     0
  3
Solid line
 72
    65
 73
     0
 40
0.0
  0
LTYPE
  2
CENTER2
 70
     0
  3
___ _ ___ _ ___ _ ___ _ ___ _ ___ _ ___ _ ___ _
 72
    65
 73
     4
 40
1.125
 49
0.75
 49
-0.125
 49
0.125
 49
-0.125
  0
LTYPE
  2
HIDDEN2
 70
     0
  3
_ _ _ _ _ _ _ _ _ _ _ _ _ _ _ _ _ _ _ _ _ _ _ _
 72
    65
 73
     2
 40
0.1875
 49
0.125
 49
-0.0625
  0
LTYPE
  2
PHANTOM2
 70
     0
  3
___ _ _ ___ _ _ ___ _ _ ___ _ _ ___ _ _ ___ _ _
 72
    65
 73
     6
 40
1.25
 49
0.625
 49
-0.125
 49
0.125
 49
-0.125
 49
0.125
 49
-0.125
  0
LTYPE
  2
CENTER
 70
     0
  3
____ _ ____ _ ____ _ ____ _ ____ _ ____ _ ____ 
 72
    65
 73
     4
 40
2.0
 49
1.25
 49
-0.25
 49
0.25
 49
-0.25
  0
LTYPE
  2
AM_ISO02W050
 70
     0
  3
__ __ __ __ __ __ __ __ __ __ __ __ __ __ __
 72
    65
 73
     2
 40
7.5
 49
6.0
 49
-1.5
  0
LTYPE
  2
AMCONSTR
 70
     0
  3
_______________________
 72
    65
 73
     2
 40
9999.0
 49
9999.0
 49
0.0
  0
LTYPE
  2
ACISOWELD
 70
     0
  3
_ _ _ _ _
 72
    65
 73
     2
 40
2.0
 49
2.0
 49
-1.0
  0
LTYPE
  2
ACISOTGB
 70
     0
  3
__ . . __ . .
 72
    65
 73
     6
 40
9.0
 49
4.0
 49
-1.0
 49
1.0
 49
-1.0
 49
1.0
 49
-1.0
  0
LTYPE
  2
ACISOTGL
 70
     0
  3
_ _ _ _ _
 72
    65
 73
     2
 40
3.0
 49
2.0
 49
-1.0
  0
LTYPE
  2
ACJISTGB
 70
     0
  3
__ . . __ . .
 72
    65
 73
     6
 40
9.0
 49
4.0
 49
-1.0
 49
1.0
 49
-1.0
 49
1.0
 49
-1.0
  0
LTYPE
  2
ACJISTGL
 70
     0
  3
_ _ _ _ _
 72
    65
 73
     2
 40
3.0
 49
2.0
 49
-1.0
  0
LTYPE
  2
HIDDEN
 70
     0
  3
Hidden __ __ __ __ __ __ __ __ __ __ __ __ __ _
 72
    65
 73
     2
 40
9.5249999999999986
 49
6.3499999999999988
 49
-3.1749999999999989
  0
ENDTAB
  0
TABLE
  2
LAYER
 70
     7
  0
LAYER
  2
0
 70
     0
 62
     7
  6
CONTINUOUS
  0
LAYER
  2
DEFPOINTS
 70
     0
 62
     7
  6
CONTINUOUS
  0
LAYER
  2
245
 70
     0
 62
     2
  6
CENTER2
  0
LAYER
  2
240
 70
     0
 62
     4
  6
CONTINUOUS
  0
LAYER
  2
241
 70
     0
 62
   211
  6
CONTINUOUS
  0
LAYER
  2
247
 70
     0
 62
    60
  6
CONTINUOUS
  0
LAYER
  2
250
 70
     0
 62
     3
  6
CONTINUOUS
  0
ENDTAB
  0
TABLE
  2
STYLE
 70
     8
  0
STYLE
  2
STANDARD
 70
     0
 40
0.0
 41
1.0
 50
0.0
 71
     0
 42
3.0
  3
romans.shx
  4
extfont.shx
  0
STYLE
  2
ACISOTS
 70
     0
 40
1.0
 41
1.0
 50
0.0
 71
     0
 42
3.0
  3
amgdt.shx
  4
extfont.shx
  0
STYLE
  2
ACISOGDT
 70
     0
 40
0.0
 41
1.0
 50
0.0
 71
     0
 42
3.0
  3
amgdt.shx
  4
extfont.shx
  0
STYLE
  2
ACJISTS
 70
     0
 40
1.0
 41
1.0
 50
0.0
 71
     0
 42
3.0
  3
amgdt.shx
  4
extfont.shx
  0
STYLE
  2
ACJISGDT
 70
     0
 40
0.0
 41
1.0
 50
0.0
 71
     0
 42
3.0
  3
amgdt.shx
  4
extfont.shx
  0
STYLE
  2
YOKO
 70
     0
 40
0.0
 41
1.0
 50
0.0
 71
     0
 42
3.0
  3
romans.shx
  4
extfont.shx
  0
ENDTAB
  0
TABLE
  2
VIEW
 70
     0
  0
ENDTAB
  0
TABLE
  2
UCS
 70
     0
  0
ENDTAB
  0
TABLE
  2
APPID
 70
    32
  0
APPID
  2
ACAD
 70
     0
  0
APPID
  2
GLOBAL
 70
     0
  0
APPID
  2
DETAIL
 70
     0
  0
APPID
  2
GRPNAME
 70
     0
  0
APPID
  2
GPARA
 70
     0
  0
APPID
  2
MCAD_NO_VIS
 70
     0
  0
APPID
  2
ACAD_TEMP_GRAPHIC
 70
     0
  0
APPID
  2
ACATTRIBSERVICES
 70
     0
  0
APPID
  2
GENIUS_GENSCREG_15
 70
     0
  0
APPID
  2
GENIUS_GENODEF_13
 70
     0
  0
APPID
  2
GENIUS_GENOBJ-N-SDF_13
 70
     0
  0
APPID
  2
GENIUS_GENREC_14
 70
     0
  0
APPID
  2
GENIUS_GENOBJ-N-REC_13
 70
     0
  0
APPID
  2
GENIUS_GENDIMSH_14
 70
     0
  0
APPID
  2
GENIUS_GENOBJ-N-DIM_13
 70
     0
  0
APPID
  2
GENIUS_GENDIM_13
 70
     0
  0
APPID
  2
GENIUS_GENDTOL_13
 70
     0
  0
APPID
  2
GENIUS_GENOLIS_13
 70
     0
  0
APPID
  2
GENIUS_GENOENT_13
 70
     0
  0
APPID
  2
GENIUS_GENOBJ-F-FEM_13
 70
     0
  0
APPID
  2
GENIUS_GENOREF_13
 70
     0
  0
APPID
  2
GENIUS_GEFFEM_13
 70
     0
  0
APPID
  2
GENIUS_GEFFEMP_13
 70
     0
  0
APPID
  2
AD_DRAW
 70
     0
  0
APPID
  2
DESIGNERASSEMBLIES
 70
     0
  0
APPID
  2
ACADM_DIM_EDIT
 70
     0
  0
APPID
  2
AMDT_DM_ADJ
 70
     0
  0
APPID
  2
HATCH_TYPE
 70
     0
  0
APPID
  2
HATCH_DISPLAY
 70
     0
  0
APPID
  2
HATCH_DISTANCE
 70
     0
  0
APPID
  2
GENIUS_GENFIL_13
 70
     0
  0
APPID
  2
GENIUS_GENOBJ-N-CHA_13
 70
     0
  0
ENDTAB
  0
TABLE
  2
DIMSTYLE
 70
    30
  0
DIMSTYLE
  2
BIGT
 70
     0
  3

  4

  5
OPEN
  6

  7

 40
1.0
 41
2.2299999999999991
 42
0.5
 43
7.0
 44
1.0
 45
0.0
 46
0.0
 47
0.0
 48
0.01
140
2.7999999999999989
141
0.0
142
0.0
143
25.399999999999999
144
1.0
145
0.0
146
1.0
147
1.0
 71
     0
 72
     0
 73
     0
 74
     0
 75
     0
 76
     0
 77
     3
 78
     9
170
     0
171
     2
172
     1
173
     0
174
     1
175
     0
176
   256
177
   256
178
    40
  0
DIMSTYLE
  2
AM_ISO
 70
     0
  3

  4
"
  5

  6

  7

 40
1.0
 41
2.5
 42
1.0
 43
10.0
 44
1.0
 45
0.0
 46
0.0
 47
0.1
 48
0.1
140
3.5
141
0.0
142
0.0
143
0.0393701
144
1.0
145
0.0
146
0.71
147
1.5
 71
     0
 72
     0
 73
     0
 74
     0
 75
     0
 76
     0
 77
     1
 78
     8
170
     0
171
     2
172
     1
173
     0
174
     0
175
     0
176
   256
177
   256
178
     2
  0
DIMSTYLE
  2
AM_ISO$3
 70
     0
  3

  4
"
  5

  6

  7

 40
1.0
 41
2.5
 42
1.0
 43
10.0
 44
1.0
 45
0.0
 46
0.0
 47
0.1
 48
0.1
140
3.5
141
0.0
142
0.0
143
0.0393701
144
1.0
145
0.0
146
0.71
147
1.5
 71
     0
 72
     0
 73
     0
 74
     1
 75
     0
 76
     0
 77
     1
 78
     8
170
     0
171
     2
172
     0
173
     0
174
     0
175
     0
176
   256
177
   256
178
     2
  0
DIMSTYLE
  2
AM_ISO$4
 70
     0
  3

  4
"
  5

  6

  7

 40
1.0
 41
2.5
 42
1.0
 43
10.0
 44
1.0
 45
0.0
 46
0.0
 47
0.1
 48
0.1
140
3.5
141
0.0
142
0.0
143
0.0393701
144
1.0
145
0.0
146
0.71
147
1.5
 71
     0
 72
     0
 73
     0
 74
     1
 75
     0
 76
     0
 77
     1
 78
     8
170
     0
171
     2
172
     0
173
     0
174
     0
175
     0
176
   256
177
   256
178
     2
  0
DIMSTYLE
  2
AM_ISO$6
 70
     0
  3

  4
"
  5

  6

  7

 40
1.0
 41
2.5
 42
1.0
 43
10.0
 44
1.0
 45
0.0
 46
0.0
 47
0.1
 48
0.1
140
3.5
141
0.0
142
0.0
143
0.0393701
144
1.0
145
0.0
146
0.71
147
1.5
 71
     0
 72
     0
 73
     0
 74
     0
 75
     0
 76
     0
 77
     0
 78
     8
170
     0
171
     2
172
     1
173
     0
174
     0
175
     0
176
   256
177
   256
178
     2
  0
DIMSTYLE
  2
AM_ISO$7
 70
     0
  3

  4
"
  5

  6

  7

 40
1.0
 41
2.5
 42
1.0
 43
10.0
 44
1.0
 45
0.0
 46
0.0
 47
0.1
 48
0.1
140
5.0
141
0.0
142
0.0
143
0.0393701
144
1.0
145
0.0
146
0.71
147
1.5
 71
     0
 72
     0
 73
     0
 74
     0
 75
     0
 76
     0
 77
     1
 78
     8
170
     0
171
     2
172
     1
173
     0
174
     0
175
     0
176
   256
177
   256
178
     2
  0
DIMSTYLE
  2
AM_ISO$SF
 70
     0
  3

  4
"
  5

  6

  7

 40
1.0
 41
2.5
 42
1.0
 43
10.0
 44
1.0
 45
0.0
 46
0.0
 47
0.1
 48
0.1
140
3.5
141
0.0
142
0.0
143
0.0393701
144
1.0
145
0.0
146
0.71
147
1.5
 71
     0
 72
     0
 73
     0
 74
     0
 75
     1
 76
     1
 77
     1
 78
     8
170
     0
171
     2
172
     1
173
     0
174
     0
175
     0
176
   256
177
   256
178
     2
  0
DIMSTYLE
  2
AM_ISO$SH
 70
     0
  3

  4
"
  5

  6
GENAXEH
  7

 40
1.0
 41
2.5
 42
1.0
 43
10.0
 44
1.0
 45
0.0
 46
0.0
 47
0.1
 48
0.1
140
3.5
141
0.0
142
0.0
143
0.0393701
144
2.0
145
0.0
146
0.71
147
1.5
 71
     0
 72
     0
 73
     0
 74
     0
 75
     1
 76
     1
 77
     1
 78
     8
170
     0
171
     2
172
     1
173
     1
174
     0
175
     0
176
   256
177
   256
178
     2
  0
DIMSTYLE
  2
BIGT$2
 70
     0
  3

  4

  5
OPEN
  6

  7

 40
1.0
 41
2.2299999999999991
 42
0.5
 43
7.0
 44
1.0
 45
0.0
 46
0.0
 47
0.0
 48
0.01
140
2.7999999999999989
141
0.0
142
0.0
143
25.399999999999999
144
1.0
145
0.0
146
1.0
147
1.0
 71
     0
 72
     0
 73
     0
 74
     0
 75
     0
 76
     0
 77
     3
 78
     9
170
     0
171
     2
172
     1
173
     0
174
     0
175
     0
176
   256
177
   256
178
    40
  0
DIMSTYLE
  2
BIGT$3
 70
     0
  3

  4

  5
OPEN
  6

  7

 40
1.0
 41
2.2299999999999991
 42
0.5
 43
2.5
 44
1.0
 45
0.0
 46
0.0
 47
0.0
 48
0.01
140
2.7999999999999989
141
0.0
142
0.0
143
25.399999999999999
144
1.0
145
0.0
146
1.0
147
1.0
 71
     0
 72
     0
 73
     0
 74
     0
 75
     0
 76
     0
 77
     3
 78
     9
170
     0
171
     2
172
     1
173
     0
174
     0
175
     0
176
   256
177
   256
178
    40
  0
DIMSTYLE
  2
BIGT$7
 70
     0
  3

  4

  5
OPEN
  6

  7

 40
0.0
 41
2.2299999999999991
 42
0.5
 43
7.0
 44
1.0
 45
0.0
 46
0.0
 47
0.0
 48
0.01
140
2.7999999999999989
141
0.0
142
0.0
143
25.399999999999999
144
1.0
145
0.0
146
1.0
147
1.0
 71
     0
 72
     0
 73
     0
 74
     0
 75
     0
 76
     0
 77
     3
 78
     9
170
     0
171
     2
172
     0
173
     0
174
     0
175
     0
176
   256
177
   256
178
    40
  0
DIMSTYLE
  2
BIGT$6
 70
     0
  3

  4

  5
OPEN
  6

  7

 40
1.0
 41
2.2299999999999991
 42
0.5
 43
2.5
 44
1.0
 45
0.0
 46
0.0
 47
0.0
 48
0.01
140
2.7999999999999989
141
0.0
142
0.0
143
25.399999999999999
144
1.0
145
0.0
146
1.0
147
1.0
 71
     0
 72
     0
 73
     0
 74
     0
 75
     0
 76
     0
 77
     3
 78
     9
170
     0
171
     2
172
     1
173
     0
174
     0
175
     0
176
   256
177
   256
178
    40
  0
DIMSTYLE
  2
BIGT$0
 70
     0
  3

  4

  5
OPEN
  6

  7

 40
1.0
 41
2.2299999999999991
 42
0.5
 43
7.0
 44
1.0
 45
0.0
 46
0.0
 47
0.0
 48
0.01
140
2.7999999999999989
141
0.0
142
0.0
143
25.399999999999999
144
1.0
145
0.0
146
1.0
147
1.0
 71
     0
 72
     0
 73
     0
 74
     0
 75
     0
 76
     0
 77
     3
 78
     9
170
     0
171
     2
172
     1
173
     0
174
     0
175
     0
176
   256
177
   256
178
    40
  0
DIMSTYLE
  2
BIGT$4
 70
     0
  3

  4

  5
OPEN
  6

  7

 40
1.0
 41
2.2299999999999991
 42
0.5
 43
2.5
 44
1.0
 45
0.0
 46
0.0
 47
0.0
 48
0.01
140
2.7999999999999989
141
0.0
142
0.0
143
25.399999999999999
144
1.0
145
0.0
146
1.0
147
1.0
 71
     0
 72
     0
 73
     0
 74
     0
 75
     0
 76
     0
 77
     3
 78
     9
170
     0
171
     2
172
     1
173
     0
174
     0
175
     0
176
   256
177
   256
178
    40
  0
DIMSTYLE
  2
BIGT$SH
 70
     0
  3

  4

  5
OPEN
  6

  7

 40
1.0
 41
2.2299999999999991
 42
0.5
 43
7.0
 44
1.0
 45
0.0
 46
0.0
 47
0.0
 48
0.0
140
2.7999999999999989
141
0.0
142
0.0
143
25.399999999999999
144
1.0
145
0.0
146
1.0
147
1.0
 71
     0
 72
     0
 73
     0
 74
     0
 75
     0
 76
     0
 77
     3
 78
     9
170
     0
171
     2
172
     1
173
     0
174
     0
175
     0
176
   256
177
   256
178
    40
  0
DIMSTYLE
  2
BIGT$SF
 70
     0
  3

  4

  5
OPEN
  6

  7

 40
1.0
 41
2.2299999999999991
 42
0.5
 43
7.0
 44
1.0
 45
0.0
 46
0.0
 47
0.0
 48
0.0
140
2.7999999999999989
141
0.0
142
0.0
143
25.399999999999999
144
1.0
145
0.0
146
1.0
147
1.0
 71
     0
 72
     0
 73
     0
 74
     0
 75
     0
 76
     0
 77
     3
 78
     9
170
     0
171
     2
172
     1
173
     0
174
     0
175
     0
176
   256
177
   256
178
    40
  0
DIMSTYLE
  2
TECHNICAL_OSAKA
 70
     0
  3

  4
"
  5
OPEN30
  6

  7

 40
1.0
 41
2.5
 42
1.0
 43
10.0
 44
1.0
 45
0.0
 46
0.0
 47
0.1
 48
0.1
140
2.7999999999999989
141
0.0
142
0.0
143
0.0393701
144
1.0
145
0.0
146
0.71
147
1.5
 71
     0
 72
     0
 73
     0
 74
     0
 75
     0
 76
     0
 77
     3
 78
     8
170
     0
171
     2
172
     1
173
     0
174
     0
175
     0
176
   256
177
   256
178
    40
  0
DIMSTYLE
  2
TECHNICAL_OSAKA$3
 70
     0
  3

  4
"
  5
OPEN30
  6

  7

 40
1.0
 41
2.5
 42
1.0
 43
10.0
 44
1.0
 45
0.0
 46
0.0
 47
0.1
 48
0.1
140
2.7999999999999989
141
0.0
142
0.0
143
0.0393701
144
1.0
145
0.0
146
0.71
147
1.5
 71
     0
 72
     0
 73
     0
 74
     1
 75
     0
 76
     0
 77
     3
 78
     8
170
     0
171
     2
172
     0
173
     0
174
     0
175
     0
176
   256
177
   256
178
    40
  0
DIMSTYLE
  2
TECHNICAL_OSAKA$4
 70
     0
  3

  4
"
  5
OPEN30
  6

  7

 40
1.0
 41
2.5
 42
1.0
 43
10.0
 44
1.0
 45
0.0
 46
0.0
 47
0.1
 48
0.1
140
2.7999999999999989
141
0.0
142
0.0
143
0.0393701
144
1.0
145
0.0
146
0.71
147
1.5
 71
     0
 72
     0
 73
     0
 74
     1
 75
     0
 76
     0
 77
     3
 78
     8
170
     0
171
     2
172
     0
173
     0
174
     0
175
     0
176
   256
177
   256
178
    40
  0
DIMSTYLE
  2
TECHNICAL_OSAKA$6
 70
     0
  3

  4
"
  5
OPEN30
  6

  7

 40
1.0
 41
2.5
 42
1.0
 43
10.0
 44
1.0
 45
0.0
 46
0.0
 47
0.1
 48
0.1
140
2.7999999999999989
141
0.0
142
0.0
143
0.0393701
144
1.0
145
0.0
146
0.71
147
1.5
 71
     0
 72
     0
 73
     0
 74
     0
 75
     0
 76
     0
 77
     0
 78
     8
170
     0
171
     2
172
     1
173
     0
174
     0
175
     0
176
   256
177
   256
178
    40
  0
DIMSTYLE
  2
TECHNICAL_OSAKA$7
 70
     0
  3

  4
"
  5
OPEN30
  6

  7

 40
1.0
 41
2.5
 42
1.0
 43
10.0
 44
1.0
 45
0.0
 46
0.0
 47
0.1
 48
0.1
140
2.7999999999999989
141
0.0
142
0.0
143
0.0393701
144
1.0
145
0.0
146
0.71
147
1.5
 71
     0
 72
     0
 73
     0
 74
     0
 75
     0
 76
     0
 77
     3
 78
     8
170
     0
171
     2
172
     1
173
     0
174
     0
175
     0
176
   256
177
   256
178
    40
  0
DIMSTYLE
  2
TECHNICAL_OSAKA$SF
 70
     0
  3

  4
"
  5
OPEN30
  6
OPEN30
  7
OPEN30
 40
1.0
 41
2.5
 42
1.0
 43
10.0
 44
1.0
 45
0.0
 46
0.0
 47
0.1
 48
0.1
140
3.5
141
0.0
142
0.0
143
0.0393701
144
1.0
145
0.0
146
0.71
147
1.5
 71
     0
 72
     0
 73
     0
 74
     0
 75
     1
 76
     1
 77
     3
 78
     8
170
     0
171
     2
172
     1
173
     0
174
     0
175
     0
176
   256
177
   256
178
    40
  0
DIMSTYLE
  2
TECHNICAL_OSAKA$SH
 70
     0
  3

  4
"
  5
OPEN30
  6
GENAXEH
  7
OPEN30
 40
1.0
 41
2.5
 42
1.0
 43
10.0
 44
1.0
 45
0.0
 46
0.0
 47
0.1
 48
0.1
140
3.5
141
0.0
142
0.0
143
0.0393701
144
2.0
145
0.0
146
0.71
147
1.5
 71
     0
 72
     0
 73
     0
 74
     0
 75
     1
 76
     1
 77
     3
 78
     8
170
     0
171
     2
172
     1
173
     1
174
     0
175
     0
176
   256
177
   256
178
    40
  0
DIMSTYLE
  2
STANDARD
 70
     0
  3

  4

  5

  6

  7

 40
1.0
 41
0.18
 42
0.0625
 43
0.38
 44
0.18
 45
0.0
 46
0.0
 47
0.0
 48
0.0
140
0.18
141
0.09
142
0.0
143
25.399999999999999
144
1.0
145
0.0
146
1.0
147
0.09
 71
     0
 72
     0
 73
     1
 74
     1
 75
     0
 76
     0
 77
     0
 78
     0
170
     0
171
     2
172
     0
173
     0
174
     0
175
     0
176
     0
177
     0
178
     0
  0
ENDTAB
  0
ENDSEC
  0
SECTION
  2
BLOCKS
  0
BLOCK
  8
0
  2
$MODEL_SPACE
 70
     0
 10
0.0
 20
0.0
 30
0.0
  3
$MODEL_SPACE
  1

  0
ENDBLK
  5
1C
  8
0
  0
BLOCK
 67
     1
  8
0
  2
$PAPER_SPACE
 70
     0
 10
0.0
 20
0.0
 30
0.0
  3
$PAPER_SPACE
  1

  0
ENDBLK
  5
19
 67
     1
  8
0
  0
BLOCK
  8
0
  2
_OPEN
 70
     0
 10
0.0
 20
0.0
 30
0.0
  3
_OPEN
  1

  0
LINE
  5
2292
  8
0
  6
BYBLOCK
 62
     0
 10
-1.0
 20
0.1666666666666666
 30
0.0
 11
0.0
 21
0.0
 31
0.0
  0
LINE
  5
2293
  8
0
  6
BYBLOCK
 62
     0
 10
-1.0
 20
-0.1666666666666666
 30
0.0
 11
0.0
 21
0.0
 31
0.0
  0
LINE
  5
2294
  8
0
  6
BYBLOCK
 62
     0
 10
0.0
 20
0.0
 30
0.0
 11
-1.0
 21
0.0
 31
0.0
  0
ENDBLK
  5
2295
  8
0
  0
BLOCK
  8
0
  2
GENAXEH
 70
     0
 10
0.0
 20
0.0
 30
0.0
  3
GENAXEH
  1

  0
LINE
  5
22BD
  8
0
 10
-1.0
 20
0.0
 30
0.0
 11
1.0
 21
0.0
 31
0.0
  0
ENDBLK
  5
22BE
  8
0
  0
BLOCK
  8
0
  2
_OPEN30
 70
     0
 10
0.0
 20
0.0
 30
0.0
  3
_OPEN30
  1

  0
LINE
  5
22E2
  8
0
  6
BYBLOCK
 62
     0
 10
-1.0
 20
0.26794919
 30
0.0
 11
0.0
 21
0.0
 31
0.0
  0
LINE
  5
22E3
  8
0
  6
BYBLOCK
 62
     0
 10
0.0
 20
0.0
 30
0.0
 11
-1.0
 21
-0.26794919
 31
0.0
  0
LINE
  5
22E4
  8
0
  6
BYBLOCK
 62
     0
 10
0.0
 20
0.0
 30
0.0
 11
-1.0
 21
0.0
 31
0.0
  0
ENDBLK
  5
22E5
  8
0
  0
BLOCK
  8
0
  2
A$C528F57B8
 70
     0
 10
0.0
 20
0.0
 30
0.0
  3
A$C528F57B8
  1

  0
LINE
  5
208B
  8
240
  6
CONTINUOUS
 10
-6.4999999999999796
 20
6.5000000000000009
 30
0.0
 11
-13.600000000000071
 21
6.5000000000000009
 31
0.0
1001
GRPNAME
1000
PASTMD01
  0
LINE
  5
208C
  8
240
  6
CONTINUOUS
 10
-6.4999999999999796
 20
-6.4999999999999982
 30
0.0
 11
-13.600000000000071
 21
-6.4999999999999982
 31
0.0
1001
GRPNAME
1000
PASTMD01
  0
LINE
  5
208D
  8
245
  6
CENTER2
 10
0.8828777708424908
 20
0.0000000000000017
 30
0.0
 11
-221.91611660514531
 21
0.0000000000000017
 31
0.0
1001
GRPNAME
1000
PASTMD01
  0
LINE
  5
208E
  8
240
  6
CONTINUOUS
 10
0.0000000000000195
 20
0.0000000000000301
 30
0.0
 11
-6.4999999999999796
 21
6.5000000000000009
 31
0.0
1001
GRPNAME
1000
PASTMD01
  0
LINE
  5
208F
  8
240
  6
CONTINUOUS
 10
-6.4999999999999796
 20
-6.4999999999999982
 30
0.0
 11
0.0000000000000195
 21
0.0000000000000301
 31
0.0
1001
GRPNAME
1000
PASTMD01
  0
LINE
  5
2090
  8
240
 10
-100.0000000000001
 20
-9.9999999999999982
 30
0.0
 11
-217.99999999999989
 21
-9.9999999999999982
 31
0.0
  0
LINE
  5
2091
  8
240
 10
-100.0
 20
10.00000000000003
 30
0.0
 11
-218.0
 21
9.9999999999999734
 31
0.0
  0
LINE
  5
2092
  8
241
 10
-100.0
 20
10.00000000000003
 30
0.0
 11
-100.0000000000001
 21
-9.9999999999999982
 31
0.0
  0
LINE
  5
2093
  8
241
  6
CONTINUOUS
 10
-218.0
 20
-9.9999999999999982
 30
0.0
 11
-218.0
 21
9.9999999999999734
 31
0.0
1001
GRPNAME
1000
PASTMD07
  0
LINE
  5
2094
  8
240
  6
CONTINUOUS
 10
-220.0
 20
-8.8452994616206837
 30
0.0
 11
-220.0
 21
8.8452994616206393
 31
0.0
1001
GRPNAME
1000
PASTMD07
  0
LINE
  5
2095
  8
240
  6
CONTINUOUS
 10
-220.0
 20
-8.8452994616206837
 30
0.0
 11
-217.99999999999989
 21
-9.9999999999999982
 31
0.0
1001
GRPNAME
1000
PASTMD07
  0
LINE
  5
2096
  8
240
  6
CONTINUOUS
 10
-220.0
 20
8.8452994616206393
 30
0.0
 11
-218.0
 21
9.9999999999999734
 31
0.0
1001
GRPNAME
1000
PASTMD07
  0
LINE
  5
2097
  8
240
 10
-24.099880159771239
 20
-6.0039952063911217
 30
0.0
 11
-99.000000000005244
 21
-9.0000000000090363
 31
0.0
  0
LINE
  5
2098
  8
240
 10
-24.099880159767601
 20
6.0039952063909841
 30
0.0
 11
-99.000000000006253
 21
9.0000000000090665
 31
0.0
  0
ARC
  5
2099
  8
240
  6
CONTINUOUS
 10
-23.900039968026341
 20
-11.00000000000002
 30
0.0
 40
5.0
 50
90.0
 51
92.290610042642754
  0
ARC
  5
209A
  8
240
  6
CONTINUOUS
 10
-23.90003996802265
 20
10.999999999999901
 30
0.0
 40
5.0
 50
267.7093899573573
 51
270.0
  0
LINE
  5
209B
  8
241
 10
-99.999999999994287
 20
10.00000000000003
 30
0.0
 11
-100.0000000000059
 21
-10.00000000000003
 31
0.0
  0
LINE
  5
209C
  8
240
 10
-99.999999999994245
 20
-9.9999999999999698
 30
0.0
 11
-99.000000000005244
 21
-9.0000000000090363
 31
0.0
  0
LINE
  5
209D
  8
240
 10
-99.999999999994245
 20
9.9999999999999734
 30
0.0
 11
-99.000000000006253
 21
9.0000000000090665
 31
0.0
  0
LINE
  5
209E
  8
240
  6
CONTINUOUS
 10
-14.25000000000006
 20
6.0000000000000027
 30
0.0
 11
-23.90003996802265
 21
5.9999999999993729
 31
0.0
1001
GRPNAME
1000
PASTMD03
  0
LINE
  5
209F
  8
240
  6
CONTINUOUS
 10
-14.25000000000006
 20
-5.9999999999999947
 30
0.0
 11
-23.900039968026341
 21
-6.0000000000002824
 31
0.0
1001
GRPNAME
1000
PASTMD03
  0
LINE
  5
20A0
  8
241
 10
-99.000000000006253
 20
9.0000000000090665
 30
0.0
 11
-99.000000000016655
 21
-9.0000000000094964
 31
0.0
  0
LINE
  5
20A1
  8
247
 10
-153.81391922199271
 20
4.8320127707871752
 30
0.0
 11
-153.63610092365309
 21
4.6542059165391247
 31
0.0
  0
LINE
  5
20A2
  8
247
 10
-154.1626893635945
 20
5.8970346433076264
 30
0.0
 11
-154.0757714863972
 21
6.2001657468232461
 31
0.0
  0
LINE
  5
20A3
  8
247
 10
-154.1626893635945
 20
5.8970346433076264
 30
0.0
 11
-153.91041580402421
 21
5.8970346433076264
 31
0.0
  0
LINE
  5
20A4
  8
247
 10
-154.0757714863972
 20
6.2001657468232461
 30
0.0
 11
-153.19280258380931
 21
6.2001657468232381
 31
0.0
  0
LINE
  5
20A5
  8
247
 10
-153.63610092365309
 20
4.6542059165391247
 30
0.0
 11
-153.19280258380931
 21
6.2001657468232381
 31
0.0
  0
LINE
  5
20A6
  8
247
 10
-154.10506836139709
 20
5.2182054501923858
 30
0.0
 11
-153.91041580402421
 21
5.8970346433076264
 31
0.0
  0
ARC
  5
20A7
  8
247
 10
-154.00249496662181
 20
6.7306337338837849
 30
0.0
 40
0.3182875066995621
 50
1.710121382064312
 51
163.99839835444851
  0
ARC
  5
20A8
  8
247
 10
-152.81329361164131
 20
5.7909364682587849
 30
0.0
 40
1.288299322128293
 50
110.8721834020771
 51
132.54194893738401
  0
ARC
  5
20A9
  8
247
 10
-152.81329361164131
 20
5.7909364682587849
 30
0.0
 40
1.591427564620969
 50
110.22964506332001
 51
118.57168892371681
  0
LINE
  5
20AA
  8
247
 10
-153.2722932454304
 20
6.9946947080048769
 30
0.0
 11
-153.36358276569399
 21
7.284195898190414
 31
0.0
  0
LINE
  5
20AB
  8
247
 10
-153.1277429219441
 20
7.0402765256318247
 30
0.0
 11
-153.2190324422078
 21
7.3297777158173778
 31
0.0
  0
LINE
  5
20AC
  8
247
 10
-154.71698394977611
 20
5.3936662656220742
 30
0.0
 11
-154.30845276081121
 21
6.8183755856904362
 31
0.0
  0
ARC
  5
20AD
  8
247
 10
-152.81329361164131
 20
5.7909364682587849
 30
0.0
 40
1.591426849365233
 50
270.0
 51
104.7707939660941
  0
ARC
  5
20AE
  8
247
 10
-152.81329361164131
 20
5.7909364682587849
 30
0.0
 40
1.288295745849606
 50
270.0
 51
104.1274364964119
  0
LINE
  5
20AF
  8
247
 10
-156.6318780537799
 20
4.6542059165391247
 30
0.0
 11
-155.95388427936601
 21
4.6542059165391247
 31
0.0
  0
LINE
  5
20B0
  8
247
 10
-158.3290175177911
 20
4.6542059165391247
 30
0.0
 11
-157.93912336141941
 21
5.0441000729107959
 31
0.0
  0
LINE
  5
20B1
  8
247
 10
-158.80775467121171
 20
4.6542059165391247
 30
0.0
 11
-157.54982010089921
 21
4.6542059165391247
 31
0.0
  0
LINE
  5
20B2
  8
247
 10
-157.26192114665849
 20
4.7110234740513093
 30
0.0
 11
-156.84882098608631
 21
5.1241236346236558
 31
0.0
  0
LINE
  5
20B3
  8
247
 10
-158.66577712233121
 20
4.6542059165391247
 30
0.0
 11
-157.8037447156475
 21
5.5162383232227867
 31
0.0
  0
LINE
  5
20B4
  8
247
 10
-157.70551771409541
 20
5.8588087809326712
 30
0.0
 11
-157.95393433231041
 21
4.9924462404910077
 31
0.0
  0
ARC
  5
20B5
  8
247
 10
-157.88800445758849
 20
5.4423379880341738
 30
0.0
 40
0.4546969681978227
 50
261.6628542111489
 51
66.338192159110051
  0
LINE
  5
20B6
  8
247
 10
-158.7294475068681
 20
4.9272951365423436
 30
0.0
 11
-157.44686803544539
 21
6.209874607964796
 31
0.0
  0
LINE
  5
20B7
  8
247
 10
-157.6554983087108
 20
4.654205916539107
 30
0.0
 11
-156.79851959135181
 21
5.5111846338981261
 31
0.0
  0
ARC
  5
20B8
  8
247
 10
-157.54982010089921
 20
5.4120225888642537
 30
0.0
 40
0.7578163146972659
 50
270.0
 51
40.32984065416727
  0
LINE
  5
20B9
  8
247
 10
-157.99225791325111
 20
4.6542059165391247
 30
0.0
 11
-156.88000097339341
 21
5.7664628563968252
 31
0.0
  0
LINE
  5
20BA
  8
247
 10
-156.0555764790729
 20
7.0489282590302773
 30
0.0
 11
-155.95996109211009
 21
7.3823633176240282
 31
0.0
  0
LINE
  5
20BB
  8
247
 10
-156.0555764790729
 20
7.0489282590302773
 30
0.0
 11
-155.94519821369209
 21
7.0489282590302773
 31
0.0
  0
LINE
  5
20BC
  8
247
 10
-158.32329064183699
 20
6.3437308151935357
 30
0.0
 11
-157.28465813940679
 21
7.3823633176239163
 31
0.0
  0
LINE
  5
20BD
  8
247
 10
-157.0953451546678
 20
6.5613974887427009
 30
0.0
 11
-156.58808451710181
 21
7.0686581263086961
 31
0.0
  0
LINE
  5
20BE
  8
247
 10
-158.96681610309639
 20
7.3823633176240282
 30
0.0
 11
-158.3408128377155
 21
7.3823633176240282
 31
0.0
  0
LINE
  5
20BF
  8
247
 10
-158.96681610309639
 20
7.0792322141084041
 30
0.0
 11
-158.4277307149128
 21
7.0792322141084041
 31
0.0
  0
LINE
  5
20C0
  8
247
 10
-158.2613084520024
 20
7.0792322141083748
 30
0.0
 11
-157.9581773484868
 21
7.382363317623998
 31
0.0
  0
LINE
  5
20C1
  8
247
 10
-158.18314758502979
 20
7.3823633176240282
 30
0.0
 11
-158.27006546222759
 21
7.0792322141084041
 31
0.0
  0
LINE
  5
20C2
  8
247
 10
-158.27006546222759
 20
7.0792322141084041
 30
0.0
 11
-158.11238876545031
 21
7.0792322141075292
 31
0.0
  0
LINE
  5
20C3
  8
247
 10
-158.3408128377155
 20
7.3823633176240282
 30
0.0
 11
-158.4277307149128
 21
7.0792322141084041
 31
0.0
  0
LINE
  5
20C4
  8
247
 10
-158.18790502016009
 20
6.8158760414106361
 30
0.0
 11
-157.62141774394669
 21
7.3823633176239758
 31
0.0
  0
LINE
  5
20C5
  8
247
 10
-158.18314758502979
 20
7.3823633176240282
 30
0.0
 11
-157.20526070784541
 21
7.3823633176239163
 31
0.0
  0
LINE
  5
20C6
  8
247
 10
-157.1341979556432
 20
6.8593042923072538
 30
0.0
 11
-156.7562158721002
 21
7.2372863758502941
 31
0.0
  0
LINE
  5
20C7
  8
247
 10
-157.29353124179161
 20
7.0367306106990668
 30
0.0
 11
-156.98090376215711
 21
7.3493580903333937
 31
0.0
  0
LINE
  5
20C8
  8
247
 10
-155.95996109211009
 20
7.3823633176240282
 30
0.0
 11
-155.17160049640711
 21
7.3823633176240282
 31
0.0
  0
LINE
  5
20C9
  8
247
 10
-156.6318780537799
 20
4.6542059165391247
 30
0.0
 11
-155.94519821369209
 21
7.0489282590302773
 31
0.0
  0
LINE
  5
20CA
  8
247
 10
-157.35783837913971
 20
7.0713091334499492
 30
0.0
 11
-157.60625091065481
 21
6.2049722894245436
 31
0.0
  0
LINE
  5
20CB
  8
247
 10
-158.45867626351409
 20
5.8715855889764761
 30
0.0
 11
-157.39759152796131
 21
6.9326703245292247
 31
0.0
  0
ARC
  5
20CC
  8
247
 10
-157.2021371480181
 20
6.6245470029267537
 30
0.0
 40
0.7578227519989014
 50
287.66957754739798
 51
90.236159842671626
  0
LINE
  5
20CD
  8
247
 10
-157.5613471700529
 20
5.758635868817497
 30
0.0
 11
-156.47659896245301
 21
6.843384076417216
 31
0.0
  0
ARC
  5
20CE
  8
247
 10
-157.5403215047078
 20
6.6548509580048858
 30
0.0
 40
0.4546839594841006
 50
261.6626016879294
 51
66.338155095189762
  0
LINE
  5
20CF
  8
247
 10
-158.59406188519111
 20
5.399440362759405
 30
0.0
 11
-157.53297268093121
 21
6.460529567019254
 31
0.0
  0
LINE
  5
20D0
  8
247
 10
-157.44379432023419
 20
5.5394291140958938
 30
0.0
 11
-156.44981464430279
 21
6.533408790027325
 31
0.0
  0
LINE
  5
20D1
  8
247
 10
-158.80775467121171
 20
4.6542059165391247
 30
0.0
 11
-158.11238876545031
 21
7.0792322141075292
 31
0.0
  0
ARC
  5
20D2
  8
247
 10
-152.7677690144734
 20
5.5875749570283162
 30
0.0
 40
2.5780792236328121
 50
155.20517736984189
 51
172.79482596205079
  0
LINE
  5
20D3
  8
247
 10
-155.95388427936601
 20
4.6542059165391247
 30
0.0
 11
-155.17160049640711
 21
7.3823633176240282
 31
0.0
  0
ARC
  5
20D4
  8
247
 10
-158.96681610309639
 20
5.7909364682587849
 30
0.0
 40
1.591426849365233
 50
90.0
 51
270.0
  0
ARC
  5
20D5
  8
247
 10
-158.96681610309639
 20
5.7909364682587849
 30
0.0
 40
1.288295745849606
 50
90.0
 51
270.0
  0
LINE
  5
20D6
  8
247
 10
-158.96681610309639
 20
4.1995092690671081
 30
0.0
 11
-152.81329361164131
 21
4.1995092690670957
 31
0.0
  0
LINE
  5
20D7
  8
247
 10
-158.96681610309639
 20
4.5026403647813158
 30
0.0
 11
-152.81329361164131
 21
4.502640364781306
 31
0.0
  0
ARC
  5
20D8
  8
247
 10
-154.16117874347731
 20
6.3971986752900341
 30
0.0
 40
0.9851660728454588
 50
53.444012197053752
 51
164.00018438768521
  0
ARC
  5
20D9
  8
247
 10
-154.37847915851631
 20
5.6393709165009751
 30
0.0
 40
0.9851760864257813
 50
163.999750701728
 51
304.96387329163082
  0
ARC
  5
20DA
  8
247
 10
-154.41102615558671
 20
5.3059358579072278
 30
0.0
 40
0.3182872831821442
 50
164.0002730571847
 51
344.00027305718493
  0
TEXT
  5
20DB
  8
247
 10
-150.2145674867335
 20
4.6317048126456069
 30
0.0
 40
2.5
  1
ST20-CBY09013-220
  7
YOKO
 11
-150.2145674867335
 21
4.6317048126456069
 31
0.0
 73
     1
  0
LINE
  5
20DC
  8
247
 10
-155.20334156728271
 20
6.432843448887108
 30
0.0
 11
-154.2586544151994
 21
7.3775306009703483
 31
0.0
  0
LINE
  5
20DD
  8
247
 10
-155.31514333865141
 20
5.9842820729781856
 30
0.0
 11
-153.94179760888181
 21
7.3576278027478361
 31
0.0
  0
LINE
  5
20DE
  8
247
 10
-155.36286043083419
 20
5.5998053762553059
 30
0.0
 11
-154.37445055721801
 21
6.5882152498715847
 31
0.0
  0
LINE
  5
20DF
  8
247
 10
-153.92366174400311
 20
7.039004063086475
 30
0.0
 11
-153.69667923946841
 21
7.2659865676211961
 31
0.0
  0
LINE
  5
20E0
  8
247
 10
-155.30928700583911
 20
5.3166191967104659
 30
0.0
 11
-154.50983705829199
 21
6.1160691442574171
 31
0.0
  0
LINE
  5
20E1
  8
247
 10
-153.73029894588791
 20
6.8956072566615036
 30
0.0
 11
-153.3583391333064
 21
7.267567069243146
 31
0.0
  0
LINE
  5
20E2
  8
247
 10
-155.19741762906389
 20
5.091728968945457
 30
0.0
 11
-154.6452235593662
 21
5.6439230386432371
 31
0.0
  0
LINE
  5
20E3
  8
247
 10
-153.3091661620339
 20
6.979980435975417
 30
0.0
 11
-153.27760548645239
 21
7.0115411115569248
 31
0.0
  0
LINE
  5
20E4
  8
247
 10
-155.04160292373001
 20
4.9107840697393064
 30
0.0
 11
-154.72056452239659
 21
5.2318224710726451
 31
0.0
  0
LINE
  5
20E5
  8
247
 10
-154.05535235016171
 20
5.8970346433076148
 30
0.0
 11
-153.752221246646
 21
6.2001657468232558
 31
0.0
  0
LINE
  5
20E6
  8
247
 10
-154.84433122401251
 20
4.7712961649166736
 30
0.0
 11
-154.57964454913991
 21
5.0359828397892761
 31
0.0
  0
LINE
  5
20E7
  8
247
 10
-153.98753404171839
 20
5.628093347210755
 30
0.0
 11
-153.4154616421059
 21
6.2001657468232381
 31
0.0
  0
LINE
  5
20E8
  8
247
 10
-154.59954897886709
 20
4.6793188055219384
 30
0.0
 11
-154.24366810103751
 21
5.0351996833517276
 31
0.0
  0
LINE
  5
20E9
  8
247
 10
-154.1402899810312
 20
5.138577803357915
 30
0.0
 11
-153.238673944298
 21
6.0401938400911011
 31
0.0
  0
LINE
  5
20EA
  8
247
 10
-154.28330540357931
 20
4.6588027762698161
 30
0.0
 11
-153.37405998517571
 21
5.5680481946732741
 31
0.0
  0
LINE
  5
20EB
  8
247
 10
-153.7936268602659
 20
4.8117217150430251
 30
0.0
 11
-153.5094460260533
 21
5.0959025492554559
 31
0.0
  0
LINE
  5
20EC
  8
247
 10
-160.5107475941135
 20
6.1768314901576664
 30
0.0
 11
-159.35271112499541
 21
7.3348679592758659
 31
0.0
  0
LINE
  5
20ED
  8
247
 10
-160.5582421065007
 20
5.7925773732303369
 30
0.0
 11
-160.20537605054761
 21
6.1454434291835458
 31
0.0
  0
LINE
  5
20EE
  8
247
 10
-159.3213230640211
 20
7.0294964157099038
 30
0.0
 11
-158.96845700806799
 21
7.3823624716631091
 31
0.0
  0
LINE
  5
20EF
  8
247
 10
-160.52864137717191
 20
5.4854184980190244
 30
0.0
 11
-160.25472421992481
 21
5.759335655266181
 31
0.0
  0
LINE
  5
20F0
  8
247
 10
-158.93482766108261
 20
7.0792322141084041
 30
0.0
 11
-158.6316965575671
 21
7.3823633176240282
 31
0.0
  0
LINE
  5
20F1
  8
247
 10
-160.4536866938648
 20
5.2236135767861436
 30
0.0
 11
-160.2130128488804
 21
5.4642874217705062
 31
0.0
  0
LINE
  5
20F2
  8
247
 10
-158.5980680565423
 20
7.0792322141083961
 30
0.0
 11
-158.35925497735511
 21
7.3180452932957261
 31
0.0
  0
LINE
  5
20F3
  8
247
 10
-160.3451366510221
 20
4.9954040150887877
 30
0.0
 11
-160.12131065072879
 21
5.219230015381898
 31
0.0
  0
LINE
  5
20F4
  8
247
 10
-160.20839514469151
 20
4.7953859168791571
 30
0.0
 11
-159.9924490162405
 21
5.0113320453302084
 31
0.0
  0
LINE
  5
20F5
  8
247
 10
-160.04584446030009
 20
4.6211769967303358
 30
0.0
 11
-159.83128290994981
 21
4.835738547080755
 31
0.0
  0
LINE
  5
20F6
  8
247
 10
-159.8578931863043
 20
4.4723686661862629
 30
0.0
 11
-159.63860215796171
 21
4.6916596945286493
 31
0.0
  0
LINE
  5
20F7
  8
247
 10
-159.643133225713
 20
4.3503690222375049
 30
0.0
 11
-159.4116330948612
 21
4.5818691530891673
 31
0.0
  0
LINE
  5
20F8
  8
247
 10
-159.39777127233481
 20
4.2589713710756341
 30
0.0
 11
-159.14211913648191
 21
4.5146235069283751
 31
0.0
  0
LINE
  5
20F9
  8
247
 10
-159.11368211005859
 20
4.2063009288114568
 30
0.0
 11
-158.81734267408891
 21
4.502640364781306
 31
0.0
  0
LINE
  5
20FA
  8
247
 10
-158.78371416526289
 20
4.1995092690671081
 30
0.0
 11
-158.4805830695488
 21
4.502640364781306
 31
0.0
  0
LINE
  5
20FB
  8
247
 10
-158.4469545607229
 20
4.1995092690671081
 30
0.0
 11
-158.14382346500881
 21
4.502640364781306
 31
0.0
  0
LINE
  5
20FC
  8
247
 10
-158.1101949561828
 20
4.1995092690671161
 30
0.0
 11
-157.80706386046859
 21
4.502640364781306
 31
0.0
  0
LINE
  5
20FD
  8
247
 10
-157.7734353516428
 20
4.1995092690671081
 30
0.0
 11
-157.4703042559286
 21
4.502640364781306
 31
0.0
  0
LINE
  5
20FE
  8
247
 10
-157.4366757471025
 20
4.1995092690671081
 30
0.0
 11
-157.13354465138841
 21
4.502640364781306
 31
0.0
  0
LINE
  5
20FF
  8
247
 10
-157.09991614256271
 20
4.1995092690670957
 30
0.0
 11
-156.79678504684841
 21
4.5026403647813158
 31
0.0
  0
LINE
  5
2100
  8
247
 10
-156.76315653802251
 20
4.1995092690670957
 30
0.0
 11
-156.46002544230831
 21
4.5026403647813158
 31
0.0
  0
LINE
  5
2101
  8
247
 10
-156.42639693348241
 20
4.1995092690670957
 30
0.0
 11
-156.12326583776809
 21
4.5026403647813158
 31
0.0
  0
LINE
  5
2102
  8
247
 10
-156.08963732894219
 20
4.1995092690670957
 30
0.0
 11
-155.7865062332281
 21
4.502640364781306
 31
0.0
  0
LINE
  5
2103
  8
247
 10
-153.1567815490707
 20
7.1323650489387704
 30
0.0
 11
-152.90970643629481
 21
7.379440161714637
 31
0.0
  0
LINE
  5
2104
  8
247
 10
-155.75287772440231
 20
4.1995092690670957
 30
0.0
 11
-155.44974662868799
 21
4.502640364781306
 31
0.0
  0
LINE
  5
2105
  8
247
 10
-152.8746150215583
 20
7.0777719719110443
 30
0.0
 11
-152.5862960768807
 21
7.3660909165885773
 31
0.0
  0
LINE
  5
2106
  8
247
 10
-155.41611811986209
 20
4.1995092690670957
 30
0.0
 11
-155.11298702414791
 21
4.502640364781306
 31
0.0
  0
LINE
  5
2107
  8
247
 10
-152.56128398772071
 20
7.0543434012085449
 30
0.0
 11
-152.3137119175654
 21
7.3019154713639267
 31
0.0
  0
LINE
  5
2108
  8
247
 10
-155.07935851532201
 20
4.1995092690670957
 30
0.0
 11
-154.77622741960781
 21
4.502640364781306
 31
0.0
  0
LINE
  5
2109
  8
247
 10
-152.30440388657911
 20
6.9744638978100451
 30
0.0
 11
-152.0770503090198
 21
7.201817475369368
 31
0.0
  0
LINE
  5
210A
  8
247
 10
-154.74259891078191
 20
4.1995092690670877
 30
0.0
 11
-154.4394678150677
 21
4.502640364781306
 31
0.0
  0
LINE
  5
210B
  8
247
 10
-152.08707202699159
 20
6.8550361528574477
 30
0.0
 11
-151.86967735699761
 21
7.0724308228513877
 31
0.0
  0
LINE
  5
210C
  8
247
 10
-154.4058393062418
 20
4.1995092690670877
 30
0.0
 11
-154.1027082105276
 21
4.5026403647812963
 31
0.0
  0
LINE
  5
210D
  8
247
 10
-151.90289037294519
 20
6.702458202363756
 30
0.0
 11
-151.68854428136271
 21
6.9168042939462548
 31
0.0
  0
LINE
  5
210E
  8
247
 10
-154.06907970170181
 20
4.1995092690670957
 30
0.0
 11
-153.76594860598749
 21
4.5026403647812963
 31
0.0
  0
LINE
  5
210F
  8
247
 10
-151.7501020580745
 20
6.5184869126943141
 30
0.0
 11
-151.5327484865258
 21
6.7358404842430772
 31
0.0
  0
LINE
  5
2110
  8
247
 10
-153.73232009716159
 20
4.1995092690670877
 30
0.0
 11
-153.42918900144741
 21
4.502640364781306
 31
0.0
  0
LINE
  5
2111
  8
247
 10
-151.63043967485049
 20
6.3013896913781062
 30
0.0
 11
-151.40318030279141
 21
6.5286490634372747
 31
0.0
  0
LINE
  5
2112
  8
247
 10
-153.3955604926216
 20
4.1995092690670957
 30
0.0
 11
-153.09242939690731
 21
4.502640364781306
 31
0.0
  0
LINE
  5
2113
  8
247
 10
-151.5502598762213
 20
6.044809885467318
 30
0.0
 11
-151.3028712325642
 21
6.2921985291244873
 31
0.0
  0
LINE
  5
2114
  8
247
 10
-153.05880088808141
 20
4.1995092690670957
 30
0.0
 11
-152.7543188738436
 21
4.5039912833049236
 31
0.0
  0
LINE
  5
2115
  8
247
 10
-151.52634842668749
 20
5.7319617304610571
 30
0.0
 11
-151.23842201444671
 21
6.0198881427018156
 31
0.0
  0
LINE
  5
2116
  8
247
 10
-152.7192604186535
 20
4.2022901339549161
 30
0.0
 11
-152.32123935656321
 21
4.6003111960451228
 31
0.0
  0
LINE
  5
2117
  8
247
 10
-151.62266833942761
 20
5.2988822131807627
 30
0.0
 11
-151.22464727733751
 21
5.6969032752709783
 31
0.0
  0
LINE
  5
2118
  8
247
 10
-152.30034975633029
 20
4.2844411917380647
 30
0.0
 11
-151.3067983351207
 21
5.2779926129477293
 31
0.0
  0
LINE
  5
2119
  8
247
 10
-155.96894343913701
 20
7.3510395997331353
 30
0.0
 11
-155.93761972124631
 21
7.3823633176240131
 31
0.0
  0
LINE
  5
211A
  8
247
 10
-155.94958153357379
 20
7.033641900756189
 30
0.0
 11
-155.6008601167062
 21
7.3823633176240131
 31
0.0
  0
LINE
  5
211B
  8
247
 10
-156.08496811269501
 20
6.5614957170951076
 30
0.0
 11
-155.2641005121659
 21
7.3823633176240051
 31
0.0
  0
LINE
  5
211C
  8
247
 10
-156.22035469181591
 20
6.0893495334340138
 30
0.0
 11
-155.26979819709831
 21
7.0399060281517452
 31
0.0
  0
LINE
  5
211D
  8
247
 10
-156.3557412709369
 20
5.6172033497729359
 30
0.0
 11
-155.40518292863129
 21
6.5677616920785127
 31
0.0
  0
LINE
  5
211E
  8
247
 10
-156.49112785005781
 20
5.145057166111858
 30
0.0
 11
-155.54056766016441
 21
6.0956173560052971
 31
0.0
  0
LINE
  5
211F
  8
247
 10
-156.62651442917891
 20
4.6729109824507766
 30
0.0
 11
-155.67595239169771
 21
5.6234730199320637
 31
0.0
  0
LINE
  5
2120
  8
247
 10
-156.30845989055041
 20
4.6542059165391247
 30
0.0
 11
-155.8113371232308
 21
5.1513286838588339
 31
0.0
  0
LINE
  5
2121
  8
247
 10
-155.9717002860103
 20
4.6542059165391247
 30
0.0
 11
-155.94672185476381
 21
4.6791843477856263
 31
0.0
  0
LINE
  5
2122
  8
247
 10
-155.95996109211009
 20
7.3823633176240282
 30
0.0
 11
-156.0555764790729
 21
7.0489282590302773
 31
0.0
  0
LINE
  5
2123
  8
247
 10
-156.0555764790729
 20
7.0489282590302773
 30
0.0
 11
-155.94519821369209
 21
7.0489282590302773
 31
0.0
  0
LINE
  5
2124
  8
247
 10
-155.94519821369209
 20
7.0489282590302773
 30
0.0
 11
-156.6318780537799
 21
4.6542059165391247
 31
0.0
  0
LINE
  5
2125
  8
247
 10
-156.6318780537799
 20
4.6542059165391247
 30
0.0
 11
-155.95388427936601
 21
4.6542059165391247
 31
0.0
  0
LINE
  5
2126
  8
247
 10
-155.95388427936601
 20
4.6542059165391247
 30
0.0
 11
-155.17160049640711
 21
7.3823633176240282
 31
0.0
  0
LINE
  5
2127
  8
247
 10
-155.17160049640711
 20
7.3823633176240282
 30
0.0
 11
-155.95996109211009
 21
7.3823633176240282
 31
0.0
  0
LINE
  5
2128
  8
247
 10
-155.95996109211009
 20
7.3823633176240282
 30
0.0
 11
-156.0555764790729
 21
7.0489282590302773
 31
0.0
1001
HATCH_DISTANCE
1040
1.0
1001
HATCH_DISPLAY
1070
     0
1001
HATCH_TYPE
1070
     7
  0
LINE
  5
2129
  8
247
 10
-156.0555764790729
 20
7.0489282590302773
 30
0.0
 11
-155.94519821369209
 21
7.0489282590302773
 31
0.0
1001
HATCH_DISTANCE
1040
1.0
1001
HATCH_DISPLAY
1070
     0
1001
HATCH_TYPE
1070
     7
  0
LINE
  5
212A
  8
247
 10
-155.94519821369209
 20
7.0489282590302773
 30
0.0
 11
-156.6318780537799
 21
4.6542059165391247
 31
0.0
1001
HATCH_DISTANCE
1040
1.0
1001
HATCH_DISPLAY
1070
     0
1001
HATCH_TYPE
1070
     7
  0
LINE
  5
212B
  8
247
 10
-156.6318780537799
 20
4.6542059165391247
 30
0.0
 11
-155.95388427936601
 21
4.6542059165391247
 31
0.0
1001
HATCH_DISTANCE
1040
1.0
1001
HATCH_DISPLAY
1070
     0
1001
HATCH_TYPE
1070
     7
  0
LINE
  5
212C
  8
247
 10
-155.95388427936601
 20
4.6542059165391247
 30
0.0
 11
-155.17160049640711
 21
7.3823633176240282
 31
0.0
1001
HATCH_DISTANCE
1040
1.0
1001
HATCH_DISPLAY
1070
     0
1001
HATCH_TYPE
1070
     7
  0
LINE
  5
212D
  8
247
 10
-155.17160049640711
 20
7.3823633176240282
 30
0.0
 11
-155.95996109211009
 21
7.3823633176240282
 31
0.0
1001
HATCH_DISTANCE
1040
1.0
1001
HATCH_DISPLAY
1070
     0
1001
HATCH_TYPE
1070
     7
  0
LINE
  5
212E
  8
247
 10
-153.1277429219441
 20
7.0402765256318336
 30
0.0
 11
-153.2190324422078
 21
7.3297777158173876
 31
0.0
  0
LINE
  5
212F
  8
247
 10
-153.2190324422078
 20
7.3297777158173876
 30
0.0
 11
-153.2190324422078
 21
7.3297777158173876
 31
0.0
  0
LINE
  5
2130
  8
247
 10
-153.2190324422078
 20
7.3297777158173876
 30
0.0
 11
-153.1277429219441
 21
7.0402765256318336
 31
0.0
  0
LINE
  5
2131
  8
247
 10
-153.1277429219441
 20
7.0402765256318336
 30
0.0
 11
-153.1277429219441
 21
7.0402765256318336
 31
0.0
  0
LINE
  5
2132
  8
247
 10
-153.1277429219441
 20
7.0402765256318336
 30
0.0
 11
-153.2190324422078
 21
7.3297777158173876
 31
0.0
1001
HATCH_DISTANCE
1040
1.0
1001
HATCH_DISPLAY
1070
     0
1001
HATCH_TYPE
1070
     7
  0
LINE
  5
2133
  8
247
 10
-153.2190324422078
 20
7.3297777158173876
 30
0.0
 11
-153.2190324422078
 21
7.3297777158173876
 31
0.0
1001
HATCH_DISTANCE
1040
1.0
1001
HATCH_DISPLAY
1070
     0
1001
HATCH_TYPE
1070
     7
  0
LINE
  5
2134
  8
247
 10
-153.2190324422078
 20
7.3297777158173876
 30
0.0
 11
-153.1277429219441
 21
7.0402765256318336
 31
0.0
1001
HATCH_DISTANCE
1040
1.0
1001
HATCH_DISPLAY
1070
     0
1001
HATCH_TYPE
1070
     7
  0
LINE
  5
2135
  8
247
 10
-153.1277429219441
 20
7.0402765256318336
 30
0.0
 11
-153.1277429219441
 21
7.0402765256318336
 31
0.0
1001
HATCH_DISTANCE
1040
1.0
1001
HATCH_DISPLAY
1070
     0
1001
HATCH_TYPE
1070
     7
  0
LINE
  5
2136
  8
247
 10
-153.1277429219441
 20
7.0402765256318336
 30
0.0
 11
-153.2190324422078
 21
7.3297777158173876
 31
0.0
  0
LINE
  5
2137
  8
247
 10
-153.2190324422078
 20
7.3297777158173876
 30
0.0
 11
-153.2190324422078
 21
7.3297777158173876
 31
0.0
  0
LINE
  5
2138
  8
247
 10
-153.2190324422078
 20
7.3297777158173876
 30
0.0
 11
-153.1277429219441
 21
7.0402765256318336
 31
0.0
  0
LINE
  5
2139
  8
247
 10
-153.1277429219441
 20
7.0402765256318336
 30
0.0
 11
-153.1277429219441
 21
7.0402765256318336
 31
0.0
  0
LINE
  5
213A
  8
247
 10
-153.1277429219441
 20
7.0402765256318336
 30
0.0
 11
-153.2190324422078
 21
7.3297777158173876
 31
0.0
1001
HATCH_DISTANCE
1040
1.0
1001
HATCH_DISPLAY
1070
     0
1001
HATCH_TYPE
1070
     7
  0
LINE
  5
213B
  8
247
 10
-153.2190324422078
 20
7.3297777158173876
 30
0.0
 11
-153.2190324422078
 21
7.3297777158173876
 31
0.0
1001
HATCH_DISTANCE
1040
1.0
1001
HATCH_DISPLAY
1070
     0
1001
HATCH_TYPE
1070
     7
  0
LINE
  5
213C
  8
247
 10
-153.2190324422078
 20
7.3297777158173876
 30
0.0
 11
-153.1277429219441
 21
7.0402765256318336
 31
0.0
1001
HATCH_DISTANCE
1040
1.0
1001
HATCH_DISPLAY
1070
     0
1001
HATCH_TYPE
1070
     7
  0
LINE
  5
213D
  8
247
 10
-153.1277429219441
 20
7.0402765256318336
 30
0.0
 11
-153.1277429219441
 21
7.0402765256318336
 31
0.0
1001
HATCH_DISTANCE
1040
1.0
1001
HATCH_DISPLAY
1070
     0
1001
HATCH_TYPE
1070
     7
  0
LINE
  5
213E
  8
241
  6
CONTINUOUS
 10
-14.00000000000006
 20
5.7500000000000009
 30
0.0
 11
-14.00000000000006
 21
-5.7499999999999973
 31
0.0
  0
LINE
  5
213F
  8
241
 10
-0.2669997718571068
 20
0.2669997718571553
 30
0.0
 11
-0.273258999999952
 21
0.2663410000000017
 31
0.0
  0
LINE
  5
2140
  8
241
 10
-0.273258999999952
 20
0.2663410000000017
 30
0.0
 11
-0.3326659999999519
 21
0.2601180000000016
 31
0.0
  0
LINE
  5
2141
  8
241
 10
-0.3326659999999519
 20
0.2601180000000016
 30
0.0
 11
-0.392066999999952
 21
0.2539520000000017
 31
0.0
  0
LINE
  5
2142
  8
241
 10
-0.392066999999952
 20
0.2539520000000017
 30
0.0
 11
-0.4514569999999521
 21
0.2478720000000017
 31
0.0
  0
LINE
  5
2143
  8
241
 10
-0.4514569999999521
 20
0.2478720000000017
 30
0.0
 11
-0.5108339999999521
 21
0.2419080000000017
 31
0.0
  0
LINE
  5
2144
  8
241
 10
-0.5108339999999521
 20
0.2419080000000017
 30
0.0
 11
-0.5701919999999522
 21
0.2360880000000018
 31
0.0
  0
LINE
  5
2145
  8
241
 10
-0.5701919999999522
 20
0.2360880000000018
 30
0.0
 11
-0.6295299999999522
 21
0.2304410000000017
 31
0.0
  0
LINE
  5
2146
  8
241
 10
-0.6295299999999522
 20
0.2304410000000017
 30
0.0
 11
-0.688842999999952
 21
0.2249960000000017
 31
0.0
  0
LINE
  5
2147
  8
241
 10
-0.688842999999952
 20
0.2249960000000017
 30
0.0
 11
-0.7481289999999522
 21
0.2197810000000017
 31
0.0
  0
LINE
  5
2148
  8
241
 10
-0.7481289999999522
 20
0.2197810000000017
 30
0.0
 11
-0.8073829999999519
 21
0.2148260000000017
 31
0.0
  0
LINE
  5
2149
  8
241
 10
-0.8073829999999519
 20
0.2148260000000017
 30
0.0
 11
-0.8666019999999521
 21
0.2101590000000017
 31
0.0
  0
LINE
  5
214A
  8
241
 10
-0.8666019999999521
 20
0.2101590000000017
 30
0.0
 11
-0.925781999999952
 21
0.2058090000000017
 31
0.0
  0
LINE
  5
214B
  8
241
 10
-0.925781999999952
 20
0.2058090000000017
 30
0.0
 11
-0.9849209999999521
 21
0.2018060000000017
 31
0.0
  0
LINE
  5
214C
  8
241
 10
-0.9849209999999521
 20
0.2018060000000017
 30
0.0
 11
-1.0440099999999519
 21
0.1981770000000017
 31
0.0
  0
LINE
  5
214D
  8
241
 10
-1.0440099999999519
 20
0.1981770000000017
 30
0.0
 11
-1.1030599999999511
 21
0.1949520000000017
 31
0.0
  0
LINE
  5
214E
  8
241
 10
-1.1030599999999511
 20
0.1949520000000017
 30
0.0
 11
-1.1620499999999521
 21
0.1921590000000017
 31
0.0
  0
LINE
  5
214F
  8
241
 10
-1.1620499999999521
 20
0.1921590000000017
 30
0.0
 11
-1.2209899999999521
 21
0.1898270000000017
 31
0.0
  0
LINE
  5
2150
  8
241
 10
-1.2209899999999521
 20
0.1898270000000017
 30
0.0
 11
-1.2798599999999509
 21
0.1879860000000017
 31
0.0
  0
LINE
  5
2151
  8
241
 10
-1.2798599999999509
 20
0.1879860000000017
 30
0.0
 11
-1.338679999999951
 21
0.1866630000000018
 31
0.0
  0
LINE
  5
2152
  8
241
 10
-1.338679999999951
 20
0.1866630000000018
 30
0.0
 11
-1.3974199999999519
 21
0.1858890000000017
 31
0.0
  0
LINE
  5
2153
  8
241
 10
-1.3974199999999519
 20
0.1858890000000017
 30
0.0
 11
-1.4560999999999511
 21
0.1856910000000017
 31
0.0
  0
LINE
  5
2154
  8
241
 10
-1.4560999999999511
 20
0.1856910000000017
 30
0.0
 11
-1.5146999999999511
 21
0.1860980000000017
 31
0.0
  0
LINE
  5
2155
  8
241
 10
-1.5146999999999511
 20
0.1860980000000017
 30
0.0
 11
-1.5732299999999511
 21
0.1871400000000017
 31
0.0
  0
LINE
  5
2156
  8
241
 10
-1.5732299999999511
 20
0.1871400000000017
 30
0.0
 11
-1.6316799999999521
 21
0.1888440000000017
 31
0.0
  0
LINE
  5
2157
  8
241
 10
-1.6316799999999521
 20
0.1888440000000017
 30
0.0
 11
-1.690039999999952
 21
0.1912410000000017
 31
0.0
  0
LINE
  5
2158
  8
241
 10
-1.690039999999952
 20
0.1912410000000017
 30
0.0
 11
-1.7483199999999519
 21
0.1943580000000017
 31
0.0
  0
LINE
  5
2159
  8
241
 10
-1.7483199999999519
 20
0.1943580000000017
 30
0.0
 11
-1.8064999999999509
 21
0.1982250000000017
 31
0.0
  0
LINE
  5
215A
  8
241
 10
-1.8064999999999509
 20
0.1982250000000017
 30
0.0
 11
-1.864589999999952
 21
0.2028710000000017
 31
0.0
  0
LINE
  5
215B
  8
241
 10
-1.864589999999952
 20
0.2028710000000017
 30
0.0
 11
-1.9225799999999511
 21
0.2083240000000017
 31
0.0
  0
LINE
  5
215C
  8
241
 10
-1.9225799999999511
 20
0.2083240000000017
 30
0.0
 11
-1.980469999999952
 21
0.2146040000000017
 31
0.0
  0
LINE
  5
215D
  8
241
 10
-1.980469999999952
 20
0.2146040000000017
 30
0.0
 11
-2.03825999999995
 21
0.2217080000000017
 31
0.0
  0
LINE
  5
215E
  8
241
 10
-2.03825999999995
 20
0.2217080000000017
 30
0.0
 11
-2.0959399999999522
 21
0.2296250000000017
 31
0.0
  0
LINE
  5
215F
  8
241
 10
-2.0959399999999522
 20
0.2296250000000017
 30
0.0
 11
-2.1535099999999501
 21
0.2383480000000017
 31
0.0
  0
LINE
  5
2160
  8
241
 10
-2.1535099999999501
 20
0.2383480000000017
 30
0.0
 11
-2.2109699999999521
 21
0.2478670000000017
 31
0.0
  0
LINE
  5
2161
  8
241
 10
-2.2109699999999521
 20
0.2478670000000017
 30
0.0
 11
-2.2683099999999521
 21
0.2581720000000017
 31
0.0
  0
LINE
  5
2162
  8
241
 10
-2.2683099999999521
 20
0.2581720000000017
 30
0.0
 11
-2.3255399999999522
 21
0.2692540000000017
 31
0.0
  0
LINE
  5
2163
  8
241
 10
-2.3255399999999522
 20
0.2692540000000017
 30
0.0
 11
-2.382639999999951
 21
0.2811050000000017
 31
0.0
  0
LINE
  5
2164
  8
241
 10
-2.382639999999951
 20
0.2811050000000017
 30
0.0
 11
-2.4396199999999522
 21
0.2937150000000017
 31
0.0
  0
LINE
  5
2165
  8
241
 10
-2.4396199999999522
 20
0.2937150000000017
 30
0.0
 11
-2.4964799999999521
 21
0.3070750000000017
 31
0.0
  0
LINE
  5
2166
  8
241
 10
-2.4964799999999521
 20
0.3070750000000017
 30
0.0
 11
-2.5532099999999511
 21
0.3211760000000017
 31
0.0
  0
LINE
  5
2167
  8
241
 10
-2.5532099999999511
 20
0.3211760000000017
 30
0.0
 11
-2.609799999999951
 21
0.3360090000000017
 31
0.0
  0
LINE
  5
2168
  8
241
 10
-2.609799999999951
 20
0.3360090000000017
 30
0.0
 11
-2.6662699999999511
 21
0.3515640000000017
 31
0.0
  0
LINE
  5
2169
  8
241
 10
-2.6662699999999511
 20
0.3515640000000017
 30
0.0
 11
-2.722589999999951
 21
0.3678330000000017
 31
0.0
  0
LINE
  5
216A
  8
241
 10
-2.722589999999951
 20
0.3678330000000017
 30
0.0
 11
-2.7787799999999501
 21
0.3848060000000017
 31
0.0
  0
LINE
  5
216B
  8
241
 10
-2.7787799999999501
 20
0.3848060000000017
 30
0.0
 11
-2.8348199999999522
 21
0.4024750000000018
 31
0.0
  0
LINE
  5
216C
  8
241
 10
-2.8348199999999522
 20
0.4024750000000018
 30
0.0
 11
-2.8907199999999511
 21
0.4208290000000018
 31
0.0
  0
LINE
  5
216D
  8
241
 10
-2.8907199999999511
 20
0.4208290000000018
 30
0.0
 11
-2.9464699999999522
 21
0.4398600000000018
 31
0.0
  0
LINE
  5
216E
  8
241
 10
-2.9464699999999522
 20
0.4398600000000018
 30
0.0
 11
-3.0020699999999509
 21
0.4595590000000018
 31
0.0
  0
LINE
  5
216F
  8
241
 10
-3.0020699999999509
 20
0.4595590000000018
 30
0.0
 11
-3.0575199999999509
 21
0.4799160000000019
 31
0.0
  0
LINE
  5
2170
  8
241
 10
-3.0575199999999509
 20
0.4799160000000019
 30
0.0
 11
-3.1128099999999508
 21
0.5009230000000019
 31
0.0
  0
LINE
  5
2171
  8
241
 10
-3.1128099999999508
 20
0.5009230000000019
 30
0.0
 11
-3.1679399999999518
 21
0.5225700000000018
 31
0.0
  0
LINE
  5
2172
  8
241
 10
-3.1679399999999518
 20
0.5225700000000018
 30
0.0
 11
-3.22290999999995
 21
0.5448480000000017
 31
0.0
  0
LINE
  5
2173
  8
241
 10
-3.22290999999995
 20
0.5448480000000017
 30
0.0
 11
-3.2777099999999511
 21
0.5677480000000016
 31
0.0
  0
LINE
  5
2174
  8
241
 10
-3.2777099999999511
 20
0.5677480000000016
 30
0.0
 11
-3.3323499999999502
 21
0.5912610000000016
 31
0.0
  0
LINE
  5
2175
  8
241
 10
-3.3323499999999502
 20
0.5912610000000016
 30
0.0
 11
-3.38681999999995
 21
0.6153780000000017
 31
0.0
  0
LINE
  5
2176
  8
241
 10
-3.38681999999995
 20
0.6153780000000017
 30
0.0
 11
-3.44111999999995
 21
0.6400890000000019
 31
0.0
  0
LINE
  5
2177
  8
241
 10
-3.44111999999995
 20
0.6400890000000019
 30
0.0
 11
-3.4952399999999511
 21
0.6653850000000018
 31
0.0
  0
LINE
  5
2178
  8
241
 10
-3.4952399999999511
 20
0.6653850000000018
 30
0.0
 11
-3.5491799999999509
 21
0.6912580000000018
 31
0.0
  0
LINE
  5
2179
  8
241
 10
-3.5491799999999509
 20
0.6912580000000018
 30
0.0
 11
-3.602949999999951
 21
0.7176980000000017
 31
0.0
  0
LINE
  5
217A
  8
241
 10
-3.602949999999951
 20
0.7176980000000017
 30
0.0
 11
-3.6565299999999521
 21
0.7446950000000018
 31
0.0
  0
LINE
  5
217B
  8
241
 10
-3.6565299999999521
 20
0.7446950000000018
 30
0.0
 11
-3.709919999999951
 21
0.7722420000000017
 31
0.0
  0
LINE
  5
217C
  8
241
 10
-3.709919999999951
 20
0.7722420000000017
 30
0.0
 11
-3.763129999999951
 21
0.8003280000000016
 31
0.0
  0
LINE
  5
217D
  8
241
 10
-3.763129999999951
 20
0.8003280000000016
 30
0.0
 11
-3.816139999999951
 21
0.8289440000000016
 31
0.0
  0
LINE
  5
217E
  8
241
 10
-3.816139999999951
 20
0.8289440000000016
 30
0.0
 11
-3.8689599999999511
 21
0.8580820000000015
 31
0.0
  0
LINE
  5
217F
  8
241
 10
-3.8689599999999511
 20
0.8580820000000015
 30
0.0
 11
-3.9215799999999521
 21
0.8877320000000015
 31
0.0
  0
LINE
  5
2180
  8
241
 10
-3.9215799999999521
 20
0.8877320000000015
 30
0.0
 11
-3.9739999999999518
 21
0.9178850000000016
 31
0.0
  0
LINE
  5
2181
  8
241
 10
-3.9739999999999518
 20
0.9178850000000016
 30
0.0
 11
-4.0262199999999506
 21
0.9485320000000017
 31
0.0
  0
LINE
  5
2182
  8
241
 10
-4.0262199999999506
 20
0.9485320000000017
 30
0.0
 11
-4.0782399999999521
 21
0.9796640000000016
 31
0.0
  0
LINE
  5
2183
  8
241
 10
-4.0782399999999521
 20
0.9796640000000016
 30
0.0
 11
-4.1300399999999522
 21
1.011270000000001
 31
0.0
  0
LINE
  5
2184
  8
241
 10
-4.1300399999999522
 20
1.011270000000001
 30
0.0
 11
-4.1816399999999501
 21
1.04335
 31
0.0
  0
LINE
  5
2185
  8
241
 10
-4.1816399999999501
 20
1.04335
 30
0.0
 11
-4.23301999999995
 21
1.0758800000000011
 31
0.0
  0
LINE
  5
2186
  8
241
 10
-4.23301999999995
 20
1.0758800000000011
 30
0.0
 11
-4.28418999999995
 21
1.1088600000000011
 31
0.0
  0
LINE
  5
2187
  8
241
 10
-4.28418999999995
 20
1.1088600000000011
 30
0.0
 11
-4.3351299999999524
 21
1.142270000000001
 31
0.0
  0
LINE
  5
2188
  8
241
 10
-4.3351299999999524
 20
1.142270000000001
 30
0.0
 11
-4.3858599999999521
 21
1.1761200000000009
 31
0.0
  0
LINE
  5
2189
  8
241
 10
-4.3858599999999521
 20
1.1761200000000009
 30
0.0
 11
-4.4363599999999508
 21
1.2103900000000001
 31
0.0
  0
LINE
  5
218A
  8
241
 10
-4.4363599999999508
 20
1.2103900000000001
 30
0.0
 11
-4.486629999999951
 21
1.245070000000001
 31
0.0
  0
LINE
  5
218B
  8
241
 10
-4.486629999999951
 20
1.245070000000001
 30
0.0
 11
-4.5366799999999508
 21
1.2801499999999999
 31
0.0
  0
LINE
  5
218C
  8
241
 10
-4.5366799999999508
 20
1.2801499999999999
 30
0.0
 11
-4.5864899999999524
 21
1.3156300000000001
 31
0.0
  0
LINE
  5
218D
  8
241
 10
-4.5864899999999524
 20
1.3156300000000001
 30
0.0
 11
-4.6360599999999508
 21
1.3514900000000001
 31
0.0
  0
LINE
  5
218E
  8
241
 10
-4.6360599999999508
 20
1.3514900000000001
 30
0.0
 11
-4.6853999999999507
 21
1.387720000000001
 31
0.0
  0
LINE
  5
218F
  8
241
 10
-4.6853999999999507
 20
1.387720000000001
 30
0.0
 11
-4.73449999999995
 21
1.42432
 31
0.0
  0
LINE
  5
2190
  8
241
 10
-4.73449999999995
 20
1.42432
 30
0.0
 11
-4.7833499999999516
 21
1.4612799999999999
 31
0.0
  0
LINE
  5
2191
  8
241
 10
-4.7833499999999516
 20
1.4612799999999999
 30
0.0
 11
-4.8319599999999507
 21
1.4985900000000001
 31
0.0
  0
LINE
  5
2192
  8
241
 10
-4.8319599999999507
 20
1.4985900000000001
 30
0.0
 11
-4.88030999999995
 21
1.53623
 31
0.0
  0
LINE
  5
2193
  8
241
 10
-4.88030999999995
 20
1.53623
 30
0.0
 11
-4.9284199999999521
 21
1.5742000000000009
 31
0.0
  0
LINE
  5
2194
  8
241
 10
-4.9284199999999521
 20
1.5742000000000009
 30
0.0
 11
-4.9762699999999507
 21
1.6125000000000009
 31
0.0
  0
LINE
  5
2195
  8
241
 10
-4.9762699999999507
 20
1.6125000000000009
 30
0.0
 11
-5.0238699999999508
 21
1.6511000000000009
 31
0.0
  0
LINE
  5
2196
  8
241
 10
-5.0238699999999508
 20
1.6511000000000009
 30
0.0
 11
-5.0711999999999522
 21
1.6900000000000011
 31
0.0
  0
LINE
  5
2197
  8
241
 10
-5.0711999999999522
 20
1.6900000000000011
 30
0.0
 11
-5.118269999999951
 21
1.729200000000001
 31
0.0
  0
LINE
  5
2198
  8
241
 10
-5.118269999999951
 20
1.729200000000001
 30
0.0
 11
-5.1650799999999508
 21
1.76868
 31
0.0
  0
LINE
  5
2199
  8
241
 10
-5.1650799999999508
 20
1.76868
 30
0.0
 11
-5.2116199999999511
 21
1.8084400000000009
 31
0.0
  0
LINE
  5
219A
  8
241
 10
-5.2116199999999511
 20
1.8084400000000009
 30
0.0
 11
-5.2578799999999521
 21
1.84846
 31
0.0
  0
LINE
  5
219B
  8
241
 10
-5.2578799999999521
 20
1.84846
 30
0.0
 11
-5.3038799999999524
 21
1.888740000000001
 31
0.0
  0
LINE
  5
219C
  8
241
 10
-5.3038799999999524
 20
1.888740000000001
 30
0.0
 11
-5.3495899999999521
 21
1.9292600000000011
 31
0.0
  0
LINE
  5
219D
  8
241
 10
-5.3495899999999521
 20
1.9292600000000011
 30
0.0
 11
-5.3950299999999523
 21
1.970020000000001
 31
0.0
  0
LINE
  5
219E
  8
241
 10
-5.3950299999999523
 20
1.970020000000001
 30
0.0
 11
-5.4401899999999523
 21
2.0110100000000002
 31
0.0
  0
LINE
  5
219F
  8
241
 10
-5.4401899999999523
 20
2.0110100000000002
 30
0.0
 11
-5.4850599999999501
 21
2.052220000000001
 31
0.0
  0
LINE
  5
21A0
  8
241
 10
-5.4850599999999501
 20
2.052220000000001
 30
0.0
 11
-5.5296399999999508
 21
2.0936400000000011
 31
0.0
  0
LINE
  5
21A1
  8
241
 10
-5.5296399999999508
 20
2.0936400000000011
 30
0.0
 11
-5.573929999999951
 21
2.1352600000000002
 31
0.0
  0
LINE
  5
21A2
  8
241
 10
-5.573929999999951
 20
2.1352600000000002
 30
0.0
 11
-5.6179399999999511
 21
2.1770700000000009
 31
0.0
  0
LINE
  5
21A3
  8
241
 10
-5.6179399999999511
 20
2.1770700000000009
 30
0.0
 11
-5.6616399999999523
 21
2.2190699999999999
 31
0.0
  0
LINE
  5
21A4
  8
241
 10
-5.6616399999999523
 20
2.2190699999999999
 30
0.0
 11
-5.7050599999999507
 21
2.26125
 31
0.0
  0
LINE
  5
21A5
  8
241
 10
-5.7050599999999507
 20
2.26125
 30
0.0
 11
-5.7481899999999522
 21
2.3036099999999999
 31
0.0
  0
LINE
  5
21A6
  8
241
 10
-5.7481899999999522
 20
2.3036099999999999
 30
0.0
 11
-5.7910299999999522
 21
2.3461500000000011
 31
0.0
  0
LINE
  5
21A7
  8
241
 10
-5.7910299999999522
 20
2.3461500000000011
 30
0.0
 11
-5.8335999999999499
 21
2.3888700000000012
 31
0.0
  0
LINE
  5
21A8
  8
241
 10
-5.8335999999999499
 20
2.3888700000000012
 30
0.0
 11
-5.8758799999999516
 21
2.4317600000000001
 31
0.0
  0
LINE
  5
21A9
  8
241
 10
-5.8758799999999516
 20
2.4317600000000001
 30
0.0
 11
-5.917889999999951
 21
2.4748200000000011
 31
0.0
  0
LINE
  5
21AA
  8
241
 10
-5.917889999999951
 20
2.4748200000000011
 30
0.0
 11
-5.9596299999999509
 21
2.5180600000000002
 31
0.0
  0
LINE
  5
21AB
  8
241
 10
-5.9596299999999509
 20
2.5180600000000002
 30
0.0
 11
-6.0010999999999521
 21
2.5614599999999998
 31
0.0
  0
LINE
  5
21AC
  8
241
 10
-6.0010999999999521
 20
2.5614599999999998
 30
0.0
 11
-6.0423099999999508
 21
2.6050300000000002
 31
0.0
  0
LINE
  5
21AD
  8
241
 10
-6.0423099999999508
 20
2.6050300000000002
 30
0.0
 11
-6.0832499999999508
 21
2.6487599999999998
 31
0.0
  0
LINE
  5
21AE
  8
241
 10
-6.0832499999999508
 20
2.6487599999999998
 30
0.0
 11
-6.1239399999999522
 21
2.69265
 31
0.0
  0
LINE
  5
21AF
  8
241
 10
-6.1239399999999522
 20
2.69265
 30
0.0
 11
-6.1643699999999511
 21
2.73671
 31
0.0
  0
LINE
  5
21B0
  8
241
 10
-6.1643699999999511
 20
2.73671
 30
0.0
 11
-6.20453999999995
 21
2.7809200000000009
 31
0.0
  0
LINE
  5
21B1
  8
241
 10
-6.20453999999995
 20
2.7809200000000009
 30
0.0
 11
-6.24446999999995
 21
2.8252900000000012
 31
0.0
  0
LINE
  5
21B2
  8
241
 10
-6.24446999999995
 20
2.8252900000000012
 30
0.0
 11
-6.2841599999999511
 21
2.8698100000000002
 31
0.0
  0
LINE
  5
21B3
  8
241
 10
-6.2841599999999511
 20
2.8698100000000002
 30
0.0
 11
-6.323599999999951
 21
2.9144900000000011
 31
0.0
  0
LINE
  5
21B4
  8
241
 10
-6.323599999999951
 20
2.9144900000000011
 30
0.0
 11
-6.362799999999952
 21
2.9593099999999999
 31
0.0
  0
LINE
  5
21B5
  8
241
 10
-6.362799999999952
 20
2.9593099999999999
 30
0.0
 11
-6.4017599999999506
 21
3.004290000000001
 31
0.0
  0
LINE
  5
21B6
  8
241
 10
-6.4017599999999506
 20
3.004290000000001
 30
0.0
 11
-6.4404999999999522
 21
3.0493999999999999
 31
0.0
  0
LINE
  5
21B7
  8
241
 10
-6.4404999999999522
 20
3.0493999999999999
 30
0.0
 11
-6.4789999999999521
 21
3.0946700000000011
 31
0.0
  0
LINE
  5
21B8
  8
241
 10
-6.4789999999999521
 20
3.0946700000000011
 30
0.0
 11
-6.5172799999999516
 21
3.140070000000001
 31
0.0
  0
LINE
  5
21B9
  8
241
 10
-6.5172799999999516
 20
3.140070000000001
 30
0.0
 11
-6.5553299999999508
 21
3.185620000000001
 31
0.0
  0
LINE
  5
21BA
  8
241
 10
-6.5553299999999508
 20
3.185620000000001
 30
0.0
 11
-6.59316999999995
 21
3.2313000000000009
 31
0.0
  0
LINE
  5
21BB
  8
241
 10
-6.59316999999995
 20
3.2313000000000009
 30
0.0
 11
-6.6307899999999513
 21
3.27712
 31
0.0
  0
LINE
  5
21BC
  8
241
 10
-6.6307899999999513
 20
3.27712
 30
0.0
 11
-6.6681899999999512
 21
3.32307
 31
0.0
  0
LINE
  5
21BD
  8
241
 10
-6.6681899999999512
 20
3.32307
 30
0.0
 11
-6.7053899999999507
 21
3.3691599999999999
 31
0.0
  0
LINE
  5
21BE
  8
241
 10
-6.7053899999999507
 20
3.3691599999999999
 30
0.0
 11
-6.7423699999999513
 21
3.4153699999999998
 31
0.0
  0
LINE
  5
21BF
  8
241
 10
-6.7423699999999513
 20
3.4153699999999998
 30
0.0
 11
-6.7791599999999521
 21
3.4617200000000001
 31
0.0
  0
LINE
  5
21C0
  8
241
 10
-6.7791599999999521
 20
3.4617200000000001
 30
0.0
 11
-6.8157399999999511
 21
3.5081800000000012
 31
0.0
  0
LINE
  5
21C1
  8
241
 10
-6.8157399999999511
 20
3.5081800000000012
 30
0.0
 11
-6.852129999999951
 21
3.5547800000000009
 31
0.0
  0
LINE
  5
21C2
  8
241
 10
-6.852129999999951
 20
3.5547800000000009
 30
0.0
 11
-6.8883199999999514
 21
3.601490000000001
 31
0.0
  0
LINE
  5
21C3
  8
241
 10
-6.8883199999999514
 20
3.601490000000001
 30
0.0
 11
-6.9243199999999501
 21
3.64832
 31
0.0
  0
LINE
  5
21C4
  8
241
 10
-6.9243199999999501
 20
3.64832
 30
0.0
 11
-6.9601399999999511
 21
3.6952700000000012
 31
0.0
  0
LINE
  5
21C5
  8
241
 10
-6.9601399999999511
 20
3.6952700000000012
 30
0.0
 11
-6.9957699999999523
 21
3.74234
 31
0.0
  0
LINE
  5
21C6
  8
241
 10
-6.9957699999999523
 20
3.74234
 30
0.0
 11
-7.0312199999999523
 21
3.78952
 31
0.0
  0
LINE
  5
21C7
  8
241
 10
-7.0312199999999523
 20
3.78952
 30
0.0
 11
-7.0664899999999511
 21
3.8368100000000012
 31
0.0
  0
LINE
  5
21C8
  8
241
 10
-7.0664899999999511
 20
3.8368100000000012
 30
0.0
 11
-7.1015899999999501
 21
3.8842099999999999
 31
0.0
  0
LINE
  5
21C9
  8
241
 10
-7.1015899999999501
 20
3.8842099999999999
 30
0.0
 11
-7.1365099999999524
 21
3.9317199999999999
 31
0.0
  0
LINE
  5
21CA
  8
241
 10
-7.1365099999999524
 20
3.9317199999999999
 30
0.0
 11
-7.1712699999999501
 21
3.979340000000001
 31
0.0
  0
LINE
  5
21CB
  8
241
 10
-7.1712699999999501
 20
3.979340000000001
 30
0.0
 11
-7.2058599999999524
 21
4.0270500000000009
 31
0.0
  0
LINE
  5
21CC
  8
241
 10
-7.2058599999999524
 20
4.0270500000000009
 30
0.0
 11
-7.240289999999951
 21
4.0748699999999998
 31
0.0
  0
LINE
  5
21CD
  8
241
 10
-7.240289999999951
 20
4.0748699999999998
 30
0.0
 11
-7.2745699999999509
 21
4.1227900000000011
 31
0.0
  0
LINE
  5
21CE
  8
241
 10
-7.2745699999999509
 20
4.1227900000000011
 30
0.0
 11
-7.3086899999999497
 21
4.1708100000000012
 31
0.0
  0
LINE
  5
21CF
  8
241
 10
-7.3086899999999497
 20
4.1708100000000012
 30
0.0
 11
-7.342649999999951
 21
4.2189199999999998
 31
0.0
  0
LINE
  5
21D0
  8
241
 10
-7.342649999999951
 20
4.2189199999999998
 30
0.0
 11
-7.3764699999999497
 21
4.267120000000002
 31
0.0
  0
LINE
  5
21D1
  8
241
 10
-7.3764699999999497
 20
4.267120000000002
 30
0.0
 11
-7.4101399999999504
 21
4.3154200000000014
 31
0.0
  0
LINE
  5
21D2
  8
241
 10
-7.4101399999999504
 20
4.3154200000000014
 30
0.0
 11
-7.443669999999952
 21
4.3638000000000021
 31
0.0
  0
LINE
  5
21D3
  8
241
 10
-7.443669999999952
 20
4.3638000000000021
 30
0.0
 11
-7.477059999999951
 21
4.41228
 31
0.0
  0
LINE
  5
21D4
  8
241
 10
-7.477059999999951
 20
4.41228
 30
0.0
 11
-7.5103199999999521
 21
4.4608300000000014
 31
0.0
  0
LINE
  5
21D5
  8
241
 10
-7.5103199999999521
 20
4.4608300000000014
 30
0.0
 11
-7.5434399999999497
 21
4.5094700000000021
 31
0.0
  0
LINE
  5
21D6
  8
241
 10
-7.5434399999999497
 20
4.5094700000000021
 30
0.0
 11
-7.5764299999999523
 21
4.558200000000002
 31
0.0
  0
LINE
  5
21D7
  8
241
 10
-7.5764299999999523
 20
4.558200000000002
 30
0.0
 11
-7.6092999999999522
 21
4.6070000000000011
 31
0.0
  0
LINE
  5
21D8
  8
241
 10
-7.6092999999999522
 20
4.6070000000000011
 30
0.0
 11
-7.6420399999999509
 21
4.6558700000000011
 31
0.0
  0
LINE
  5
21D9
  8
241
 10
-7.6420399999999509
 20
4.6558700000000011
 30
0.0
 11
-7.674669999999951
 21
4.7048300000000021
 31
0.0
  0
LINE
  5
21DA
  8
241
 10
-7.674669999999951
 20
4.7048300000000021
 30
0.0
 11
-7.7071799999999522
 21
4.7538499999999999
 31
0.0
  0
LINE
  5
21DB
  8
241
 10
-7.7071799999999522
 20
4.7538499999999999
 30
0.0
 11
-7.7395699999999499
 21
4.8029500000000009
 31
0.0
  0
LINE
  5
21DC
  8
241
 10
-7.7395699999999499
 20
4.8029500000000009
 30
0.0
 11
-7.7718599999999523
 21
4.8521200000000011
 31
0.0
  0
LINE
  5
21DD
  8
241
 10
-7.7718599999999523
 20
4.8521200000000011
 30
0.0
 11
-7.8040299999999521
 21
4.9013499999999999
 31
0.0
  0
LINE
  5
21DE
  8
241
 10
-7.8040299999999521
 20
4.9013499999999999
 30
0.0
 11
-7.8361099999999499
 21
4.9506500000000022
 31
0.0
  0
LINE
  5
21DF
  8
241
 10
-7.8361099999999499
 20
4.9506500000000022
 30
0.0
 11
-7.8680799999999502
 21
5.0000100000000014
 31
0.0
  0
LINE
  5
21E0
  8
241
 10
-7.8680799999999502
 20
5.0000100000000014
 30
0.0
 11
-7.8999599999999521
 21
5.049430000000001
 31
0.0
  0
LINE
  5
21E1
  8
241
 10
-7.8999599999999521
 20
5.049430000000001
 30
0.0
 11
-7.9317499999999521
 21
5.0989100000000009
 31
0.0
  0
LINE
  5
21E2
  8
241
 10
-7.9317499999999521
 20
5.0989100000000009
 30
0.0
 11
-7.9634399999999497
 21
5.1484500000000022
 31
0.0
  0
LINE
  5
21E3
  8
241
 10
-7.9634399999999497
 20
5.1484500000000022
 30
0.0
 11
-7.9950499999999503
 21
5.1980399999999998
 31
0.0
  0
LINE
  5
21E4
  8
241
 10
-7.9950499999999503
 20
5.1980399999999998
 30
0.0
 11
-8.0265699999999498
 21
5.2476799999999999
 31
0.0
  0
LINE
  5
21E5
  8
241
 10
-8.0265699999999498
 20
5.2476799999999999
 30
0.0
 11
-8.0580099999999533
 21
5.2973800000000022
 31
0.0
  0
LINE
  5
21E6
  8
241
 10
-8.0580099999999533
 20
5.2973800000000022
 30
0.0
 11
-8.0893799999999523
 21
5.3471200000000021
 31
0.0
  0
LINE
  5
21E7
  8
241
 10
-8.0893799999999523
 20
5.3471200000000021
 30
0.0
 11
-8.1206699999999525
 21
5.396910000000001
 31
0.0
  0
LINE
  5
21E8
  8
241
 10
-8.1206699999999525
 20
5.396910000000001
 30
0.0
 11
-8.1518799999999523
 21
5.4467499999999998
 31
0.0
  0
LINE
  5
21E9
  8
241
 10
-8.1518799999999523
 20
5.4467499999999998
 30
0.0
 11
-8.1830399999999521
 21
5.4966200000000009
 31
0.0
  0
LINE
  5
21EA
  8
241
 10
-8.1830399999999521
 20
5.4966200000000009
 30
0.0
 11
-8.2141199999999497
 21
5.546540000000002
 31
0.0
  0
LINE
  5
21EB
  8
241
 10
-8.2141199999999497
 20
5.546540000000002
 30
0.0
 11
-8.2451499999999527
 21
5.5964999999999998
 31
0.0
  0
LINE
  5
21EC
  8
241
 10
-8.2451499999999527
 20
5.5964999999999998
 30
0.0
 11
-8.2761099999999512
 21
5.6464900000000009
 31
0.0
  0
LINE
  5
21ED
  8
241
 10
-8.2761099999999512
 20
5.6464900000000009
 30
0.0
 11
-8.3070299999999531
 21
5.6965200000000014
 31
0.0
  0
LINE
  5
21EE
  8
241
 10
-8.3070299999999531
 20
5.6965200000000014
 30
0.0
 11
-8.3378899999999518
 21
5.7465800000000007
 31
0.0
  0
LINE
  5
21EF
  8
241
 10
-8.3378899999999518
 20
5.7465800000000007
 30
0.0
 11
-8.3686999999999525
 21
5.7966699999999998
 31
0.0
  0
LINE
  5
21F0
  8
241
 10
-8.3686999999999525
 20
5.7966699999999998
 30
0.0
 11
-8.3994599999999533
 21
5.8467900000000022
 31
0.0
  0
LINE
  5
21F1
  8
241
 10
-8.3994599999999533
 20
5.8467900000000022
 30
0.0
 11
-8.4301899999999481
 21
5.8969399999999998
 31
0.0
  0
LINE
  5
21F2
  8
241
 10
-8.4301899999999481
 20
5.8969399999999998
 30
0.0
 11
-8.4608699999999502
 21
5.9471100000000012
 31
0.0
  0
LINE
  5
21F3
  8
241
 10
-8.4608699999999502
 20
5.9471100000000012
 30
0.0
 11
-8.4915199999999498
 21
5.997300000000001
 31
0.0
  0
LINE
  5
21F4
  8
241
 10
-8.4915199999999498
 20
5.997300000000001
 30
0.0
 11
-8.5221399999999523
 21
6.0475099999999999
 31
0.0
  0
LINE
  5
21F5
  8
241
 10
-8.5221399999999523
 20
6.0475099999999999
 30
0.0
 11
-8.5527299999999524
 21
6.0977399999999999
 31
0.0
  0
LINE
  5
21F6
  8
241
 10
-8.5527299999999524
 20
6.0977399999999999
 30
0.0
 11
-8.5832899999999501
 21
6.147990000000001
 31
0.0
  0
LINE
  5
21F7
  8
241
 10
-8.5832899999999501
 20
6.147990000000001
 30
0.0
 11
-8.6138299999999521
 21
6.1982499999999998
 31
0.0
  0
LINE
  5
21F8
  8
241
 10
-8.6138299999999521
 20
6.1982499999999998
 30
0.0
 11
-8.6443499999999496
 21
6.248520000000001
 31
0.0
  0
LINE
  5
21F9
  8
241
 10
-8.6443499999999496
 20
6.248520000000001
 30
0.0
 11
-8.6748599999999527
 21
6.2988100000000014
 31
0.0
  0
LINE
  5
21FA
  8
241
 10
-8.6748599999999527
 20
6.2988100000000014
 30
0.0
 11
-8.7053499999999513
 21
6.3491
 31
0.0
  0
LINE
  5
21FB
  8
241
 10
-8.7053499999999513
 20
6.3491
 30
0.0
 11
-8.7358299999999502
 21
6.3993900000000021
 31
0.0
  0
LINE
  5
21FC
  8
241
 10
-8.7358299999999502
 20
6.3993900000000021
 30
0.0
 11
-8.7663099999999528
 21
6.4497
 31
0.0
  0
LINE
  5
21FD
  8
241
 10
-8.7663099999999528
 20
6.4497
 30
0.0
 11
-8.7967799999999521
 21
6.5000000000000009
 31
0.0
  0
LINE
  5
21FE
  8
240
 10
-14.00000000000006
 20
5.807179676972452
 30
0.0
 11
-14.00000000000006
 21
5.7500000000000009
 31
0.0
  0
LINE
  5
21FF
  8
240
 10
-14.25000000000006
 20
6.0000000000000027
 30
0.0
 11
-14.00000000000006
 21
5.7500000000000009
 31
0.0
1001
GENIUS_GENFIL_13
1070
     0
1040
0.25
1040
0.25
1040
0.2500000000000284
1040
45.00000000000162
1002
{
1002
}
1001
GENIUS_GENODEF_13
1002
{
1000
HIER
1070
     0
1002
}
1002
{
1000
MANEDIT
1070
     0
1002
}
1002
{
1000
NOSEL
1070
     0
1002
}
1002
{
1000
BEHIND
1070
     0
1002
}
1002
{
1000
OTHER
1070
     0
1002
}
1002
{
1000
REACTOR
1002
}
1001
GENIUS_GENOBJ-N-CHA_13
1002
{
1000
OWNER
1000
GEN
1002
}
  0
LINE
  5
2200
  8
240
 10
-14.00000000000006
 20
-5.7499999999999973
 30
0.0
 11
-14.00000000000006
 21
-5.8071796769726181
 31
0.0
  0
LINE
  5
2201
  8
240
 10
-14.25000000000006
 20
-5.9999999999999947
 30
0.0
 11
-14.00000000000006
 21
-5.7499999999999973
 31
0.0
1001
GENIUS_GENFIL_13
1070
     0
1040
0.25
1040
0.25
1040
0.2500000000000284
1040
45.00000000000162
1002
{
1002
}
1001
GENIUS_GENODEF_13
1002
{
1000
HIER
1070
     0
1002
}
1002
{
1000
MANEDIT
1070
     0
1002
}
1002
{
1000
NOSEL
1070
     0
1002
}
1002
{
1000
BEHIND
1070
     0
1002
}
1002
{
1000
OTHER
1070
     0
1002
}
1002
{
1000
REACTOR
1002
}
1001
GENIUS_GENOBJ-N-CHA_13
1002
{
1000
OWNER
1000
GEN
1002
}
  0
LINE
  5
2202
  8
240
  6
CONTINUOUS
 10
-14.00000000000006
 20
-5.8071796769726181
 30
0.0
 11
-13.600000000000071
 21
-6.4999999999999982
 31
0.0
  0
LINE
  5
2203
  8
240
  6
CONTINUOUS
 10
-13.600000000000071
 20
6.5000000000000009
 30
0.0
 11
-14.00000000000006
 21
5.807179676972452
 31
0.0
  0
ENDBLK
  5
2207
  8
0
  0
ENDSEC
  0
SECTION
  2
ENTITIES
  0
TEXT
  5
1DF6
  8
241
 10
-219.0
 20
48.999999999999979
 30
0.0
 40
5.0
  1
ST20-CBY09013-220
  7
YOKO
  0
LINE
  5
1DF7
  8
250
 10
16.333333333333339
 20
-21.000000000000021
 30
0.0
 11
-6.9999999999999707
 21
-21.000000000000021
 31
0.0
  0
LINE
  5
1DF8
  8
250
 10
-6.9999999999999707
 20
-21.000000000000021
 30
0.0
 11
-9.7455422765516175
 21
-8.6766343806006745
 31
0.0
  0
LINE
  5
1DF9
  8
250
 10
-9.7455422765516175
 20
-8.6766343806006745
 30
0.0
 11
-10.230478120954981
 21
-6.5000000000000231
 31
0.0
  0
LINE
  5
1DFA
  8
250
 10
-9.4589829252894901
 20
-8.6127913658001667
 30
0.0
 11
-10.230478120954981
 21
-6.5000000000000231
 31
0.0
  0
LINE
  5
1DFB
  8
250
 10
-10.230478120954981
 20
-6.5000000000000231
 30
0.0
 11
-10.03210162781374
 21
-8.7404773954011823
 31
0.0
  0
LINE
  5
1DFC
  8
250
 10
0.353553390593305
 20
-0.3535533905932875
 30
0.0
 11
10.606601717798499
 21
-10.60660171779795
 31
0.0
  0
LINE
  5
1DFD
  8
250
 10
0.353553390593305
 20
0.3535533905932414
 30
0.0
 11
10.606601717798499
 21
10.606601717797901
 31
0.0
  0
ARC
  5
1DFE
  8
250
 10
0.0000000000000284
 20
-0.0000000000000231
 30
0.0
 40
14.0
 50
324.13607491042069
 51
35.863925089579261
  0
LINE
  5
1DFF
  8
250
 10
-6.0000000000003118
 20
6.499999999999976
 30
0.0
 11
22.000000000000028
 21
6.499999999999968
 31
0.0
  0
LINE
  5
1E00
  8
250
 10
-6.0000000000003686
 20
-6.5000000000000941
 30
0.0
 11
22.000000000000028
 21
-6.5000000000001021
 31
0.0
  0
LINE
  5
1E01
  8
250
 10
21.000000000000028
 20
4.2699999999999649
 30
0.0
 11
21.000000000000028
 21
-4.270000000000099
 31
0.0
  0
LINE
  5
1E02
  8
250
 10
0.0000000000000284
 20
0.4999999999999753
 30
0.0
 11
0.0000000000000284
 21
28.999999999999979
 31
0.0
  0
TEXT
  5
1E03
  8
250
 10
20.000000000000028
 20
-3.8000000000000611
 30
0.0
 40
2.799999999999998
  1
\U+220513
 50
90.0
1001
ACAD
1000
MTEXTBEGIN
1070
    73
1070
     1
1070
    44
1040
1.0
1070
    74
1070
     0
1000
MTEXTEND
  0
LINE
  5
1E04
  8
250
 10
21.371666666666702
 20
-4.2700000000001017
 30
0.0
 11
21.000000000000028
 21
-6.5000000000001021
 31
0.0
  0
LINE
  5
1E05
  8
250
 10
20.628333333333359
 20
-4.2700000000001017
 30
0.0
 11
21.000000000000028
 21
-6.5000000000001021
 31
0.0
  0
LINE
  5
1E06
  8
250
 10
21.000000000000028
 20
-6.5000000000001021
 30
0.0
 11
21.000000000000028
 21
-4.2700000000001017
 31
0.0
  0
LINE
  5
1E07
  8
250
 10
20.628333333333359
 20
4.2699999999999676
 30
0.0
 11
21.000000000000028
 21
6.499999999999968
 31
0.0
  0
LINE
  5
1E08
  8
250
 10
21.371666666666702
 20
4.2699999999999676
 30
0.0
 11
21.000000000000028
 21
6.499999999999968
 31
0.0
  0
LINE
  5
1E09
  8
250
 10
21.000000000000028
 20
6.499999999999968
 30
0.0
 11
21.000000000000028
 21
4.2699999999999676
 31
0.0
  0
TEXT
  5
1E0A
  8
250
 10
13.00000000000003
 20
-4.5466666666666882
 30
0.0
 40
2.799999999999998
  1
90üï
 50
90.0
1001
ACAD
1000
MTEXTBEGIN
1070
    73
1070
     1
1070
    44
1040
1.0
1070
    74
1070
     0
1000
MTEXTEND
  0
LINE
  5
1E0B
  8
250
 10
11.06284546926164
 20
7.9610286229255198
 30
0.0
 11
9.8994949366119442
 21
9.8994949366113811
 31
0.0
  0
LINE
  5
1E0C
  8
250
 10
11.62865343409757
 20
8.4431134612814063
 30
0.0
 11
9.8994949366119442
 21
9.8994949366113811
 31
0.0
  0
LINE
  5
1E0D
  8
250
 10
9.8994949366119442
 20
9.8994949366113811
 30
0.0
 11
11.345749451679611
 21
8.2020710421034657
 31
0.0
  0
LINE
  5
1E0E
  8
250
 10
11.62865343409757
 20
-8.4431134612814525
 30
0.0
 11
9.8994949366119442
 21
-9.8994949366114255
 31
0.0
  0
LINE
  5
1E0F
  8
250
 10
11.06284546926164
 20
-7.961028622925566
 30
0.0
 11
9.8994949366119442
 21
-9.8994949366114255
 31
0.0
  0
LINE
  5
1E10
  8
250
 10
9.8994949366119442
 20
-9.8994949366114255
 30
0.0
 11
11.345749451679611
 21
-8.2020710421035101
 31
0.0
  0
TEXT
  5
1E11
  8
250
 10
-4.599999999999965
 20
-19.600000000000019
 30
0.0
 40
2.799999999999998
  1
CBY09013
  7
ACJISTS
1001
ACAD
1000
MTEXTBEGIN
1070
    73
1070
     1
1070
    44
1040
1.0
1070
    74
1070
     0
1000
MTEXTEND
  0
LINE
  5
1EAF
  8
250
 10
-220.0
 20
8.7679491924310042
 30
0.0
 11
-220.0
 21
28.999999999999979
 31
0.0
  0
LINE
  5
1EB0
  8
250
 10
-99.999999999999986
 20
10.49999999999998
 30
0.0
 11
-99.999999999999986
 21
28.999999999999979
 31
0.0
  0
LINE
  5
1EB1
  8
250
 10
-217.77000000000001
 20
27.999999999999979
 30
0.0
 11
-102.2299999999999
 21
27.999999999999979
 31
0.0
  0
LINE
  5
1EB2
  8
250
 10
-220.0
 20
8.7679491924310042
 30
0.0
 11
-220.0
 21
35.999999999999979
 31
0.0
  0
LINE
  5
1EB3
  8
250
 10
0.0000000000000284
 20
0.4999999999999769
 30
0.0
 11
0.0000000000000284
 21
35.999999999999979
 31
0.0
  0
LINE
  5
1EB4
  8
250
 10
-217.77000000000001
 20
34.999999999999979
 30
0.0
 11
-2.2299999999999889
 21
34.999999999999979
 31
0.0
  0
TEXT
  5
1EB5
  8
250
 10
-108.3737616876935
 20
35.999999999999979
 30
0.0
 40
2.799999999999998
  1
220
  0
LINE
  5
1EB6
  8
250
 10
-2.2299999999999889
 20
35.371666666666648
 30
0.0
 11
0.0000000000000284
 21
34.999999999999979
 31
0.0
  0
LINE
  5
1EB7
  8
250
 10
-2.2299999999999889
 20
34.628333333333309
 30
0.0
 11
0.0000000000000284
 21
34.999999999999979
 31
0.0
  0
LINE
  5
1EB8
  8
250
 10
0.0000000000000284
 20
34.999999999999979
 30
0.0
 11
-2.2299999999999889
 21
34.999999999999979
 31
0.0
  0
LINE
  5
1EB9
  8
250
 10
-217.77000000000001
 20
34.628333333333309
 30
0.0
 11
-220.0
 21
34.999999999999979
 31
0.0
  0
LINE
  5
1EBA
  8
250
 10
-217.77000000000001
 20
35.371666666666641
 30
0.0
 11
-220.0
 21
34.999999999999979
 31
0.0
  0
LINE
  5
1EBB
  8
250
 10
-220.0
 20
34.999999999999979
 30
0.0
 11
-217.77000000000001
 21
34.999999999999979
 31
0.0
  0
TEXT
  5
1EBC
  8
250
 10
-164.1999999999999
 20
28.999999999999979
 30
0.0
 40
2.799999999999998
  1
120
  0
LINE
  5
1EBD
  8
250
 10
-102.2299999999999
 20
28.371666666666631
 30
0.0
 11
-99.999999999999986
 21
27.999999999999979
 31
0.0
  0
LINE
  5
1EBE
  8
250
 10
-102.2299999999999
 20
27.628333333333309
 30
0.0
 11
-99.999999999999986
 21
27.999999999999979
 31
0.0
  0
LINE
  5
1EBF
  8
250
 10
-99.999999999999986
 20
27.999999999999979
 30
0.0
 11
-102.2299999999999
 21
27.999999999999979
 31
0.0
  0
LINE
  5
1EC0
  8
250
 10
-217.77000000000001
 20
27.628333333333309
 30
0.0
 11
-220.0
 21
27.999999999999979
 31
0.0
  0
LINE
  5
1EC1
  8
250
 10
-217.77000000000001
 20
28.371666666666631
 30
0.0
 11
-220.0
 21
27.999999999999979
 31
0.0
  0
LINE
  5
1EC2
  8
250
 10
-220.0
 20
27.999999999999979
 30
0.0
 11
-217.77000000000001
 21
27.999999999999979
 31
0.0
  0
INSERT
  5
2209
  8
240
  2
A$C528F57B8
 10
0.0
 20
0.0
 30
0.0
  0
VIEWPORT
  5
22
 67
     1
  8
0
 10
261.51769911504419
 20
148.5
 30
0.0
 40
523.0353982300885
 41
297.0
 68
     1
 69
     1
1001
ACAD
1000
MVIEW
1002
{
1070
    16
1010
0.0
1020
0.0
1030
0.0
1010
0.0
1020
0.0
1030
1.0
1040
0.0
1040
297.0
1040
261.51769911504419
1040
148.5
1040
50.0
1040
0.0
1040
0.0
1070
     0
1070
   100
1070
     1
1070
     1
1070
     0
1070
     0
1070
     0
1070
     0
1040
0.0
1040
0.0
1040
0.0
1040
1.0
1040
1.0
1040
10.0
1040
10.0
1070
     0
1002
{
1002
}
1002
}
1001
GENIUS_GENODEF_13
1002
{
1000
HIER
1070
     0
1002
}
1002
{
1000
MANEDIT
1070
     0
1002
}
1002
{
1000
NOSEL
1070
     0
1002
}
1002
{
1000
BEHIND
1070
     0
1002
}
1002
{
1000
OTHER
1070
     0
1002
}
1002
{
1000
REACTOR
1002
}
1001
GENIUS_GENOBJ-N-SDF_13
1002
{
1000
OWNER
1000
GEN
1002
}
1001
GENIUS_GENSCREG_15
1000
PF
1040
1.0
1000
DF
1040
1.0
1000
MIN
1011
0.0
1021
3.5798629898940233E+250
1031
0.0
1021
0.0
1031
0.0
1000
MAX
1011
523.0353982300885
1021
3.5798629898940233E+250
1031
0.0
1021
297.0
1031
0.0
1000
FLAGS
1070
     2
  0
ENDSEC
  0
EOF
