  0
SECTION
  2
HEADER
  9
$ACADVER
  1
AC1009
  9
$INSBASE
 10
0.0
 20
0.0
 30
0.0
  9
$EXTMIN
 10
-88.822775136733185
 20
-21.166764056311649
 30
-0.0015258207003583
  9
$EXTMAX
 10
41.47841806258009
 20
52.587348605988552
 30
0.0000000349246037
  9
$LIMMIN
 10
0.0
 20
0.0
  9
$LIMMAX
 10
297.0
 20
210.0
  9
$ORTHOMODE
 70
     0
  9
$REGENMODE
 70
     1
  9
$FILLMODE
 70
     1
  9
$QTEXTMODE
 70
     0
  9
$MIRRTEXT
 70
     1
  9
$DRAGMODE
 70
     2
  9
$LTSCALE
 40
10.0
  9
$OSMODE
 70
    37
  9
$ATTMODE
 70
     1
  9
$TEXTSIZE
 40
3.0
  9
$TRACEWID
 40
1.0
  9
$TEXTSTYLE
  7
YOKO
  9
$CLAYER
  8
240
  9
$CELTYPE
  6
BYLAYER
  9
$CECOLOR
 62
   256
  9
$DIMSCALE
 40
1.0
  9
$DIMASZ
 40
2.2299999999999991
  9
$DIMEXO
 40
0.5
  9
$DIMDLI
 40
7.0
  9
$DIMRND
 40
0.0
  9
$DIMDLE
 40
0.0
  9
$DIMEXE
 40
1.0
  9
$DIMTP
 40
0.0
  9
$DIMTM
 40
0.01
  9
$DIMTXT
 40
2.799999999999998
  9
$DIMCEN
 40
0.0
  9
$DIMTSZ
 40
0.0
  9
$DIMTOL
 70
     0
  9
$DIMLIM
 70
     0
  9
$DIMTIH
 70
     0
  9
$DIMTOH
 70
     0
  9
$DIMSE1
 70
     0
  9
$DIMSE2
 70
     0
  9
$DIMTAD
 70
     3
  9
$DIMZIN
 70
     9
  9
$DIMBLK
  1
OPEN
  9
$DIMASO
 70
     1
  9
$DIMSHO
 70
     1
  9
$DIMPOST
  1

  9
$DIMAPOST
  1

  9
$DIMALT
 70
     0
  9
$DIMALTD
 70
     2
  9
$DIMALTF
 40
25.399999999999999
  9
$DIMLFAC
 40
1.0
  9
$DIMTOFL
 70
     1
  9
$DIMTVP
 40
0.0
  9
$DIMTIX
 70
     1
  9
$DIMSOXD
 70
     0
  9
$DIMSAH
 70
     0
  9
$DIMBLK1
  1

  9
$DIMBLK2
  1

  9
$DIMSTYLE
  2
BIGT
  9
$DIMCLRD
 70
   256
  9
$DIMCLRE
 70
   256
  9
$DIMCLRT
 70
    40
  9
$DIMTFAC
 40
1.0
  9
$DIMGAP
 40
1.0
  9
$LUNITS
 70
     2
  9
$LUPREC
 70
     6
  9
$SKETCHINC
 40
1.0
  9
$FILLETRAD
 40
0.0
  9
$AUNITS
 70
     0
  9
$AUPREC
 70
     6
  9
$MENU
  1
.
  9
$ELEVATION
 40
0.0
  9
$PELEVATION
 40
0.0
  9
$THICKNESS
 40
0.0
  9
$LIMCHECK
 70
     0
  9
$BLIPMODE
 70
     0
  9
$CHAMFERA
 40
0.2
  9
$CHAMFERB
 40
0.2
  9
$SKPOLY
 70
     0
  9
$TDCREATE
 40
2457654.7058100579
  9
$TDUPDATE
 40
2457654.7474510758
  9
$TDINDWG
 40
0.0125483681
  9
$TDUSRTIMER
 40
0.0125483102
  9
$USRTIMER
 70
     1
  9
$ANGBASE
 50
0.0
  9
$ANGDIR
 70
     0
  9
$PDMODE
 70
     1
  9
$PDSIZE
 40
0.0
  9
$PLINEWID
 40
0.0
  9
$COORDS
 70
     1
  9
$SPLFRAME
 70
     0
  9
$SPLINETYPE
 70
     6
  9
$SPLINESEGS
 70
     4
  9
$ATTDIA
 70
     1
  9
$ATTREQ
 70
     1
  9
$HANDLING
 70
     1
  9
$HANDSEED
  5
46F9
  9
$SURFTAB1
 70
     6
  9
$SURFTAB2
 70
     6
  9
$SURFTYPE
 70
     6
  9
$SURFU
 70
     6
  9
$SURFV
 70
     6
  9
$UCSNAME
  2

  9
$UCSORG
 10
0.0
 20
0.0
 30
0.0
  9
$UCSXDIR
 10
1.0
 20
0.0
 30
0.0
  9
$UCSYDIR
 10
0.0
 20
1.0
 30
0.0
  9
$PUCSNAME
  2

  9
$PUCSORG
 10
0.0
 20
0.0
 30
0.0
  9
$PUCSXDIR
 10
1.0
 20
0.0
 30
0.0
  9
$PUCSYDIR
 10
0.0
 20
1.0
 30
0.0
  9
$USERI1
 70
     1
  9
$USERI2
 70
     0
  9
$USERI3
 70
     0
  9
$USERI4
 70
     0
  9
$USERI5
 70
     0
  9
$USERR1
 40
0.0
  9
$USERR2
 40
0.0
  9
$USERR3
 40
0.0
  9
$USERR4
 40
0.0
  9
$USERR5
 40
0.0
  9
$WORLDVIEW
 70
     1
  9
$SHADEDGE
 70
     3
  9
$SHADEDIF
 70
    70
  9
$TILEMODE
 70
     1
  9
$MAXACTVP
 70
    16
  9
$PLIMCHECK
 70
     0
  9
$PEXTMIN
 10
1.0000000000000000E+020
 20
1.0000000000000000E+020
 30
1.0000000000000000E+020
  9
$PEXTMAX
 10
-1.0000000000000000E+020
 20
-1.0000000000000000E+020
 30
-1.0000000000000000E+020
  9
$PLIMMIN
 10
0.0
 20
0.0
  9
$PLIMMAX
 10
420.0
 20
297.0
  9
$UNITMODE
 70
     0
  9
$VISRETAIN
 70
     1
  9
$PLINEGEN
 70
     0
  9
$PSLTSCALE
 70
     1
  0
ENDSEC
  0
SECTION
  2
TABLES
  0
TABLE
  2
VPORT
 70
     1
  0
VPORT
  2
*ACTIVE
 70
     0
 10
0.0
 20
0.0
 11
1.0
 21
1.0
 12
-23.672178537076551
 22
15.71029227483845
 13
0.0
 23
0.0
 14
7.0
 24
7.0
 15
7.0
 25
7.0
 16
0.0
 26
0.0
 36
1.0
 17
0.0
 27
0.0
 37
0.0
 40
89.048329274540279
 41
1.469813391877058
 42
50.0
 43
0.0
 44
0.0
 50
0.0
 51
0.0
 71
     0
 72
  2000
 73
     1
 74
     0
 75
     0
 76
     1
 77
     0
 78
     0
  0
ENDTAB
  0
TABLE
  2
LTYPE
 70
    21
  0
LTYPE
  2
CONTINUOUS
 70
     0
  3
Solid line
 72
    65
 73
     0
 40
0.0
  0
LTYPE
  2
CENTER2
 70
     0
  3
___ _ ___ _ ___ _ ___ _ ___ _ ___ _ ___ _ ___ _
 72
    65
 73
     4
 40
1.125
 49
0.75
 49
-0.125
 49
0.125
 49
-0.125
  0
LTYPE
  2
HIDDEN2
 70
     0
  3
_ _ _ _ _ _ _ _ _ _ _ _ _ _ _ _ _ _ _ _ _ _ _ _
 72
    65
 73
     2
 40
0.1875
 49
0.125
 49
-0.0625
  0
LTYPE
  2
PHANTOM2
 70
     0
  3
___ _ _ ___ _ _ ___ _ _ ___ _ _ ___ _ _ ___ _ _
 72
    65
 73
     6
 40
1.25
 49
0.625
 49
-0.125
 49
0.125
 49
-0.125
 49
0.125
 49
-0.125
  0
LTYPE
  2
AMCONSTR
 70
     0
  3
_______________________
 72
    65
 73
     2
 40
9999.0
 49
9999.0
 49
0.0
  0
LTYPE
  2
HIDDEN
 70
     0
  3
Hidden __ __ __ __ __ __ __ __ __ __ __ __ __ _
 72
    65
 73
     2
 40
0.375
 49
0.25
 49
-0.125
  0
LTYPE
  2
CENTER
 70
     0
  3
Center ____ _ ____ _ ____ _ ____ _ ____ _ ____
 72
    65
 73
     4
 40
2.0
 49
1.25
 49
-0.25
 49
0.25
 49
-0.25
  0
LTYPE
  2
AMZIGZAG2
 70
     0
  3
/\/-/\/-/\/-/\/-/\/-/\/
 72
    65
 73
     2
 40
0.4401
 49
0.0001
 49
-0.4400000000000001
  0
LTYPE
  2
ACANSTGB
 70
     0
  3
__ . . __ . .
 72
    65
 73
     6
 40
0.35433070866
 49
0.15748031496
 49
-0.03937007874
 49
0.03937007874
 49
-0.03937007874
 49
0.03937007874
 49
-0.03937007874
  0
LTYPE
  2
ACANSTGL
 70
     0
  3
_ _ _ _ _
 72
    65
 73
     2
 40
0.11811023622
 49
0.07874015748
 49
-0.03937007874
  0
ENDTAB
  0
TABLE
  2
LAYER
 70
     9
  0
LAYER
  2
0
 70
     0
 62
     7
  6
CONTINUOUS
  0
LAYER
  2
240
 70
     0
 62
     4
  6
CONTINUOUS
  0
LAYER
  2
DEFPOINTS
 70
     0
 62
     7
  6
CONTINUOUS
  0
LAYER
  2
245
 70
     0
 62
     2
  6
CENTER2
  0
LAYER
  2
241
 70
     0
 62
   211
  6
CONTINUOUS
  0
LAYER
  2
246
 70
     0
 62
     3
  6
PHANTOM2
  0
LAYER
  2
247
 70
     0
 62
    60
  6
CONTINUOUS
  0
LAYER
  2
250
 70
     0
 62
     3
  6
CONTINUOUS
  0
ENDTAB
  0
TABLE
  2
STYLE
 70
    10
  0
STYLE
  2
STANDARD
 70
     0
 40
0.0
 41
1.0
 50
0.0
 71
     0
 42
3.0
  3
romans.shx
  4
extfont.shx
  0
STYLE
  2
YOKO
 70
     0
 40
0.0
 41
1.0
 50
0.0
 71
     0
 42
3.0
  3
romans.shx
  4
extfont.shx
  0
STYLE
  2

 70
     1
 40
0.0
 41
1.0
 50
0.0
 71
     0
 42
3.0
  3
genltshp.shx
  4

  0
STYLE
  2
ACANSGDT
 70
     0
 40
0.0
 41
1.0
 50
0.0
 71
     0
 42
3.0
  3
amgdt.shx
  4

  0
ENDTAB
  0
TABLE
  2
VIEW
 70
     0
  0
ENDTAB
  0
TABLE
  2
UCS
 70
     0
  0
ENDTAB
  0
TABLE
  2
APPID
 70
    38
  0
APPID
  2
ACAD
 70
     0
  0
APPID
  2
ACADANNOTATIVE
 70
     0
  0
APPID
  2
GLOBAL
 70
     0
  0
APPID
  2
DETAIL
 70
     0
  0
APPID
  2
GRPNAME
 70
     0
  0
APPID
  2
GPARA
 70
     0
  0
APPID
  2
MCAD_NO_VIS
 70
     0
  0
APPID
  2
ACAD_TEMP_GRAPHIC
 70
     0
  0
APPID
  2
ACATTRIBSERVICES
 70
     0
  0
APPID
  2
GENIUS_GENSCREG_15
 70
     0
  0
APPID
  2
GENIUS_GENODEF_13
 70
     0
  0
APPID
  2
GENIUS_GENOBJ-N-SDF_13
 70
     0
  0
APPID
  2
GENIUS_GENREC_14
 70
     0
  0
APPID
  2
GENIUS_GENOBJ-N-REC_13
 70
     0
  0
APPID
  2
GENIUS_GENDIMSH_14
 70
     0
  0
APPID
  2
GENIUS_GENOBJ-N-DIM_13
 70
     0
  0
APPID
  2
GENIUS_GENDIM_13
 70
     0
  0
APPID
  2
GENIUS_GENDTOL_13
 70
     0
  0
APPID
  2
GENIUS_GENOLIS_13
 70
     0
  0
APPID
  2
GENIUS_GENOENT_13
 70
     0
  0
APPID
  2
GENIUS_GENOBJ-F-FEM_13
 70
     0
  0
APPID
  2
GENIUS_GENOREF_13
 70
     0
  0
APPID
  2
GENIUS_GEFFEM_13
 70
     0
  0
APPID
  2
GENIUS_GEFFEMP_13
 70
     0
  0
APPID
  2
AD_DRAW
 70
     0
  0
APPID
  2
DESIGNERASSEMBLIES
 70
     0
  0
APPID
  2
ACADM_DIM_EDIT
 70
     0
  0
APPID
  2
AMDT_DM_ADJ
 70
     0
  0
APPID
  2
ITEMNAME
 70
     0
  0
APPID
  2
GENIUS_GENOBJ-N-FIL_13
 70
     0
  0
APPID
  2
GENIUS_GENFIL_13
 70
     0
  0
APPID
  2
GENIUS_GENOBJ-N-CHA_13
 70
     0
  0
APPID
  2
ACAD_NAV_VCDISPLAY
 70
     0
  0
APPID
  2
ACAD_PSEXT
 70
     0
  0
APPID
  2
ACAD_MLEADERVER
 70
     0
  0
APPID
  2
ACAD_DSTYLE_DIMJAG
 70
     0
  0
APPID
  2
ACAD_DSTYLE_DIMBREAK
 70
     0
  0
APPID
  2
ACAECLAYERSTANDARD
 70
     0
  0
ENDTAB
  0
TABLE
  2
DIMSTYLE
 70
    31
  0
DIMSTYLE
  2
STANDARD
 70
     0
  3

  4

  5

  6

  7

 40
1.0
 41
0.18
 42
0.0625
 43
0.38
 44
0.18
 45
0.0
 46
0.0
 47
0.0
 48
0.0
140
0.18
141
0.09
142
0.0
143
25.399999999999999
144
1.0
145
0.0
146
1.0
147
0.09
 71
     0
 72
     0
 73
     1
 74
     1
 75
     0
 76
     0
 77
     0
 78
     0
170
     0
171
     2
172
     0
173
     0
174
     0
175
     0
176
     0
177
     0
178
     0
  0
DIMSTYLE
  2
BIGT
 70
     0
  3

  4

  5

  6

  7

 40
1.0
 41
2.2299999999999991
 42
0.5
 43
7.0
 44
1.0
 45
0.0
 46
0.0
 47
0.0
 48
0.01
140
2.799999999999998
141
0.0
142
0.0
143
25.399999999999999
144
1.0
145
0.0
146
1.0
147
1.0
 71
     0
 72
     0
 73
     0
 74
     0
 75
     0
 76
     0
 77
     3
 78
     9
170
     0
171
     2
172
     1
173
     0
174
     1
175
     0
176
   256
177
   256
178
    40
  0
DIMSTYLE
  2
AM_ANSI
 70
     0
  3

  4
mm
  5

  6

  7

 40
1.0
 41
0.12
 42
0.05
 43
0.5
 44
0.1
 45
0.0
 46
0.0
 47
0.1
 48
0.1
140
0.12
141
0.0
142
0.0
143
25.399999999999999
144
1.0
145
0.0
146
0.71
147
0.06
 71
     0
 72
     0
 73
     1
 74
     1
 75
     0
 76
     0
 77
     0
 78
     7
170
     0
171
     2
172
     0
173
     0
174
     0
175
     0
176
   256
177
   256
178
     2
  0
DIMSTYLE
  2
AM_ANSI$3
 70
     0
  3

  4
mm
  5

  6

  7

 40
1.0
 41
0.12
 42
0.05
 43
0.5
 44
0.1
 45
0.0
 46
0.0
 47
0.1
 48
0.1
140
0.12
141
0.0
142
0.0
143
25.399999999999999
144
1.0
145
0.0
146
0.71
147
0.06
 71
     0
 72
     0
 73
     1
 74
     1
 75
     0
 76
     0
 77
     0
 78
     7
170
     0
171
     2
172
     0
173
     0
174
     0
175
     0
176
   256
177
   256
178
     2
  0
DIMSTYLE
  2
AM_ANSI$4
 70
     0
  3

  4
mm
  5

  6

  7

 40
1.0
 41
0.12
 42
0.05
 43
0.5
 44
0.1
 45
0.0
 46
0.0
 47
0.1
 48
0.1
140
0.12
141
0.0
142
0.0
143
25.399999999999999
144
1.0
145
0.0
146
0.71
147
0.06
 71
     0
 72
     0
 73
     1
 74
     1
 75
     0
 76
     0
 77
     0
 78
     7
170
     0
171
     2
172
     0
173
     0
174
     0
175
     0
176
   256
177
   256
178
     2
  0
DIMSTYLE
  2
AM_ANSI$7
 70
     0
  3

  4
mm
  5

  6

  7

 40
1.0
 41
0.12
 42
0.05
 43
0.5
 44
0.1
 45
0.0
 46
0.0
 47
0.1
 48
0.1
140
0.12
141
0.0
142
0.0
143
25.399999999999999
144
1.0
145
0.0
146
0.71
147
0.06
 71
     0
 72
     0
 73
     1
 74
     1
 75
     0
 76
     0
 77
     0
 78
     7
170
     0
171
     2
172
     0
173
     0
174
     0
175
     0
176
   256
177
   256
178
     2
  0
DIMSTYLE
  2
AM_ANSI$SF
 70
     0
  3

  4
mm
  5

  6

  7

 40
1.0
 41
0.12
 42
0.05
 43
0.5
 44
0.1
 45
0.0
 46
0.0
 47
0.1
 48
0.1
140
0.12
141
0.0
142
0.0
143
25.399999999999999
144
1.0
145
0.0
146
0.71
147
0.06
 71
     0
 72
     0
 73
     1
 74
     1
 75
     1
 76
     1
 77
     0
 78
     7
170
     0
171
     2
172
     0
173
     0
174
     0
175
     0
176
   256
177
   256
178
     2
  0
DIMSTYLE
  2
AM_ANSI$SH
 70
     0
  3

  4
mm
  5

  6
GENAXEH
  7

 40
1.0
 41
0.12
 42
0.05
 43
0.5
 44
0.1
 45
0.0
 46
0.0
 47
0.1
 48
0.1
140
0.12
141
0.0
142
0.0
143
25.399999999999999
144
1.0
145
0.0
146
0.71
147
0.06
 71
     0
 72
     0
 73
     1
 74
     1
 75
     1
 76
     1
 77
     0
 78
     7
170
     0
171
     2
172
     0
173
     1
174
     0
175
     0
176
   256
177
   256
178
     2
  0
ENDTAB
  0
ENDSEC
  0
SECTION
  2
BLOCKS
  0
BLOCK
  8
0
  2
$MODEL_SPACE
 70
     0
 10
0.0
 20
0.0
 30
0.0
  3
$MODEL_SPACE
  1

  0
ENDBLK
  5
45B9
  8
0
  0
BLOCK
 67
     1
  8
0
  2
$PAPER_SPACE
 70
     0
 10
0.0
 20
0.0
 30
0.0
  3
$PAPER_SPACE
  1

  0
ENDBLK
  5
45B5
 67
     1
  8
0
  0
BLOCK
  8
0
  2
_OPEN
 70
     0
 10
0.0
 20
0.0
 30
0.0
  3
_OPEN
  1

  0
LINE
  5
4450
  8
0
  6
BYBLOCK
 62
     0
 10
-1.0
 20
0.1666666666666666
 30
0.0
 11
0.0
 21
0.0
 31
0.0
  0
LINE
  5
4451
  8
0
  6
BYBLOCK
 62
     0
 10
-1.0
 20
-0.1666666666666666
 30
0.0
 11
0.0
 21
0.0
 31
0.0
  0
LINE
  5
4452
  8
0
  6
BYBLOCK
 62
     0
 10
0.0
 20
0.0
 30
0.0
 11
-1.0
 21
0.0
 31
0.0
  0
ENDBLK
  5
4453
  8
0
  0
BLOCK
  8
0
  2
GENAXEH
 70
     0
 10
0.0
 20
0.0
 30
0.0
  3
GENAXEH
  1

  0
LINE
  5
448B
  8
0
 10
-1.0
 20
0.0
 30
0.0
 11
1.0
 21
0.0
 31
0.0
  0
ENDBLK
  5
448C
  8
0
  0
BLOCK
  8
0
  2
_ACMFILLEDHALF
 70
     0
 10
0.0
 20
0.0
 30
0.0
  3
_ACMFILLEDHALF
  1

  0
TRACE
  5
4678
  8
240
 62
     0
 10
-0.8
 20
0.0
 30
0.0
 11
-1.0
 21
0.166666666
 31
0.0
 12
0.0
 22
0.0
 32
0.0
 13
0.0
 23
0.0
 33
0.0
  0
LINE
  5
4679
  8
240
 62
     0
 10
-1.0
 20
0.0
 30
0.0
 11
-0.8
 21
0.0
 31
0.0
  0
ENDBLK
  5
4677
  8
0
  0
ENDSEC
  0
SECTION
  2
ENTITIES
  0
TEXT
  5
4290
  8
241
  6
CONTINUOUS
 10
-70.000000000000014
 20
49.000000000000021
 30
0.0
 40
3.0
  1
ST20-C5/85A-40
  7
YOKO
 11
-70.000000000000014
 21
49.000000000000021
 31
0.0
 73
     1
  0
LINE
  5
4291
  8
250
  6
CONTINUOUS
 10
-0.0000000000000213
 20
17.500000000000021
 30
0.0
 11
-0.0000000000000213
 21
36.000000000000043
 31
0.0
  0
LINE
  5
4292
  8
250
  6
CONTINUOUS
 10
39.999999999997982
 20
11.5000000000037
 30
0.0
 11
39.999999999997982
 21
36.000000000000043
 31
0.0
  0
LINE
  5
4293
  8
250
  6
CONTINUOUS
 10
2.2299999999999889
 20
35.000000000000028
 30
0.0
 11
37.769999999997978
 21
35.000000000000028
 31
0.0
  0
LINE
  5
4294
  8
250
  6
CONTINUOUS
 10
-70.000000000000014
 20
10.5
 30
0.0
 11
-70.000000000000014
 21
36.000000000000043
 31
0.0
  0
LINE
  5
4295
  8
250
  6
CONTINUOUS
 10
-0.0000000000000071
 20
17.000000000000021
 30
0.0
 11
-0.0000000000000213
 21
36.000000000000043
 31
0.0
  0
LINE
  5
4296
  8
250
  6
CONTINUOUS
 10
-67.77000000000001
 20
35.000000000000028
 30
0.0
 11
-2.2300000000000182
 21
35.000000000000028
 31
0.0
  0
LINE
  5
4297
  8
250
  6
CONTINUOUS
 10
-70.500000000000014
 20
10.00000000000006
 30
0.0
 11
-86.000000999999997
 21
10.00000000000006
 31
0.0
  0
LINE
  5
4298
  8
250
  6
CONTINUOUS
 10
-70.500000000000014
 20
-9.9999999999999982
 30
0.0
 11
-86.000000999999997
 21
-9.9999999999999911
 31
0.0
  0
LINE
  5
4299
  8
250
  6
CONTINUOUS
 10
-85.000001000000012
 20
7.7700000000000617
 30
0.0
 11
-85.000001000000012
 21
-7.7699999999999898
 31
0.0
  0
TEXT
  5
429A
  8
250
  6
CONTINUOUS
 10
17.33333333333233
 20
36.000000000000043
 30
0.0
 40
2.799999999999998
  1
40
  0
LINE
  5
429B
  8
250
  6
CONTINUOUS
 10
37.769999999997978
 20
35.371666666666691
 30
0.0
 11
39.999999999997982
 21
35.000000000000028
 31
0.0
  0
LINE
  5
429C
  8
250
  6
CONTINUOUS
 10
37.769999999997978
 20
34.628333333333359
 30
0.0
 11
39.999999999997982
 21
35.000000000000028
 31
0.0
  0
LINE
  5
429D
  8
250
  6
CONTINUOUS
 10
39.999999999997982
 20
35.000000000000028
 30
0.0
 11
37.769999999997978
 21
35.000000000000028
 31
0.0
  0
LINE
  5
429E
  8
250
  6
CONTINUOUS
 10
2.2299999999999889
 20
34.628333333333359
 30
0.0
 11
-0.0000000000000213
 21
35.000000000000028
 31
0.0
  0
LINE
  5
429F
  8
250
  6
CONTINUOUS
 10
2.2299999999999889
 20
35.371666666666691
 30
0.0
 11
-0.0000000000000213
 21
35.000000000000028
 31
0.0
  0
LINE
  5
42A0
  8
250
  6
CONTINUOUS
 10
-0.0000000000000213
 20
35.000000000000028
 30
0.0
 11
2.2299999999999889
 21
35.000000000000028
 31
0.0
  0
TEXT
  5
42A1
  8
250
  6
CONTINUOUS
 10
-37.6666666666667
 20
36.000000000000043
 30
0.0
 40
2.799999999999998
  1
70
  0
LINE
  5
42A2
  8
250
  6
CONTINUOUS
 10
-2.2300000000000182
 20
35.371666666666691
 30
0.0
 11
-0.0000000000000213
 21
35.000000000000028
 31
0.0
  0
LINE
  5
42A3
  8
250
  6
CONTINUOUS
 10
-2.2300000000000182
 20
34.628333333333359
 30
0.0
 11
-0.0000000000000213
 21
35.000000000000028
 31
0.0
  0
LINE
  5
42A4
  8
250
  6
CONTINUOUS
 10
-0.0000000000000213
 20
35.000000000000028
 30
0.0
 11
-2.2300000000000182
 21
35.000000000000028
 31
0.0
  0
LINE
  5
42A5
  8
250
  6
CONTINUOUS
 10
-67.77000000000001
 20
34.628333333333359
 30
0.0
 11
-70.000000000000014
 21
35.000000000000028
 31
0.0
  0
LINE
  5
42A6
  8
250
  6
CONTINUOUS
 10
-67.77000000000001
 20
35.371666666666691
 30
0.0
 11
-70.000000000000014
 21
35.000000000000028
 31
0.0
  0
LINE
  5
42A7
  8
250
  6
CONTINUOUS
 10
-70.000000000000014
 20
35.000000000000028
 30
0.0
 11
-67.77000000000001
 21
35.000000000000028
 31
0.0
  0
TEXT
  5
42A8
  8
250
  6
CONTINUOUS
 10
-86.000000999999997
 20
-3.799999999999963
 30
0.0
 40
2.799999999999998
  1
\U+220520
 50
90.0
  0
LINE
  5
42A9
  8
250
  6
CONTINUOUS
 10
-84.628334333333314
 20
-7.7699999999999898
 30
0.0
 11
-85.000001000000012
 21
-9.9999999999999911
 31
0.0
  0
LINE
  5
42AA
  8
250
  6
CONTINUOUS
 10
-85.371667666666625
 20
-7.7699999999999898
 30
0.0
 11
-85.000001000000012
 21
-9.9999999999999911
 31
0.0
  0
LINE
  5
42AB
  8
250
  6
CONTINUOUS
 10
-85.000001000000012
 20
-9.9999999999999911
 30
0.0
 11
-85.000001000000012
 21
-7.7699999999999898
 31
0.0
  0
LINE
  5
42AC
  8
250
  6
CONTINUOUS
 10
-85.371667666666625
 20
7.7700000000000617
 30
0.0
 11
-85.000001000000012
 21
10.00000000000006
 31
0.0
  0
LINE
  5
42AD
  8
250
  6
CONTINUOUS
 10
-84.628334333333314
 20
7.7700000000000617
 30
0.0
 11
-85.000001000000012
 21
10.00000000000006
 31
0.0
  0
LINE
  5
42AE
  8
250
  6
CONTINUOUS
 10
-85.000001000000012
 20
10.00000000000006
 30
0.0
 11
-85.000001000000012
 21
7.7700000000000617
 31
0.0
  0
LINE
  5
42AF
  8
240
  6
CONTINUOUS
 10
-0.0000000000000853
 20
10.0
 30
0.0
 11
-70.000000000000014
 21
10.0
 31
0.0
  0
LINE
  5
42B0
  8
245
  6
CENTER2
 10
41.474115000283987
 20
0.0
 30
0.0
 11
-73.000000000000014
 21
0.0000000000000284
 31
0.0
  0
LINE
  5
42B1
  8
240
  6
CONTINUOUS
 10
-0.0000000000000213
 20
-10.0
 30
0.0
 11
-70.000000000000014
 21
-10.0
 31
0.0
  0
ARC
  5
42B2
  8
241
  6
CONTINUOUS
 10
27.499999999997979
 20
11.0000000000037
 30
0.0
 40
12.5
 50
130.89304205784941
 51
36.071351520453042
  0
ARC
  5
42B3
  8
241
  6
CONTINUOUS
 10
27.49999999999908
 20
11.0
 30
0.0
 40
13.0
 50
140.88538587992119
 51
268.87292815742842
  0
LINE
  5
42B4
  8
241
  6
CONTINUOUS
 10
13.999999999999529
 20
19.499999999999432
 30
0.0
 11
14.00000000000049
 21
-19.500000000000089
 31
0.0
  0
CIRCLE
  5
42B5
  8
241
  6
CONTINUOUS
 10
21.489592359909409
 20
4.9895923599224243
 30
0.0
 40
2.0
  0
CIRCLE
  5
42B6
  8
241
  6
CONTINUOUS
 10
21.489592359908979
 20
4.9895923599213443
 30
0.0
 40
3.75
  0
ARC
  5
42B7
  8
241
  6
CONTINUOUS
 10
34.011377766512183
 20
5.536305317666387
 30
0.0
 40
2.25
 50
319.99998240006488
 51
139.9999999998513
  0
LINE
  5
42B8
  8
247
 10
38.536844910730458
 20
5.1316054651785787
 30
0.0
 11
36.991686623229491
 21
5.9531807000512877
 31
0.0
  0
LINE
  5
42B9
  8
247
 10
38.325317547299392
 20
4.7500000000023288
 30
0.0
 11
37.459292143514787
 21
5.2500000000022711
 31
0.0
  0
LINE
  5
42BA
  8
241
  6
CONTINUOUS
 10
31.193029073793781
 20
11.651180666257661
 30
0.0
 11
32.669038583969197
 21
3.28031476565556
 31
0.0
  0
CIRCLE
  5
42BB
  8
241
  6
CONTINUOUS
 10
28.976009510173942
 20
2.6291340994017101
 30
0.0
 40
3.75
  0
LINE
  5
42BC
  8
241
  6
CONTINUOUS
 10
20.239592359909409
 20
5.711280196410339
 30
0.0
 11
21.489592359909022
 21
6.4329680328966647
 31
0.0
  0
LINE
  5
42BD
  8
241
  6
CONTINUOUS
 10
21.489592359909022
 20
6.4329680328966647
 30
0.0
 11
22.739592359909409
 21
5.7112801964091746
 31
0.0
  0
ARC
  5
42BF
  8
240
  6
CONTINUOUS
 10
27.299999999999262
 20
-10.80775199352604
 30
0.0
 40
7.5
 50
275.00000000001279
 51
0.0
  0
LINE
  5
42C0
  8
240
  6
CONTINUOUS
 10
13.999999999993189
 20
-19.500000000000089
 30
0.0
 11
27.953668070608781
 21
-18.27921222921394
 31
0.0
  0
LINE
  5
42C1
  8
241
  6
CONTINUOUS
 10
27.793665376968391
 20
3.457020374219125
 30
0.0
 11
29.101807989004541
 21
4.0670172921701901
 31
0.0
  0
LINE
  5
42C2
  8
241
  6
CONTINUOUS
 10
28.850211031320061
 20
1.1912509066276
 30
0.0
 11
27.667866898125911
 21
2.0191371814483712
 31
0.0
  0
CIRCLE
  5
42C3
  8
241
  6
CONTINUOUS
 10
28.97600951016226
 20
2.629134099398581
 30
0.0
 40
2.0
  0
ARC
  5
42C4
  8
241
  6
CONTINUOUS
 10
29.799999999999262
 20
2.3000000000000651
 30
0.0
 40
5.0
 50
239.2601345635438
 51
270.0
  0
ARC
  5
42C5
  8
241
  6
CONTINUOUS
 10
27.499999999998579
 20
11.0000000000038
 30
0.0
 40
12.25000000000054
 50
224.9999823998709
 51
279.99998239995023
  0
LINE
  5
42C6
  8
240
  6
CONTINUOUS
 10
34.799999999999493
 20
-10.80775199352621
 30
0.0
 11
34.799999999999493
 21
0.8530792848318638
 31
0.0
  0
LINE
  5
42C7
  8
247
 10
37.350134420078192
 20
3.3042315584313822
 30
0.0
 11
35.971115601267897
 21
4.3816391402495158
 31
0.0
  0
LINE
  5
42C8
  8
247
 10
36.78931031846119
 20
2.635867420516075
 30
0.0
 11
36.046165492983789
 21
3.3049980268751091
 31
0.0
  0
LINE
  5
42C9
  8
247
 10
36.491747504231569
 20
2.3167703692660662
 30
0.0
 11
35.772407703892981
 21
3.011428739725146
 31
0.0
  0
LINE
  5
42CA
  8
247
 10
37.075555538981583
 20
2.9651548789205431
 30
0.0
 11
36.309511095862291
 21
3.6079424886070761
 31
0.0
  0
LINE
  5
42CB
  8
247
 10
37.612712429680798
 20
3.6526843463461911
 30
0.0
 11
36.803695435305798
 21
4.2404695986386383
 31
0.0
  0
LINE
  5
42CC
  8
247
 10
37.86296965693198
 20
4.010088706617819
 30
0.0
 11
37.033932084376687
 21
4.5692816100884963
 31
0.0
  0
LINE
  5
42CD
  8
247
 10
38.100601201949182
 20
4.37600919708707
 30
0.0
 11
37.252553105792593
 21
4.9059284613203404
 31
0.0
  0
LINE
  5
42CE
  8
247
 10
32.182582417697887
 20
-0.5897981820814096
 30
0.0
 11
31.713295530143899
 21
0.5717276237790401
 31
0.0
  0
LINE
  5
42CF
  8
247
 10
32.584208038446292
 20
-0.4193182205292489
 30
0.0
 11
32.177471395370389
 21
0.4942272371133642
 31
0.0
  0
LINE
  5
42D0
  8
241
  6
CONTINUOUS
 10
34.799999999999493
 20
-2.69999999999993
 30
0.0
 11
29.799999999999301
 21
-2.69999999999993
 31
0.0
  0
ARC
  5
42D3
  8
241
  6
CONTINUOUS
 10
27.499999999997979
 20
11.0000000000037
 30
0.0
 40
10.75
 50
298.05630311064613
 51
319.99998239990248
  0
LINE
  5
42D4
  8
247
 10
36.183229630735681
 20
2.0082524957702641
 30
0.0
 11
35.488571260276977
 21
2.727592296109064
 31
0.0
  0
LINE
  5
42D5
  8
247
 10
35.86413257948449
 20
1.7106896815361801
 30
0.0
 11
35.059367039054919
 21
2.604472362241522
 31
0.0
  0
LINE
  5
42D6
  8
247
 10
33.368394534822187
 20
-0.0368449107333788
 30
0.0
 11
32.898922972036488
 21
0.8461026821257744
 31
0.0
  0
LINE
  5
42D7
  8
247
 10
32.97963933486227
 20
-0.2349255787363944
 30
0.0
 11
32.54126818807309
 21
0.6638684675629066
 31
0.0
  0
LINE
  5
42D8
  8
247
 10
34.48991129338291
 20
0.6370303430652913
 30
0.0
 11
33.93071838991208
 21
1.466067915620455
 31
0.0
  0
LINE
  5
42D9
  8
247
 10
35.534845121080579
 20
1.424444461016376
 30
0.0
 11
34.892057511393993
 21
2.1904889041354911
 31
0.0
  0
LINE
  5
42DA
  8
247
 10
35.195768441569491
 20
1.149865579919463
 30
0.0
 11
34.580106966243392
 21
1.9378763335261471
 31
0.0
  0
LINE
  5
42DB
  8
247
 10
34.847315653654491
 20
0.8872875703166441
 30
0.0
 11
34.259530401361893
 21
1.696304564691558
 31
0.0
  0
LINE
  5
42DC
  8
247
 10
34.123990802913987
 20
0.399398798048054
 30
0.0
 11
33.486655193076693
 21
1.41934898105937
 31
0.0
  0
LINE
  5
42DD
  8
247
 10
33.749999999999083
 20
0.1746824526979793
 30
0.0
 11
33.249999999998707
 21
1.0407078564824821
 31
0.0
  0
LINE
  5
42DE
  8
241
  6
CONTINUOUS
 10
30.284152122198179
 20
3.2391310173503021
 30
0.0
 11
30.158353643356509
 21
1.8012478245789221
 31
0.0
  0
LINE
  5
42DF
  8
241
  6
CONTINUOUS
 10
30.158353643356509
 20
1.8012478245789221
 30
0.0
 11
28.850211031320061
 21
1.1912509066276
 31
0.0
  0
LINE
  5
42E0
  8
241
  6
CONTINUOUS
 10
29.101807989004541
 20
4.0670172921701901
 30
0.0
 11
30.284152122198179
 21
3.2391310173503021
 31
0.0
  0
LINE
  5
42E1
  8
241
  6
CONTINUOUS
 10
21.48959235990975
 20
3.5462166869481271
 30
0.0
 11
20.23959235990937
 21
4.267904523435587
 31
0.0
  0
LINE
  5
42E2
  8
241
  6
CONTINUOUS
 10
27.667866898125911
 20
2.0191371814483712
 30
0.0
 11
27.793665376968391
 21
3.457020374219125
 31
0.0
  0
LINE
  5
42E3
  8
241
  6
CONTINUOUS
 10
22.739592359909409
 20
5.7112801964091746
 30
0.0
 11
22.739592359909821
 21
4.2679045234352166
 31
0.0
  0
LINE
  5
42E4
  8
241
  6
CONTINUOUS
 10
22.739592359909821
 20
4.2679045234352166
 30
0.0
 11
21.48959235990975
 21
3.5462166869481271
 31
0.0
  0
LINE
  5
42E5
  8
241
  6
CONTINUOUS
 10
20.23959235990937
 20
4.267904523435587
 30
0.0
 11
20.239592359909409
 21
5.711280196410339
 31
0.0
  0
LINE
  5
42ED
  8
241
  6
CONTINUOUS
 10
0.0000000000000142
 20
10.0
 30
0.0
 11
-0.0000000000000071
 21
-10.0
 31
0.0
  0
LINE
  5
42F0
  8
241
  6
CONTINUOUS
 10
27.49999999999314
 20
12.44337567297992
 30
0.0
 11
28.749999999993289
 21
11.721687836492411
 31
0.0
  0
LINE
  5
42F1
  8
241
  6
CONTINUOUS
 10
28.749999999993459
 20
10.27831216351845
 30
0.0
 11
27.499999999993861
 21
9.5566243270313276
 31
0.0
  0
CIRCLE
  5
42F2
  8
241
  6
CONTINUOUS
 10
27.499999999993019
 20
11.000000000005681
 30
0.0
 40
2.0
  0
CIRCLE
  5
42F3
  8
241
  6
CONTINUOUS
 10
27.499999999998579
 20
11.0000000000038
 30
0.0
 40
3.75
  0
ARC
  5
42F4
  8
246
  6
PHANTOM2
 10
27.500000000002199
 20
11.00000000000378
 30
0.0
 40
12.5000000000004
 50
41.054480437698388
 51
130.8930420578364
  0
LINE
  5
42F5
  8
241
  6
CONTINUOUS
 10
37.838786633452997
 20
19.12985191285258
 30
0.0
 11
22.88039780691479
 21
20.438541359787649
 31
0.0
  0
CIRCLE
  5
42F6
  8
241
  6
CONTINUOUS
 10
31.868892325422081
 20
16.465022003062611
 30
0.0
 40
1.649999999999999
  0
LINE
  5
42F7
  8
241
  6
CONTINUOUS
 10
33.305606633259899
 20
13.23780829067187
 30
0.0
 11
37.974564373521993
 21
18.80205545130007
 31
0.0
  0
LINE
  5
42F8
  8
247
 10
39.628696578443183
 20
7.9759763050061387
 30
0.0
 11
38.65840085216729
 21
8.217898200605946
 31
0.0
  0
LINE
  5
42F9
  8
247
 10
39.089798182078091
 20
6.3174175823029923
 30
0.0
 11
38.162614327511783
 21
6.6920241757192098
 31
0.0
  0
LINE
  5
42FA
  8
247
 10
39.246157759817507
 20
6.7247482084315457
 30
0.0
 11
38.306465139031403
 21
7.0667683517570321
 31
0.0
  0
LINE
  5
42FB
  8
247
 10
39.515771199222193
 20
7.5545330522894698
 30
0.0
 11
38.554509503283981
 21
7.8301704081066088
 31
0.0
  0
LINE
  5
42FC
  8
247
 10
38.919318220525781
 20
5.9157919615544463
 30
0.0
 11
38.005772762883403
 21
6.3225286046303619
 31
0.0
  0
LINE
  5
42FD
  8
247
 10
38.734925578733282
 20
5.5203606651385666
 30
0.0
 11
37.836131532434003
 21
5.9587318119277182
 31
0.0
  0
LINE
  5
42FE
  8
247
 10
37.486093421092583
 20
7.7553215590652327
 30
0.0
 11
39.388206453682884
 21
7.1372875703153484
 31
0.0
  0
LINE
  5
42FF
  8
247
 10
39.810096912646088
 20
8.8293977791657721
 30
0.0
 11
38.825289159633677
 21
9.0030459568325956
 31
0.0
  0
LINE
  5
4300
  8
247
 10
39.726845009165892
 20
8.4011038647799126
 30
0.0
 11
38.748697408432001
 21
8.6090155555978907
 31
0.0
  0
LINE
  5
4301
  8
247
 10
39.969550628240988
 20
10.12804407820037
 30
0.0
 11
38.971986577981284
 21
10.197800551944781
 31
0.0
  0
LINE
  5
4302
  8
247
 10
39.931523692096789
 20
9.6933942091564802
 30
0.0
 11
38.937001796728303
 21
9.7979226724241197
 31
0.0
  0
LINE
  5
4303
  8
247
 10
39.992385337731982
 20
10.563756291220839
 30
0.0
 11
38.992994510712577
 21
10.598655787923271
 31
0.0
  0
LINE
  5
4304
  8
247
 10
37.897814721779703
 20
9.5386824399215282
 30
0.0
 11
39.87835085926389
 21
9.2603362380013436
 31
0.0
  0
LINE
  5
4305
  8
247
 10
39.628696578442486
 20
14.02402369499767
 30
0.0
 11
38.658400852166913
 21
13.782101799398291
 31
0.0
  0
LINE
  5
4306
  8
247
 10
39.999999999993292
 20
11.000000000002441
 30
0.0
 11
38.9999999999932
 21
11.000000000002389
 31
0.0
  0
LINE
  5
4307
  8
247
 10
39.969550628240569
 20
11.87195592180349
 30
0.0
 11
38.971986577980992
 21
11.80219944805966
 31
0.0
  0
LINE
  5
4308
  8
247
 10
39.878350859262497
 20
12.739663762002721
 30
0.0
 11
38.888082790521068
 21
12.6004906610428
 31
0.0
  0
LINE
  5
4309
  8
247
 10
39.931523692096583
 20
12.30660579084771
 30
0.0
 11
38.937001796727976
 21
12.20207732758004
 31
0.0
  0
LINE
  5
430A
  8
247
 10
39.810096912645577
 20
13.170602220838891
 30
0.0
 11
38.825289159633293
 21
12.99695404317205
 31
0.0
  0
LINE
  5
430B
  8
247
 10
37.993603683693578
 20
11.36644471537849
 30
0.0
 11
39.992385337731982
 21
11.43624370878358
 31
0.0
  0
LINE
  5
430C
  8
247
 10
37.770549807697783
 20
13.183072753588521
 30
0.0
 11
39.726845009165572
 21
13.598896135224161
 31
0.0
  0
LINE
  5
430D
  8
247
 10
39.515771199221888
 20
14.44546694771439
 30
0.0
 11
38.554509503283491
 21
14.16982959189747
 31
0.0
  0
LINE
  5
430E
  8
247
 10
39.388206453682379
 20
14.8627124296888
 30
0.0
 11
38.43714993738719
 21
14.553695435313889
 31
0.0
  0
LINE
  5
430F
  8
247
 10
37.23543047294369
 20
14.933369230869079
 30
0.0
 11
39.089798182077388
 21
15.68258241770096
 31
0.0
  0
LINE
  5
4310
  8
247
 10
39.246157759816477
 20
15.27525179157306
 30
0.0
 11
38.306465139030472
 21
14.9332316482473
 31
0.0
  0
LINE
  5
4311
  8
241
  6
CONTINUOUS
 10
28.749999999993289
 20
11.721687836492411
 30
0.0
 11
28.749999999993459
 21
10.27831216351845
 31
0.0
  0
ARC
  5
4312
  8
241
  6
CONTINUOUS
 10
27.499999999998579
 20
11.0000000000038
 30
0.0
 40
6.25
 50
316.86988004579212
 51
320.00000000000068
  0
LINE
  5
4313
  8
241
  6
CONTINUOUS
 10
33.134966596086272
 20
13.167126872990661
 30
0.0
 11
30.37416594364619
 21
13.40866563233403
 31
0.0
  0
ARC
  5
4314
  8
241
  6
CONTINUOUS
 10
33.152397744635707
 20
13.366365812609001
 30
0.0
 40
0.2
 50
264.99999999999358
 51
319.99999999999062
  0
ARC
  5
4315
  8
241
  6
CONTINUOUS
 10
37.821355484899087
 20
18.930612973232812
 30
0.0
 40
0.2
 50
319.99999999999062
 51
84.999999999993676
  0
CIRCLE
  5
4316
  8
241
  6
CONTINUOUS
 10
24.146472077579801
 20
17.1406462297224
 30
0.0
 40
1.649999999999999
  0
LINE
  5
4317
  8
241
  6
CONTINUOUS
 10
18.04080002947445
 20
14.803612781476859
 30
0.0
 11
22.709757769736679
 21
20.367859942105031
 31
0.0
  0
LINE
  5
4318
  8
241
  6
CONTINUOUS
 10
18.176577769548679
 20
14.47581631992111
 30
0.0
 11
25.087759492908059
 21
13.8711662675596
 31
0.0
  0
LINE
  5
4319
  8
241
  6
CONTINUOUS
 10
24.848349570550621
 20
13.65165042945495
 30
0.0
 11
18.837941930460971
 21
7.6412427893724537
 31
0.0
  0
LINE
  5
431A
  8
241
  6
CONTINUOUS
 10
26.24999999999325
 20
10.278312163518789
 30
0.0
 11
26.249999999993289
 21
11.721687836493601
 31
0.0
  0
LINE
  5
431B
  8
241
  6
CONTINUOUS
 10
27.499999999993861
 20
9.5566243270313276
 30
0.0
 11
26.24999999999325
 21
10.278312163518789
 31
0.0
  0
LINE
  5
431C
  8
241
  6
CONTINUOUS
 10
26.249999999993289
 20
11.721687836493601
 30
0.0
 11
27.49999999999314
 21
12.44337567297992
 31
0.0
  0
ARC
  5
431D
  8
241
  6
CONTINUOUS
 10
18.194008918098419
 20
14.67505525953951
 30
0.0
 40
0.2
 50
139.99999999999071
 51
264.99999999999358
  0
LINE
  5
431E
  8
241
  6
CONTINUOUS
 10
22.54127094580036
 20
20.167065164369252
 30
0.0
 11
19.31688726499317
 21
20.449162183297489
 31
0.0
  0
ARC
  5
431F
  8
241
  6
CONTINUOUS
 10
22.862966658365409
 20
20.239302420169182
 30
0.0
 40
0.2
 50
84.999999999993676
 51
139.99999999999071
  0
LINE
  5
4320
  8
240
  6
CONTINUOUS
 10
13.99999999999341
 20
19.500000000000188
 30
0.0
 11
18.020741757387
 21
19.14823067726191
 31
0.0
  0
LINE
  5
4328
  8
240
  6
CONTINUOUS
 10
-70.000000000000014
 20
-10.0
 30
0.0
 11
-70.000000000000014
 21
9.9999999999999982
 31
0.0
  0
LINE
  5
4347
  8
241
  6
CONTINUOUS
 10
7.9999999999999503
 20
16.683503419072299
 30
0.0
 11
7.9999999999999503
 21
-16.683503419072181
 31
0.0
  0
LINE
  5
4348
  8
240
  6
CONTINUOUS
 10
-0.0000000000002203
 20
-16.499999999999972
 30
0.0
 11
-0.0000000000000213
 21
-10.0
 31
0.0
  0
LINE
  5
4349
  8
240
  6
CONTINUOUS
 10
10.30940107675837
 20
-19.49999999999994
 30
0.0
 11
13.99999999999385
 21
-19.49999999999984
 31
0.0
1001
GRPNAME
1000
PASTMD16
  0
LINE
  5
434A
  8
241
  6
CONTINUOUS
 10
9.7320508075687435
 20
-19.31649658092751
 30
0.0
 11
9.7320508075687435
 21
19.316496580927801
 31
0.0
  0
LINE
  5
434C
  8
240
  6
CONTINUOUS
 10
0.0
 20
16.500000000000021
 30
0.0
 11
-0.0000000000000853
 21
10.0
 31
0.0
  0
LINE
  5
434E
  8
240
  6
CONTINUOUS
 10
10.309401076758389
 20
19.499999999999861
 30
0.0
 11
13.99999999999385
 21
19.499999999999911
 31
0.0
1001
GRPNAME
1000
PASTMD16
  0
ARC
  5
434F
  8
240
  6
CONTINUOUS
 10
10.309401076758389
 20
18.499999999999861
 30
0.0
 40
1.0
 50
90.00000000000081
 51
149.99999999999969
1001
GRPNAME
1000
PASTMD16
  0
LINE
  5
4350
  8
240
  6
CONTINUOUS
 10
0.0
 20
16.500000000000021
 30
0.0
 11
7.4226497308103339
 21
16.500000000000021
 31
0.0
  0
ARC
  5
4351
  8
240
  6
CONTINUOUS
 10
7.4226497308103339
 20
17.500000000000021
 30
0.0
 40
1.0
 50
270.0
 51
329.9999999999996
  0
LINE
  5
4352
  8
240
  6
CONTINUOUS
 10
9.4433756729739429
 20
18.999999999999861
 30
0.0
 11
8.2886751345947811
 21
17.000000000000021
 31
0.0
  0
ARC
  5
4354
  8
240
  6
CONTINUOUS
 10
10.309401076758389
 20
-18.499999999999801
 30
0.0
 40
1.0
 50
210.00000000000031
 51
269.9999999999992
1001
GRPNAME
1000
PASTMD16
  0
LINE
  5
4355
  8
240
  6
CONTINUOUS
 10
-0.0000000000002203
 20
-16.499999999999972
 30
0.0
 11
7.4226497308103339
 21
-16.499999999999972
 31
0.0
  0
ARC
  5
4356
  8
240
  6
CONTINUOUS
 10
7.4226497308103339
 20
-17.499999999999972
 30
0.0
 40
1.0
 50
30.000000000000309
 51
90.0
  0
LINE
  5
4357
  8
240
  6
CONTINUOUS
 10
9.4433756729739429
 20
-18.999999999999801
 30
0.0
 11
8.2886751345947811
 21
-16.999999999999972
 31
0.0
  0
LINE
  5
4379
  8
250
  6
CONTINUOUS
 10
-51.696447424073611
 20
-11.56538414133122
 30
0.0
 11
-50.407772289999983
 21
-9.999999999999968
 31
0.0
  0
LINE
  5
437A
  8
250
  6
CONTINUOUS
 10
-51.119097154773023
 20
-11.898717474472351
 30
0.0
 11
-50.407772289999983
 21
-9.999999999999968
 31
0.0
  0
LINE
  5
437B
  8
250
  6
CONTINUOUS
 10
-50.407772289999983
 20
-9.999999999999968
 30
0.0
 11
-51.407772289423299
 21
-11.7320508079018
 31
0.0
  0
LINE
  5
437C
  8
250
  6
CONTINUOUS
 10
-51.407772289423299
 20
-11.7320508079018
 30
0.0
 11
-56.850833950000009
 21
-21.159710159999971
 31
0.0
1001
ACAD
1000
DSTYLE
1002
{
1070
     6
1000
OPEN
1070
    41
1040
2.0
1070
    42
1040
2.0
1070
    44
1040
2.0
1070
   140
1040
4.0
1070
   343
1005
594
1002
}
  0
TEXT
  5
437D
  8
250
  6
CONTINUOUS
 10
-69.384167290000022
 20
-20.159710159999982
 30
0.0
 40
2.799999999999998
  1
ST20
  7
YOKO
1001
ITEMNAME
1000
LNSP3
  0
LINE
  5
437E
  8
250
  6
CONTINUOUS
 10
-56.850833950000009
 20
-21.159710159999971
 30
0.0
 11
-71.784167290000013
 21
-21.159710159999971
 31
0.0
1001
ITEMNAME
1000
LNSP2
  0
LINE
  5
437F
  8
247
  6
CONTINUOUS
 10
-63.25000000007001
 20
-5.999999999999968
 30
0.0
 11
-56.557692308030013
 21
-5.999999999999968
 31
0.0
  0
ARC
  5
4380
  8
247
  6
CONTINUOUS
 10
-63.25000000007001
 20
-4.25000000007
 30
0.0
 40
1.7499999999299991
 50
90.0
 51
270.0
  0
ARC
  5
4381
  8
247
  6
CONTINUOUS
 10
-56.557692308030013
 20
-4.25000000007
 30
0.0
 40
1.7499999999299991
 50
270.0
 51
90.0
  0
LINE
  5
4382
  8
247
  6
CONTINUOUS
 10
-62.384615384720021
 20
-2.5000000001400311
 30
0.0
 11
-63.244851541961999
 21
-5.5000000000199769
 31
0.0
  0
LINE
  5
4383
  8
247
  6
CONTINUOUS
 10
-61.48498381833582
 20
-3.923076923159865
 30
0.0
 11
-62.792676125975817
 21
-3.923076923159865
 31
0.0
  0
ARC
  5
4384
  8
247
  6
CONTINUOUS
 10
-61.145143816089814
 20
-3.0495986677028362
 30
0.0
 40
0.5538165441895349
 50
342.9978896752952
 51
82.924166218512752
  0
ARC
  5
4385
  8
247
  6
CONTINUOUS
 10
-61.56687832302871
 20
-2.9360330444658
 30
0.0
 40
0.9904354236226808
 50
274.74293685220141
 51
343.84922627326648
1001
GENIUS_GENOBJ-N-FIL_13
1002
{
1000
OWNER
1000
GEN
1002
}
1001
GENIUS_GENODEF_13
1002
{
1000
HIER
1070
     0
1002
}
1002
{
1000
MANEDIT
1070
     0
1002
}
1002
{
1000
NOSEL
1070
     0
1002
}
1002
{
1000
BEHIND
1070
     0
1002
}
1002
{
1000
OTHER
1070
     0
1002
}
1002
{
1000
REACTOR
1002
}
  0
LINE
  5
4386
  8
247
  6
CONTINUOUS
 10
-61.93715923432201
 20
-5.5000000000199769
 30
0.0
 11
-63.244851541961999
 21
-5.5000000000199769
 31
0.0
  0
LINE
  5
4387
  8
247
  6
CONTINUOUS
 10
-62.384615384720021
 20
-2.5000000001400311
 30
0.0
 11
-61.076923077080011
 21
-2.5000000001400311
 31
0.0
  0
ARC
  5
4388
  8
247
  6
CONTINUOUS
 10
-61.56091963654692
 20
-4.4820242326654487
 30
0.0
 40
0.5640818586791229
 50
335.9909416525216
 51
82.263443459069066
  0
ARC
  5
4389
  8
247
  6
CONTINUOUS
 10
-62.038262685347021
 20
-4.4874290391864768
 30
0.0
 40
1.0176059446230981
 50
275.70198516425808
 51
347.27733843682228
1001
GENIUS_GENOBJ-N-FIL_13
1002
{
1000
OWNER
1000
GEN
1002
}
1001
GENIUS_GENODEF_13
1002
{
1000
HIER
1070
     0
1002
}
1002
{
1000
MANEDIT
1070
     0
1002
}
1002
{
1000
NOSEL
1070
     0
1002
}
1002
{
1000
BEHIND
1070
     0
1002
}
1002
{
1000
OTHER
1070
     0
1002
}
1002
{
1000
REACTOR
1002
}
  0
LINE
  5
438A
  8
247
  6
CONTINUOUS
 10
-60.28331308054203
 20
-5.5000000000199769
 30
0.0
 11
-59.42307692330003
 21
-2.5000000001400311
 31
0.0
  0
LINE
  5
438B
  8
247
  6
CONTINUOUS
 10
-57.000000000320021
 20
-2.5000000001400311
 30
0.0
 11
-57.56573661945658
 21
-2.5000000001400311
 31
0.0
  0
LINE
  5
438C
  8
247
  6
CONTINUOUS
 10
-58.461538461799996
 20
-5.5000000000199769
 30
0.0
 11
-57.846153846439996
 21
-5.5000000000199769
 31
0.0
  0
ARC
  5
438D
  8
247
  6
CONTINUOUS
 10
-56.708791209122879
 20
-4.5832851359733393
 30
0.0
 40
2.2526500823422122
 50
112.35948814153021
 51
164.993248542846
  0
ARC
  5
438E
  8
247
  6
CONTINUOUS
 10
-57.374069479213212
 20
-3.3083126551946092
 30
0.0
 40
0.8906723995727782
 50
4.9945893190753878
 51
65.166328957300493
1001
GENIUS_GENOBJ-N-FIL_13
1002
{
1000
OWNER
1000
GEN
1002
}
1001
GENIUS_GENODEF_13
1002
{
1000
HIER
1070
     0
1002
}
1002
{
1000
MANEDIT
1070
     0
1002
}
1002
{
1000
NOSEL
1070
     0
1002
}
1002
{
1000
BEHIND
1070
     0
1002
}
1002
{
1000
OTHER
1070
     0
1002
}
1002
{
1000
REACTOR
1002
}
  0
ARC
  5
438F
  8
247
  6
CONTINUOUS
 10
-58.226458886212612
 20
-4.1601458886677527
 30
0.0
 40
1.392781735586712
 50
285.84609655578072
 51
352.32513700416251
  0
ARC
  5
4390
  8
247
  6
CONTINUOUS
 10
-57.64221272584038
 20
-4.459243431527252
 30
0.0
 40
1.324563662670287
 50
159.71360167048991
 51
231.78874565641209
1001
GENIUS_GENOBJ-N-FIL_13
1002
{
1000
OWNER
1000
GEN
1002
}
1001
GENIUS_GENODEF_13
1002
{
1000
HIER
1070
     0
1002
}
1002
{
1000
MANEDIT
1070
     0
1002
}
1002
{
1000
NOSEL
1070
     0
1002
}
1002
{
1000
BEHIND
1070
     0
1002
}
1002
{
1000
OTHER
1070
     0
1002
}
1002
{
1000
REACTOR
1002
}
  0
LINE
  5
4391
  8
247
  6
CONTINUOUS
 10
-57.538461538760011
 20
-4.3461538462199449
 30
0.0
 11
-56.846153846480021
 21
-4.3461538462199449
 31
0.0
  0
LINE
  5
4392
  8
247
  6
CONTINUOUS
 10
-63.25000000007001
 20
-2.5000000001400311
 30
0.0
 11
-62.576923077020012
 21
-2.5000000001400311
 31
0.0
  0
VIEWPORT
  5
22
 67
     1
  8
0
 10
261.51769911504419
 20
148.5
 30
0.0
 40
523.0353982300885
 41
297.0
 68
     1
 69
     1
1001
ACAD
1000
MVIEW
1002
{
1070
    16
1010
0.0
1020
0.0
1030
0.0
1010
0.0
1020
0.0
1030
1.0
1040
0.0
1040
297.0
1040
261.51769911504419
1040
148.5
1040
50.0
1040
0.0
1040
0.0
1070
     0
1070
   100
1070
     1
1070
     1
1070
     0
1070
     0
1070
     0
1070
     0
1040
0.0
1040
0.0
1040
0.0
1040
1.0
1040
1.0
1040
10.0
1040
10.0
1070
     0
1002
{
1002
}
1002
}
1001
GENIUS_GENODEF_13
1002
{
1000
HIER
1070
     0
1002
}
1002
{
1000
MANEDIT
1070
     0
1002
}
1002
{
1000
NOSEL
1070
     0
1002
}
1002
{
1000
BEHIND
1070
     0
1002
}
1002
{
1000
OTHER
1070
     0
1002
}
1002
{
1000
REACTOR
1002
}
1001
GENIUS_GENOBJ-N-SDF_13
1002
{
1000
OWNER
1000
GEN
1002
}
1001
GENIUS_GENSCREG_15
1000
PF
1040
1.0
1000
DF
1040
1.0
1000
MIN
1011
0.0
1021
0.0
1031
0.0
1021
0.0
1031
0.0
1000
MAX
1011
523.0353982300885
1021
0.0
1031
0.0
1021
297.0
1031
0.0
1000
FLAGS
1070
     4
  0
ENDSEC
  0
EOF
