  0
SECTION
  2
HEADER
  9
$ACADVER
  1
AC1009
  9
$INSBASE
 10
0.0
 20
0.0
 30
0.0
  9
$EXTMIN
 10
-174.0
 20
-36.0
 30
0.0
  9
$EXTMAX
 10
22.000000000000011
 20
34.191755186225947
 30
0.0
  9
$LIMMIN
 10
0.0
 20
0.0
  9
$LIMMAX
 10
297.0
 20
210.0
  9
$ORTHOMODE
 70
     1
  9
$REGENMODE
 70
     1
  9
$FILLMODE
 70
     1
  9
$QTEXTMODE
 70
     0
  9
$MIRRTEXT
 70
     1
  9
$DRAGMODE
 70
     2
  9
$LTSCALE
 40
10.0
  9
$OSMODE
 70
  2799
  9
$ATTMODE
 70
     1
  9
$TEXTSIZE
 40
3.0
  9
$TRACEWID
 40
1.0
  9
$TEXTSTYLE
  7
YOKO
  9
$CLAYER
  8
240
  9
$CELTYPE
  6
BYLAYER
  9
$CECOLOR
 62
   256
  9
$DIMSCALE
 40
1.0
  9
$DIMASZ
 40
2.2299999999999991
  9
$DIMEXO
 40
0.5
  9
$DIMDLI
 40
7.0
  9
$DIMRND
 40
0.0
  9
$DIMDLE
 40
0.0
  9
$DIMEXE
 40
1.0
  9
$DIMTP
 40
0.0
  9
$DIMTM
 40
0.01
  9
$DIMTXT
 40
2.799999999999998
  9
$DIMCEN
 40
0.0
  9
$DIMTSZ
 40
0.0
  9
$DIMTOL
 70
     0
  9
$DIMLIM
 70
     0
  9
$DIMTIH
 70
     0
  9
$DIMTOH
 70
     0
  9
$DIMSE1
 70
     0
  9
$DIMSE2
 70
     0
  9
$DIMTAD
 70
     3
  9
$DIMZIN
 70
     9
  9
$DIMBLK
  1
OPEN
  9
$DIMASO
 70
     1
  9
$DIMSHO
 70
     1
  9
$DIMPOST
  1

  9
$DIMAPOST
  1

  9
$DIMALT
 70
     0
  9
$DIMALTD
 70
     2
  9
$DIMALTF
 40
25.399999999999999
  9
$DIMLFAC
 40
1.0
  9
$DIMTOFL
 70
     1
  9
$DIMTVP
 40
0.0
  9
$DIMTIX
 70
     1
  9
$DIMSOXD
 70
     0
  9
$DIMSAH
 70
     0
  9
$DIMBLK1
  1

  9
$DIMBLK2
  1

  9
$DIMSTYLE
  2
BIGT
  9
$DIMCLRD
 70
   256
  9
$DIMCLRE
 70
   256
  9
$DIMCLRT
 70
    40
  9
$DIMTFAC
 40
1.0
  9
$DIMGAP
 40
1.0
  9
$LUNITS
 70
     2
  9
$LUPREC
 70
     3
  9
$SKETCHINC
 40
1.0
  9
$FILLETRAD
 40
0.0
  9
$AUNITS
 70
     0
  9
$AUPREC
 70
     3
  9
$MENU
  1
.
  9
$ELEVATION
 40
0.0
  9
$PELEVATION
 40
0.0
  9
$THICKNESS
 40
0.0
  9
$LIMCHECK
 70
     0
  9
$BLIPMODE
 70
     0
  9
$CHAMFERA
 40
0.25
  9
$CHAMFERB
 40
0.25
  9
$SKPOLY
 70
     0
  9
$TDCREATE
 40
2454090.355248658
  9
$TDUPDATE
 40
2454809.4333624421
  9
$TDINDWG
 40
0.023691412
  9
$TDUSRTIMER
 40
0.0236912269
  9
$USRTIMER
 70
     1
  9
$ANGBASE
 50
0.0
  9
$ANGDIR
 70
     0
  9
$PDMODE
 70
     1
  9
$PDSIZE
 40
0.0
  9
$PLINEWID
 40
0.0
  9
$COORDS
 70
     0
  9
$SPLFRAME
 70
     0
  9
$SPLINETYPE
 70
     6
  9
$SPLINESEGS
 70
     4
  9
$ATTDIA
 70
     1
  9
$ATTREQ
 70
     1
  9
$HANDLING
 70
     1
  9
$HANDSEED
  5
1EB5
  9
$SURFTAB1
 70
     6
  9
$SURFTAB2
 70
     6
  9
$SURFTYPE
 70
     6
  9
$SURFU
 70
     6
  9
$SURFV
 70
     6
  9
$UCSNAME
  2

  9
$UCSORG
 10
0.0
 20
0.0
 30
0.0
  9
$UCSXDIR
 10
1.0
 20
0.0
 30
0.0
  9
$UCSYDIR
 10
0.0
 20
1.0
 30
0.0
  9
$PUCSNAME
  2

  9
$PUCSORG
 10
0.0
 20
0.0
 30
0.0
  9
$PUCSXDIR
 10
1.0
 20
0.0
 30
0.0
  9
$PUCSYDIR
 10
0.0
 20
1.0
 30
0.0
  9
$USERI1
 70
     1
  9
$USERI2
 70
     0
  9
$USERI3
 70
     0
  9
$USERI4
 70
     0
  9
$USERI5
 70
     0
  9
$USERR1
 40
0.0
  9
$USERR2
 40
0.0
  9
$USERR3
 40
0.0
  9
$USERR4
 40
0.0
  9
$USERR5
 40
0.0
  9
$WORLDVIEW
 70
     1
  9
$SHADEDGE
 70
     3
  9
$SHADEDIF
 70
    70
  9
$TILEMODE
 70
     1
  9
$MAXACTVP
 70
    16
  9
$PLIMCHECK
 70
     0
  9
$PEXTMIN
 10
1.0000000000000000E+020
 20
1.0000000000000000E+020
 30
1.0000000000000000E+020
  9
$PEXTMAX
 10
-1.0000000000000000E+020
 20
-1.0000000000000000E+020
 30
-1.0000000000000000E+020
  9
$PLIMMIN
 10
0.0
 20
0.0
  9
$PLIMMAX
 10
420.0
 20
297.0
  9
$UNITMODE
 70
     0
  9
$VISRETAIN
 70
     1
  9
$PLINEGEN
 70
     0
  9
$PSLTSCALE
 70
     1
  0
ENDSEC
  0
SECTION
  2
TABLES
  0
TABLE
  2
VPORT
 70
     3
  0
VPORT
  2
*ACTIVE
 70
     0
 10
0.0
 20
0.0
 11
1.0
 21
1.0
 12
-75.989542958653644
 22
-0.907582321301767
 13
0.0
 23
0.0
 14
7.0
 24
7.0
 15
7.0
 25
7.0
 16
0.0
 26
0.0
 36
1.0
 17
0.0
 27
0.0
 37
0.0
 40
127.0640808077966
 41
1.5487804878048781
 42
50.0
 43
0.0
 44
0.0
 50
0.0
 51
0.0
 71
     0
 72
  2000
 73
     1
 74
     0
 75
     0
 76
     0
 77
     0
 78
     0
  0
ENDTAB
  0
TABLE
  2
LTYPE
 70
    16
  0
LTYPE
  2
CONTINUOUS
 70
     0
  3
Solid line
 72
    65
 73
     0
 40
0.0
  0
LTYPE
  2
CENTER2
 70
     0
  3
___ _ ___ _ ___ _ ___ _ ___ _ ___ _ ___ _ ___ _
 72
    65
 73
     4
 40
1.125
 49
0.75
 49
-0.125
 49
0.125
 49
-0.125
  0
LTYPE
  2
HIDDEN2
 70
     0
  3
_ _ _ _ _ _ _ _ _ _ _ _ _ _ _ _ _ _ _ _ _ _ _ _
 72
    65
 73
     2
 40
0.1875
 49
0.125
 49
-0.0625
  0
LTYPE
  2
PHANTOM2
 70
     0
  3
___ _ _ ___ _ _ ___ _ _ ___ _ _ ___ _ _ ___ _ _
 72
    65
 73
     6
 40
1.25
 49
0.625
 49
-0.125
 49
0.125
 49
-0.125
 49
0.125
 49
-0.125
  0
LTYPE
  2
CENTER
 70
     0
  3
____ _ ____ _ ____ _ ____ _ ____ _ ____ _ ____ 
 72
    65
 73
     4
 40
2.0
 49
1.25
 49
-0.25
 49
0.25
 49
-0.25
  0
LTYPE
  2
AMCONSTR
 70
     0
  3
_______________________
 72
    65
 73
     2
 40
9999.0
 49
9999.0
 49
0.0
  0
LTYPE
  2
HIDDEN
 70
     0
  3
Hidden __ __ __ __ __ __ __ __ __ __ __ __ __ _
 72
    65
 73
     2
 40
9.5249999999999986
 49
6.3499999999999979
 49
-3.174999999999998
  0
LTYPE
  2
AMZIGZAG2
 70
     0
  3
/\/-/\/-/\/-/\/-/\/-/\/
 72
    65
 73
     2
 40
0.4401
 49
0.0001
 49
-0.4400000000000001
  0
LTYPE
  2
ACANSTGB
 70
     0
  3
__ . . __ . .
 72
    65
 73
     6
 40
0.35433070866
 49
0.15748031496
 49
-0.03937007874
 49
0.03937007874
 49
-0.03937007874
 49
0.03937007874
 49
-0.03937007874
  0
LTYPE
  2
ACANSTGL
 70
     0
  3
_ _ _ _ _
 72
    65
 73
     2
 40
0.11811023622
 49
0.07874015748
 49
-0.03937007874
  0
ENDTAB
  0
TABLE
  2
LAYER
 70
     8
  0
LAYER
  2
0
 70
     0
 62
     7
  6
CONTINUOUS
  0
LAYER
  2
240
 70
     0
 62
     4
  6
CONTINUOUS
  0
LAYER
  2
DEFPOINTS
 70
     0
 62
     7
  6
CONTINUOUS
  0
LAYER
  2
245
 70
     0
 62
     2
  6
CENTER2
  0
LAYER
  2
241
 70
     0
 62
   211
  6
CONTINUOUS
  0
LAYER
  2
246
 70
     0
 62
     3
  6
PHANTOM2
  0
LAYER
  2
247
 70
     0
 62
    60
  6
CONTINUOUS
  0
LAYER
  2
250
 70
     0
 62
     3
  6
CONTINUOUS
  0
ENDTAB
  0
TABLE
  2
STYLE
 70
     5
  0
STYLE
  2
STANDARD
 70
     0
 40
0.0
 41
1.0
 50
0.0
 71
     0
 42
3.0
  3
romans.shx
  4
extfont.shx
  0
STYLE
  2
YOKO
 70
     0
 40
0.0
 41
1.0
 50
0.0
 71
     0
 42
3.0
  3
romans.shx
  4
extfont.shx
  0
STYLE
  2

 70
     1
 40
0.0
 41
1.0
 50
0.0
 71
     0
 42
3.0
  3
ltypeshp.shx
  4

  0
STYLE
  2
ACANSTS
 70
     0
 40
1.0
 41
1.0
 50
0.0
 71
     0
 42
3.0
  3
romans.shx
  4
extfont.shx
  0
STYLE
  2
ACANSGDT
 70
     0
 40
0.0
 41
1.0
 50
0.0
 71
     0
 42
3.0
  3
amgdtans.shx
  4

  0
ENDTAB
  0
TABLE
  2
VIEW
 70
     0
  0
ENDTAB
  0
TABLE
  2
UCS
 70
     0
  0
ENDTAB
  0
TABLE
  2
APPID
 70
    31
  0
APPID
  2
ACAD
 70
     0
  0
APPID
  2
GLOBAL
 70
     0
  0
APPID
  2
DETAIL
 70
     0
  0
APPID
  2
GRPNAME
 70
     0
  0
APPID
  2
GPARA
 70
     0
  0
APPID
  2
MCAD_NO_VIS
 70
     0
  0
APPID
  2
ACAD_TEMP_GRAPHIC
 70
     0
  0
APPID
  2
ACATTRIBSERVICES
 70
     0
  0
APPID
  2
GENIUS_GENSCREG_15
 70
     0
  0
APPID
  2
GENIUS_GENODEF_13
 70
     0
  0
APPID
  2
GENIUS_GENOBJ-N-SDF_13
 70
     0
  0
APPID
  2
GENIUS_GENREC_14
 70
     0
  0
APPID
  2
GENIUS_GENOBJ-N-REC_13
 70
     0
  0
APPID
  2
GENIUS_GENDIMSH_14
 70
     0
  0
APPID
  2
GENIUS_GENOBJ-N-DIM_13
 70
     0
  0
APPID
  2
GENIUS_GENDIM_13
 70
     0
  0
APPID
  2
GENIUS_GENDTOL_13
 70
     0
  0
APPID
  2
GENIUS_GENOLIS_13
 70
     0
  0
APPID
  2
GENIUS_GENOENT_13
 70
     0
  0
APPID
  2
GENIUS_GENOBJ-F-FEM_13
 70
     0
  0
APPID
  2
GENIUS_GENOREF_13
 70
     0
  0
APPID
  2
GENIUS_GEFFEM_13
 70
     0
  0
APPID
  2
GENIUS_GEFFEMP_13
 70
     0
  0
APPID
  2
AD_DRAW
 70
     0
  0
APPID
  2
DESIGNERASSEMBLIES
 70
     0
  0
APPID
  2
ACADM_DIM_EDIT
 70
     0
  0
APPID
  2
AMDT_DM_ADJ
 70
     0
  0
APPID
  2
GENIUS_GENOBJ-N-FIL_13
 70
     0
  0
APPID
  2
HATCH_TYPE
 70
     0
  0
APPID
  2
HATCH_DISPLAY
 70
     0
  0
APPID
  2
HATCH_DISTANCE
 70
     0
  0
ENDTAB
  0
TABLE
  2
DIMSTYLE
 70
     7
  0
DIMSTYLE
  2
BIGT
 70
     0
  3

  4

  5

  6

  7

 40
1.0
 41
2.2299999999999991
 42
0.5
 43
7.0
 44
1.0
 45
0.0
 46
0.0
 47
0.0
 48
0.01
140
2.799999999999998
141
0.0
142
0.0
143
25.399999999999999
144
1.0
145
0.0
146
1.0
147
1.0
 71
     0
 72
     0
 73
     0
 74
     0
 75
     0
 76
     0
 77
     3
 78
     9
170
     0
171
     2
172
     1
173
     0
174
     1
175
     0
176
   256
177
   256
178
    40
  0
DIMSTYLE
  2
AM_ANSI
 70
     0
  3

  4
mm
  5

  6

  7

 40
1.0
 41
0.1
 42
0.05
 43
0.5
 44
0.1
 45
0.0
 46
0.0
 47
0.1
 48
0.1
140
0.12
141
0.0
142
0.0
143
25.399999999999999
144
1.0
145
0.0
146
0.71
147
0.06
 71
     0
 72
     0
 73
     1
 74
     1
 75
     0
 76
     0
 77
     0
 78
     7
170
     0
171
     2
172
     0
173
     0
174
     0
175
     0
176
   256
177
   256
178
     2
  0
DIMSTYLE
  2
AM_ANSI$3
 70
     0
  3

  4
mm
  5

  6

  7

 40
1.0
 41
0.1
 42
0.05
 43
0.5
 44
0.1
 45
0.0
 46
0.0
 47
0.1
 48
0.1
140
0.12
141
0.0
142
0.0
143
25.399999999999999
144
1.0
145
0.0
146
0.71
147
0.06
 71
     0
 72
     0
 73
     1
 74
     1
 75
     0
 76
     0
 77
     0
 78
     7
170
     0
171
     2
172
     0
173
     0
174
     0
175
     0
176
   256
177
   256
178
     2
  0
DIMSTYLE
  2
AM_ANSI$4
 70
     0
  3

  4
mm
  5

  6

  7

 40
1.0
 41
0.1
 42
0.05
 43
0.5
 44
0.1
 45
0.0
 46
0.0
 47
0.1
 48
0.1
140
0.12
141
0.0
142
0.0
143
25.399999999999999
144
1.0
145
0.0
146
0.71
147
0.06
 71
     0
 72
     0
 73
     1
 74
     1
 75
     0
 76
     0
 77
     0
 78
     7
170
     0
171
     2
172
     0
173
     0
174
     0
175
     0
176
   256
177
   256
178
     2
  0
DIMSTYLE
  2
AM_ANSI$7
 70
     0
  3

  4
mm
  5

  6

  7

 40
1.0
 41
0.1
 42
0.05
 43
0.5
 44
0.1
 45
0.0
 46
0.0
 47
0.1
 48
0.1
140
0.24
141
0.0
142
0.0
143
25.399999999999999
144
1.0
145
0.0
146
0.71
147
0.06
 71
     0
 72
     0
 73
     1
 74
     1
 75
     0
 76
     0
 77
     0
 78
     7
170
     0
171
     2
172
     0
173
     0
174
     0
175
     0
176
   256
177
   256
178
     2
  0
DIMSTYLE
  2
AM_ANSI$SF
 70
     0
  3

  4
mm
  5

  6

  7

 40
1.0
 41
0.1
 42
0.05
 43
0.5
 44
0.1
 45
0.0
 46
0.0
 47
0.1
 48
0.1
140
0.12
141
0.0
142
0.0
143
25.399999999999999
144
1.0
145
0.0
146
0.71
147
0.06
 71
     0
 72
     0
 73
     1
 74
     1
 75
     1
 76
     1
 77
     0
 78
     7
170
     0
171
     2
172
     0
173
     0
174
     0
175
     0
176
   256
177
   256
178
     2
  0
DIMSTYLE
  2
AM_ANSI$SH
 70
     0
  3

  4
mm
  5

  6
GENAXEH
  7

 40
1.0
 41
0.1
 42
0.05
 43
0.5
 44
0.1
 45
0.0
 46
0.0
 47
0.1
 48
0.1
140
0.12
141
0.0
142
0.0
143
25.399999999999999
144
1.0
145
0.0
146
0.71
147
0.06
 71
     0
 72
     0
 73
     1
 74
     1
 75
     1
 76
     1
 77
     0
 78
     7
170
     0
171
     2
172
     0
173
     1
174
     0
175
     0
176
   256
177
   256
178
     2
  0
ENDTAB
  0
ENDSEC
  0
SECTION
  2
BLOCKS
  0
BLOCK
  8
0
  2
$MODEL_SPACE
 70
     0
 10
0.0
 20
0.0
 30
0.0
  3
$MODEL_SPACE
  1

  0
ENDBLK
  5
18A3
  8
0
  0
BLOCK
 67
     1
  8
0
  2
$PAPER_SPACE
 70
     0
 10
0.0
 20
0.0
 30
0.0
  3
$PAPER_SPACE
  1

  0
ENDBLK
  5
189F
 67
     1
  8
0
  0
BLOCK
  8
0
  2
_OPEN
 70
     0
 10
0.0
 20
0.0
 30
0.0
  3
_OPEN
  1

  0
LINE
  5
595
  8
0
  6
BYBLOCK
 62
     0
 10
-1.0
 20
0.1666666666666666
 30
0.0
 11
0.0
 21
0.0
 31
0.0
  0
LINE
  5
596
  8
0
  6
BYBLOCK
 62
     0
 10
-1.0
 20
-0.1666666666666666
 30
0.0
 11
0.0
 21
0.0
 31
0.0
  0
LINE
  5
597
  8
0
  6
BYBLOCK
 62
     0
 10
0.0
 20
0.0
 30
0.0
 11
-1.0
 21
0.0
 31
0.0
  0
ENDBLK
  5
599
  8
0
  0
BLOCK
  8
0
  2
GENAXEH
 70
     0
 10
0.0
 20
0.0
 30
0.0
  3
GENAXEH
  1

  0
LINE
  5
6E8
  8
0
 10
-1.0
 20
0.0
 30
0.0
 11
1.0
 21
0.0
 31
0.0
  0
ENDBLK
  5
6EA
  8
0
  0
BLOCK
  8
0
  2
A$C29C52223
 70
     0
 10
0.0
 20
0.0
 30
0.0
  3
A$C29C52223
  1

  0
LINE
  5
1B1A
  8
247
 10
-153.012433682368
 20
-6.4760307582926764
 30
0.0
 11
-152.12306167408531
 21
-5.5866587500100131
 31
0.0
  0
LINE
  5
1B1B
  8
247
 10
-153.0489094678814
 20
-6.7711379200928787
 30
0.0
 11
-152.77790833690929
 21
-6.5001367891207984
 31
0.0
  0
LINE
  5
1B1C
  8
247
 10
-152.0989556432572
 20
-5.8211840954686691
 30
0.0
 11
-151.82795451228509
 21
-5.550182964496587
 31
0.0
  0
LINE
  5
1B1D
  8
247
 10
-153.0261761077569
 20
-7.0070359362551811
 30
0.0
 11
-152.81580773099111
 21
-6.796667559489352
 31
0.0
  0
LINE
  5
1B1E
  8
247
 10
-151.8021271738003
 20
-5.7829870022985927
 30
0.0
 11
-151.56932248630031
 21
-5.5501823147986
 31
0.0
  0
LINE
  5
1B1F
  8
247
 10
-152.96861091097699
 20
-7.208102115762034
 30
0.0
 11
-152.78377339802901
 21
-7.0232646028140406
 31
0.0
  0
LINE
  5
1B20
  8
247
 10
-151.5434957975136
 20
-5.7829870022985936
 30
0.0
 11
-151.36008735269749
 21
-5.599578557482598
 31
0.0
  0
LINE
  5
1B21
  8
247
 10
-152.88524447807379
 20
-7.3833670591456233
 30
0.0
 11
-152.71334610984869
 21
-7.2114686909205146
 31
0.0
  0
LINE
  5
1B22
  8
247
 10
-152.78022700121201
 20
-7.5369809585706182
 30
0.0
 11
-152.61438037456159
 21
-7.3711343319202127
 31
0.0
  0
LINE
  5
1B23
  8
247
 10
-152.65538807559949
 20
-7.6707734092449193
 30
0.0
 11
-152.4906048049304
 21
-7.5059901385757994
 31
0.0
  0
LINE
  5
1B24
  8
247
 10
-152.51104149717059
 20
-7.7850582071027752
 30
0.0
 11
-152.34262598740361
 21
-7.6166426973358146
 31
0.0
  0
LINE
  5
1B25
  8
247
 10
-152.34610584743641
 20
-7.8787539336554291
 30
0.0
 11
-152.16831374694229
 21
-7.7009618331613536
 31
0.0
  0
LINE
  5
1B26
  8
247
 10
-152.15766786724191
 20
-7.9489473297477486
 30
0.0
 11
-151.96132702690699
 21
-7.7526064894128579
 31
0.0
  0
LINE
  5
1B27
  8
247
 10
-151.939487390614
 20
-7.9893982294066372
 30
0.0
 11
-151.71189870378919
 21
-7.7618095425818039
 31
0.0
  0
LINE
  5
1B28
  8
247
 10
-151.6860720090109
 20
-7.994614224090296
 30
0.0
 11
-151.4532673275024
 21
-7.7618095425818039
 31
0.0
  0
LINE
  5
1B29
  8
247
 10
-151.42744063272411
 20
-7.994614224090296
 30
0.0
 11
-151.19463595121559
 21
-7.7618095425818039
 31
0.0
  0
LINE
  5
1B2A
  8
247
 10
-151.1688092564373
 20
-7.994614224090296
 30
0.0
 11
-150.9360045749288
 21
-7.7618095425818039
 31
0.0
  0
LINE
  5
1B2B
  8
247
 10
-150.9101778801506
 20
-7.9946142240903031
 30
0.0
 11
-150.67737319864199
 21
-7.761809542581811
 31
0.0
  0
LINE
  5
1B2C
  8
247
 10
-150.65154650386381
 20
-7.9946142240903031
 30
0.0
 11
-150.41874182235529
 21
-7.7618095425818039
 31
0.0
  0
LINE
  5
1B2D
  8
247
 10
-150.392915127577
 20
-7.994614224090296
 30
0.0
 11
-150.16011044606839
 21
-7.7618095425818039
 31
0.0
  0
LINE
  5
1B2E
  8
247
 10
-150.13428375129021
 20
-7.994614224090296
 30
0.0
 11
-149.90147906978169
 21
-7.7618095425818039
 31
0.0
  0
LINE
  5
1B2F
  8
247
 10
-149.8756523750034
 20
-7.994614224090296
 30
0.0
 11
-149.6428476934949
 21
-7.7618095425818039
 31
0.0
  0
LINE
  5
1B30
  8
247
 10
-149.61702099871661
 20
-7.994614224090296
 30
0.0
 11
-149.38421631720809
 21
-7.7618095425818039
 31
0.0
  0
LINE
  5
1B31
  8
247
 10
-147.36458775977511
 20
-5.742180985148817
 30
0.0
 11
-147.17483407316331
 21
-5.552427298537002
 31
0.0
  0
LINE
  5
1B32
  8
247
 10
-149.3583896224298
 20
-7.9946142240903031
 30
0.0
 11
-149.1255849409213
 21
-7.7618095425818039
 31
0.0
  0
LINE
  5
1B33
  8
247
 10
-147.1478838666456
 20
-5.7841084683061563
 30
0.0
 11
-146.9264549171333
 21
-5.5626795187938098
 31
0.0
  0
LINE
  5
1B34
  8
247
 10
-149.09975824614301
 20
-7.994614224090296
 30
0.0
 11
-148.86695356463451
 21
-7.7618095425818039
 31
0.0
  0
LINE
  5
1B35
  8
247
 10
-146.9072456326584
 20
-5.8021016106056713
 30
0.0
 11
-146.717110282779
 21
-5.6119662607263381
 31
0.0
  0
LINE
  5
1B36
  8
247
 10
-148.8411268698562
 20
-7.994614224090296
 30
0.0
 11
-148.6083221883477
 21
-7.7618095425818039
 31
0.0
  0
LINE
  5
1B37
  8
247
 10
-146.7099617149816
 20
-5.8634490692157151
 30
0.0
 11
-146.53535416741599
 21
-5.6888415216501498
 31
0.0
  0
LINE
  5
1B38
  8
247
 10
-148.58249549356941
 20
-7.9946142240903031
 30
0.0
 11
-148.34969081206091
 21
-7.7618095425817968
 31
0.0
  0
LINE
  5
1B39
  8
247
 10
-146.5430508468184
 20
-5.9551695773393094
 30
0.0
 11
-146.37609174026309
 21
-5.788210470783957
 31
0.0
  0
LINE
  5
1B3A
  8
247
 10
-148.3238641172826
 20
-7.9946142240903031
 30
0.0
 11
-148.0910594357741
 21
-7.761809542581811
 31
0.0
  0
LINE
  5
1B3B
  8
247
 10
-146.4015993365108
 20
-6.0723494433184699
 30
0.0
 11
-146.2369815381754
 21
-5.9077316449831123
 31
0.0
  0
LINE
  5
1B3C
  8
247
 10
-148.06523274099581
 20
-7.9946142240903031
 30
0.0
 11
-147.8324280594874
 21
-7.7618095425818039
 31
0.0
  0
LINE
  5
1B3D
  8
247
 10
-146.28425791069009
 20
-6.213639393784594
 30
0.0
 11
-146.11733036774069
 21
-6.0467118508351421
 31
0.0
  0
LINE
  5
1B3E
  8
247
 10
-147.80660136470911
 20
-7.994614224090296
 30
0.0
 11
-147.57379668320061
 21
-7.7618095425818039
 31
0.0
  0
LINE
  5
1B3F
  8
247
 10
-146.1923572003742
 20
-6.380370059755438
 30
0.0
 11
-146.0178220026327
 21
-6.2058348620139991
 31
0.0
  0
LINE
  5
1B40
  8
247
 10
-147.5479699884223
 20
-7.994614224090296
 30
0.0
 11
-147.31516530691371
 21
-7.7618095425818039
 31
0.0
  0
LINE
  5
1B41
  8
247
 10
-146.1307791150268
 20
-6.57742335069491
 30
0.0
 11
-145.9407846366982
 21
-6.3874288723662049
 31
0.0
  0
LINE
  5
1B42
  8
247
 10
-147.28933861213551
 20
-7.9946142240903031
 30
0.0
 11
-147.0554964252008
 21
-7.7607720371556521
 31
0.0
  0
LINE
  5
1B43
  8
247
 10
-146.11241512178489
 20
-6.8176907337397203
 30
0.0
 11
-145.89128763718401
 21
-6.5965632491388222
 31
0.0
  0
LINE
  5
1B44
  8
247
 10
-147.0285715316148
 20
-7.9924785198564647
 30
0.0
 11
-146.72289135592959
 21
-7.6867983441711969
 31
0.0
  0
LINE
  5
1B45
  8
247
 10
-146.1863888147694
 20
-7.1502958030109811
 30
0.0
 11
-145.88070863908411
 21
-6.8446156273257186
 31
0.0
  0
LINE
  5
1B46
  8
247
 10
-146.70684814295061
 20
-7.9293865074790144
 30
0.0
 11
-145.94380065146149
 21
-7.1663390159899532
 31
0.0
  0
LINE
  5
1B47
  8
247
 10
-149.52432809134609
 20
-5.5742389301387227
 30
0.0
 11
-149.50027147600599
 21
-5.5501823147986
 31
0.0
  0
LINE
  5
1B48
  8
247
 10
-149.5094581478736
 20
-5.8180003629529757
 30
0.0
 11
-149.24164009971921
 21
-5.550182314798608
 31
0.0
  0
LINE
  5
1B49
  8
247
 10
-149.61343504063859
 20
-6.1806086320047093
 30
0.0
 11
-148.98300872343239
 21
-5.5501823147986
 31
0.0
  0
LINE
  5
1B4A
  8
247
 10
-149.7174119334035
 20
-6.5432169010564349
 30
0.0
 11
-148.98738454546029
 21
-5.8131895131132181
 31
0.0
  0
LINE
  5
1B4B
  8
247
 10
-149.8213888261684
 20
-6.9058251701081694
 30
0.0
 11
-149.09136001927769
 21
-6.1757963632174704
 31
0.0
  0
LINE
  5
1B4C
  8
247
 10
-149.92536571893331
 20
-7.2684334391598879
 30
0.0
 11
-149.1953354930952
 21
-6.538403213321712
 31
0.0
  0
LINE
  5
1B4D
  8
247
 10
-150.0293426116983
 20
-7.6310417082116091
 30
0.0
 11
-149.2993109669126
 21
-6.9010100634259546
 31
0.0
  0
LINE
  5
1B4E
  8
247
 10
-149.78507672603169
 20
-7.6454071988317729
 30
0.0
 11
-149.40328644073011
 21
-7.2636169135302033
 31
0.0
  0
LINE
  5
1B4F
  8
247
 10
-149.5264453497449
 20
-7.6454071988317729
 30
0.0
 11
-149.50726191454751
 21
-7.6262237636344379
 31
0.0
  0
LINE
  5
1B50
  8
247
 10
-148.93634585376191
 20
-6.2794135739884949
 30
0.0
 11
-148.21082612096211
 21
-5.5538938411886232
 31
0.0
  0
LINE
  5
1B51
  8
247
 10
-149.02220961417319
 20
-6.6239087106865551
 30
0.0
 11
-147.96748009371021
 21
-5.5691791902234904
 31
0.0
  0
LINE
  5
1B52
  8
247
 10
-149.05885634096961
 20
-6.9191868137697323
 30
0.0
 11
-148.2997575580323
 21
-6.1600880308323873
 31
0.0
  0
LINE
  5
1B53
  8
247
 10
-147.9535517494833
 20
-5.8138822222834277
 30
0.0
 11
-147.77922918600061
 21
-5.6395596588007377
 31
0.0
  0
LINE
  5
1B54
  8
247
 10
-149.01771195057319
 20
-7.1366737996601763
 30
0.0
 11
-148.4037343908571
 21
-6.5226962399440662
 31
0.0
  0
LINE
  5
1B55
  8
247
 10
-147.8050491205309
 20
-5.9240109696177861
 30
0.0
 11
-147.51938398446819
 21
-5.638345833555082
 31
0.0
  0
LINE
  5
1B56
  8
247
 10
-148.93179626921
 20
-7.3093894945836944
 30
0.0
 11
-148.50771122368201
 21
-6.8853044490557496
 31
0.0
  0
LINE
  5
1B57
  8
247
 10
-147.481619142531
 20
-5.8592123679047283
 30
0.0
 11
-147.45738054368439
 21
-5.8349737690580934
 31
0.0
  0
LINE
  5
1B58
  8
247
 10
-148.81213057551349
 20
-7.4483551771740268
 30
0.0
 11
-148.56557308328951
 21
-7.2017976849500061
 31
0.0
  0
LINE
  5
1B59
  8
247
 10
-148.05469013501309
 20
-6.6909147366735953
 30
0.0
 11
-147.8218854475131
 21
-6.4581100491735937
 31
0.0
  0
LINE
  5
1B5A
  8
247
 10
-148.66062591013051
 20
-7.5554818880778241
 30
0.0
 11
-148.45734654382841
 21
-7.352202521775669
 31
0.0
  0
LINE
  5
1B5B
  8
247
 10
-148.0026056741286
 20
-6.8974616520759211
 30
0.0
 11
-147.56325407122631
 21
-6.4581100491736034
 31
0.0
  0
LINE
  5
1B5C
  8
247
 10
-148.47263314585891
 20
-7.626120500092969
 30
0.0
 11
-148.1993166316858
 21
-7.3528039859198726
 31
0.0
  0
LINE
  5
1B5D
  8
247
 10
-148.1199222355207
 20
-7.2734095897547473
 30
0.0
 11
-147.4274811193097
 21
-6.580968473543801
 31
0.0
  0
LINE
  5
1B5E
  8
247
 10
-148.2297580800377
 20
-7.6418768105586192
 30
0.0
 11
-147.53145759870381
 21
-6.943576329224701
 31
0.0
  0
LINE
  5
1B5F
  8
247
 10
-147.8536849587731
 20
-7.5244350655807919
 30
0.0
 11
-147.63543407809789
 21
-7.3061841849056073
 31
0.0
  0
LINE
  5
1B60
  8
247
 10
-148.91196871132939
 20
-5.5501823147986027
 30
0.0
 11
-149.51742964882939
 21
-5.5501823147986027
 31
0.0
1001
HATCH_DISTANCE
1040
1.0
1001
HATCH_DISPLAY
1070
     0
1001
HATCH_TYPE
1070
     7
  0
LINE
  5
1B61
  8
247
 10
-149.51276265664191
 20
-7.6454071988317764
 30
0.0
 11
-148.91196871132939
 21
-5.5501823147986027
 31
0.0
1001
HATCH_DISTANCE
1040
1.0
1001
HATCH_DISPLAY
1070
     0
1001
HATCH_TYPE
1070
     7
  0
LINE
  5
1B62
  8
247
 10
-150.03346187539199
 20
-7.6454071988317764
 30
0.0
 11
-149.51276265664191
 21
-7.6454071988317764
 31
0.0
1001
HATCH_DISTANCE
1040
1.0
1001
HATCH_DISPLAY
1070
     0
1001
HATCH_TYPE
1070
     7
  0
LINE
  5
1B63
  8
247
 10
-149.50609175820441
 20
-5.8062604397985922
 30
0.0
 11
-150.03346187539199
 21
-7.6454071988317764
 31
0.0
1001
HATCH_DISTANCE
1040
1.0
1001
HATCH_DISPLAY
1070
     0
1001
HATCH_TYPE
1070
     7
  0
LINE
  5
1B64
  8
247
 10
-149.5908622660169
 20
-5.8062604397985922
 30
0.0
 11
-149.50609175820441
 21
-5.8062604397985922
 31
0.0
1001
HATCH_DISTANCE
1040
1.0
1001
HATCH_DISPLAY
1070
     0
1001
HATCH_TYPE
1070
     7
  0
LINE
  5
1B65
  8
247
 10
-149.51742964882939
 20
-5.5501823147986027
 30
0.0
 11
-149.5908622660169
 21
-5.8062604397985922
 31
0.0
1001
HATCH_DISTANCE
1040
1.0
1001
HATCH_DISPLAY
1070
     0
1001
HATCH_TYPE
1070
     7
  0
LINE
  5
1B66
  8
247
 10
-148.91196871132939
 20
-5.5501823147986027
 30
0.0
 11
-149.51742964882939
 21
-5.5501823147986027
 31
0.0
  0
LINE
  5
1B67
  8
247
 10
-149.51276265664191
 20
-7.6454071988317764
 30
0.0
 11
-148.91196871132939
 21
-5.5501823147986027
 31
0.0
  0
LINE
  5
1B68
  8
247
 10
-150.03346187539199
 20
-7.6454071988317764
 30
0.0
 11
-149.51276265664191
 21
-7.6454071988317764
 31
0.0
  0
LINE
  5
1B69
  8
247
 10
-149.50609175820441
 20
-5.8062604397985922
 30
0.0
 11
-150.03346187539199
 21
-7.6454071988317764
 31
0.0
  0
LINE
  5
1B6A
  8
247
 10
-149.5908622660169
 20
-5.8062604397985922
 30
0.0
 11
-149.50609175820441
 21
-5.8062604397985922
 31
0.0
  0
LINE
  5
1B6B
  8
247
 10
-149.51742964882939
 20
-5.5501823147986027
 30
0.0
 11
-149.5908622660169
 21
-5.8062604397985922
 31
0.0
  0
LINE
  5
1B6C
  8
247
 10
-147.34228609414191
 20
-5.812904971048594
 30
0.0
 11
-147.34228609414191
 21
-5.812904971048594
 31
0.0
1001
HATCH_DISTANCE
1040
1.0
1001
HATCH_DISPLAY
1070
     0
1001
HATCH_TYPE
1070
     7
  0
LINE
  5
1B6D
  8
247
 10
-147.41239644570439
 20
-5.5905680569861129
 30
0.0
 11
-147.34228609414191
 21
-5.812904971048594
 31
0.0
1001
HATCH_DISTANCE
1040
1.0
1001
HATCH_DISPLAY
1070
     0
1001
HATCH_TYPE
1070
     7
  0
LINE
  5
1B6E
  8
247
 10
-147.41239644570439
 20
-5.5905680569861129
 30
0.0
 11
-147.41239644570439
 21
-5.5905680569861129
 31
0.0
1001
HATCH_DISTANCE
1040
1.0
1001
HATCH_DISPLAY
1070
     0
1001
HATCH_TYPE
1070
     7
  0
LINE
  5
1B6F
  8
247
 10
-147.34228609414191
 20
-5.812904971048594
 30
0.0
 11
-147.41239644570439
 21
-5.5905680569861129
 31
0.0
1001
HATCH_DISTANCE
1040
1.0
1001
HATCH_DISPLAY
1070
     0
1001
HATCH_TYPE
1070
     7
  0
LINE
  5
1B70
  8
247
 10
-147.34228609414191
 20
-5.812904971048594
 30
0.0
 11
-147.34228609414191
 21
-5.812904971048594
 31
0.0
  0
LINE
  5
1B71
  8
247
 10
-147.41239644570439
 20
-5.5905680569861129
 30
0.0
 11
-147.34228609414191
 21
-5.812904971048594
 31
0.0
  0
LINE
  5
1B72
  8
247
 10
-147.41239644570439
 20
-5.5905680569861129
 30
0.0
 11
-147.41239644570439
 21
-5.5905680569861129
 31
0.0
  0
LINE
  5
1B73
  8
247
 10
-147.34228609414191
 20
-5.812904971048594
 30
0.0
 11
-147.41239644570439
 21
-5.5905680569861129
 31
0.0
  0
LINE
  5
1B74
  8
247
 10
-147.34228609414191
 20
-5.812904971048594
 30
0.0
 11
-147.34228609414191
 21
-5.812904971048594
 31
0.0
1001
HATCH_DISTANCE
1040
1.0
1001
HATCH_DISPLAY
1070
     0
1001
HATCH_TYPE
1070
     7
  0
LINE
  5
1B75
  8
247
 10
-147.41239644570439
 20
-5.5905680569861129
 30
0.0
 11
-147.34228609414191
 21
-5.812904971048594
 31
0.0
1001
HATCH_DISTANCE
1040
1.0
1001
HATCH_DISPLAY
1070
     0
1001
HATCH_TYPE
1070
     7
  0
LINE
  5
1B76
  8
247
 10
-147.41239644570439
 20
-5.5905680569861129
 30
0.0
 11
-147.41239644570439
 21
-5.5905680569861129
 31
0.0
1001
HATCH_DISTANCE
1040
1.0
1001
HATCH_DISPLAY
1070
     0
1001
HATCH_TYPE
1070
     7
  0
LINE
  5
1B77
  8
247
 10
-147.34228609414191
 20
-5.812904971048594
 30
0.0
 11
-147.41239644570439
 21
-5.5905680569861129
 31
0.0
1001
HATCH_DISTANCE
1040
1.0
1001
HATCH_DISPLAY
1070
     0
1001
HATCH_TYPE
1070
     7
  0
LINE
  5
1B78
  8
247
 10
-147.34228609414191
 20
-5.812904971048594
 30
0.0
 11
-147.34228609414191
 21
-5.812904971048594
 31
0.0
  0
LINE
  5
1B79
  8
247
 10
-147.41239644570439
 20
-5.5905680569861129
 30
0.0
 11
-147.34228609414191
 21
-5.812904971048594
 31
0.0
  0
LINE
  5
1B7A
  8
247
 10
-147.41239644570439
 20
-5.5905680569861129
 30
0.0
 11
-147.41239644570439
 21
-5.5905680569861129
 31
0.0
  0
LINE
  5
1B7B
  8
247
 10
-147.34228609414191
 20
-5.812904971048594
 30
0.0
 11
-147.41239644570439
 21
-5.5905680569861129
 31
0.0
  0
LINE
  5
1B7C
  8
240
 10
-0.0327825546264649
 20
-1.4999834820628151
 30
0.0
 11
-0.0584758818149567
 21
-1.5000002458691579
 31
0.0
  0
LINE
  5
1B7D
  8
240
 10
-0.0144094228744507
 20
-1.4999713748693451
 30
0.0
 11
-0.0327825546264649
 21
-1.4999834820628151
 31
0.0
  0
LINE
  5
1B7E
  8
240
 10
0.0
 20
-1.5000002458691579
 30
0.0
 11
-0.0144094228744507
 21
-1.4999713748693451
 31
0.0
  0
LINE
  5
1B7F
  8
241
 10
-2.4096034467220302
 20
-12.43264786899087
 30
0.0
 11
-0.7823966443538098
 21
-10.764867067336951
 31
0.0
  0
LINE
  5
1B80
  8
241
 10
-5.7639591395854941
 20
-15.81099629402158
 30
0.0
 11
-2.4096034467220302
 21
-12.43264786899087
 31
0.0
  0
LINE
  5
1B81
  8
241
 10
-8.2830749452114087
 20
-14.48377594351766
 30
0.0
 11
-6.9639608263969421
 21
-15.81099629402158
 31
0.0
  0
LINE
  5
1B82
  8
241
 10
-12.72791996598243
 20
-9.9960572692999961
 30
0.0
 11
-8.2830749452114087
 21
-14.48377594351766
 31
0.0
  0
LINE
  5
1B83
  8
241
 10
-12.72791996597379
 20
1.6799997538328451
 30
0.0
 11
-12.72791996597379
 21
9.7525697201490402
 31
0.0
  0
LINE
  5
1B84
  8
240
 10
-13.04495707154274
 20
9.7525697201490402
 30
0.0
 11
-12.72791996597379
 21
9.7525697201490402
 31
0.0
  0
LINE
  5
1B85
  8
240
 10
-13.04495707154274
 20
9.7525697201490402
 30
0.0
 11
-13.263956093788121
 21
9.7796421127488316
 31
0.0
  0
LINE
  5
1B86
  8
240
 10
-13.04495707154274
 20
-9.7525697201490118
 30
0.0
 11
-13.263956093788121
 21
-9.7796421127488031
 31
0.0
  0
LINE
  5
1B87
  8
241
 10
-12.72791996597379
 20
-9.7525697201489834
 30
0.0
 11
-12.72791996597385
 21
-1.5000002458691579
 31
0.0
  0
LINE
  5
1B88
  8
241
 10
-0.4639588296413423
 20
-8.7460186332463934
 30
0.0
 11
-0.4639588296413423
 21
-9.8388846963643743
 31
0.0
  0
LINE
  5
1B89
  8
241
 10
-6.9639608263969421
 20
-15.81099629402158
 30
0.0
 11
-5.7639591395854941
 21
-15.81099629402158
 31
0.0
  0
ARC
  5
1B8A
  8
241
 10
-2.0094669157219851
 20
-9.8233997821058381
 30
0.0
 40
1.546629270392863
 50
322.50284644828952
 51
359.42634277430489
  0
CIRCLE
  5
1B8B
  8
246
 10
-6.3639595173302146
 20
9.9170894742096038
 30
0.0
 40
4.9999982362538509
  0
LINE
  5
1B8C
  8
240
 10
-13.04495707154274
 20
-9.7525697201490118
 30
0.0
 11
-12.72791996598243
 21
-9.7525697201490118
 31
0.0
  0
ARC
  5
1B8D
  8
241
 10
-5.7397082198237381
 20
3.753125017788248
 30
0.0
 40
0.2
 50
270.0
 51
314.99992914033351
1001
GENIUS_GENOREF_13
1005
1C02
1001
GENIUS_GENOBJ-N-FIL_13
1002
{
1000
OWNER
1000
GEN
1002
}
1001
GENIUS_GENODEF_13
1002
{
1000
HIER
1070
     0
1002
}
1002
{
1000
MANEDIT
1070
     0
1002
}
1002
{
1000
NOSEL
1070
     0
1002
}
1002
{
1000
BEHIND
1070
     0
1002
}
1002
{
1000
OTHER
1070
     0
1002
}
1002
{
1000
REACTOR
1002
}
  0
ARC
  5
1B8E
  8
241
 10
-6.988219429019237
 20
3.753125017788248
 30
0.0
 40
0.2
 50
225.00002149718449
 51
270.0
1001
GENIUS_GENOREF_13
1005
1C02
1001
GENIUS_GENODEF_13
1002
{
1000
HIER
1070
     0
1002
}
1002
{
1000
MANEDIT
1070
     0
1002
}
1002
{
1000
NOSEL
1070
     0
1002
}
1002
{
1000
BEHIND
1070
     0
1002
}
1002
{
1000
OTHER
1070
     0
1002
}
1002
{
1000
REACTOR
1002
}
1001
GENIUS_GENOBJ-N-FIL_13
1002
{
1000
OWNER
1000
GEN
1002
}
  0
LINE
  5
1B8F
  8
241
 10
-5.7397082198237381
 20
3.5531250177882598
 30
0.0
 11
-6.988219429019237
 21
3.5531250177882598
 31
0.0
1001
GENIUS_GENOREF_13
1005
1C02
  0
ARC
  5
1B90
  8
240
 10
-5.7393677183908931
 20
16.081875242984321
 30
0.0
 40
0.1991832256726919
 50
44.938866393568787
 51
89.395156653489977
  0
ARC
  5
1B91
  8
240
 10
-6.9883683788393682
 20
16.081495513786191
 30
0.0
 40
0.1995816499550404
 50
90.990018188109417
 51
135.02125270901749
1001
GENIUS_GENOREF_13
1005
1C02
  0
LINE
  5
1B92
  8
240
 10
-5.7392492890357971
 20
16.281047370284782
 30
0.0
 11
-6.9886669516563398
 21
16.281047370284782
 31
0.0
  0
ARC
  5
1B93
  8
240
 10
-0.1995838307872191
 20
10.54147698460234
 30
0.0
 40
0.1996179589998855
 50
0.0912279008919384
 51
45.017558724569852
  0
LINE
  5
1B94
  8
240
 10
0.0
 20
9.2923775664530694
 30
0.0
 11
0.0
 21
10.54179482161998
 31
0.0
  0
ARC
  5
1B95
  8
240
 10
-0.1991585199414203
 20
9.2924888407915205
 30
0.0
 40
0.1991712645374947
 50
314.93790543223162
 51
359.96798960781382
  0
LINE
  5
1B96
  8
241
 10
-0.4639588296413423
 20
8.74601899591039
 30
0.0
 11
-5.5982870384872268
 21
3.611703486650383
 31
0.0
  0
LINE
  5
1B97
  8
240
 10
-0.0584758818149567
 20
9.1515009407885355
 30
0.0
 11
-0.4639588296482772
 21
8.7460189959073205
 31
0.0
  0
ARC
  5
1B98
  8
240
 10
-14.092386541599289
 20
11.59999995729912
 30
0.0
 40
2.0
 50
270.0
 51
294.46990511414867
  0
LINE
  5
1B99
  8
240
 10
-12.72791996598243
 20
10.54179482161998
 30
0.0
 11
-12.72791996597379
 21
9.7525697201490402
 31
0.0
  0
ARC
  5
1B9A
  8
240
 10
-12.52873777855865
 20
10.54167461473935
 30
0.0
 40
0.199192989478783
 50
134.94053032615801
 51
179.96542374626159
  0
ARC
  5
1B9B
  8
241
 10
-12.52837750310357
 20
9.2926727961659026
 30
0.0
 40
0.1995714096088116
 50
180.0847587474241
 51
225.02174946775429
  0
LINE
  5
1B9C
  8
241
 10
-12.669442221522329
 20
9.1515009407885355
 30
0.0
 11
-7.1296407321956963
 21
3.6117036084901311
 31
0.0
  0
LINE
  5
1B9D
  8
240
 10
-0.3904542818604
 20
1.6799997538796561
 30
0.0
 11
-0.1179836690425873
 21
-0.539078377187252
 31
0.0
  0
LINE
  5
1B9E
  8
240
 10
-0.0584758818149567
 20
-1.5000002458691579
 30
0.0
 11
-0.4639588296413423
 21
-1.5000002458691579
 31
0.0
  0
LINE
  5
1B9F
  8
240
 10
-0.1179836690425873
 20
-0.539078377187252
 30
0.0
 11
0.0
 21
-1.5000002458691579
 31
0.0
  0
LINE
  5
1BA0
  8
240
 10
-0.4639588296413423
 20
1.6799997538328171
 30
0.0
 11
-0.3904542818604
 21
1.6799997538796561
 31
0.0
  0
ARC
  5
1BA1
  8
241
 10
-5.670045622740302
 20
-86.744898128812011
 30
0.0
 40
85.244928012969098
 50
89.951827063198365
 51
90.048172936801578
  0
LINE
  5
1BA2
  8
240
 10
-0.4639588296413423
 20
-5.8965999633073523
 30
0.0
 11
-0.4639588296413423
 21
-4.9636177718639081
 31
0.0
  0
LINE
  5
1BA3
  8
240
 10
-0.4639588296413423
 20
-4.9636177718639081
 30
0.0
 11
-0.4639588296413423
 21
-1.5000002458691579
 31
0.0
  0
LINE
  5
1BA4
  8
241
 10
-13.25008569547407
 20
-1.5000002458691579
 30
0.0
 11
-13.04495707154274
 21
1.6799997538328171
 31
0.0
  0
LINE
  5
1BA5
  8
241
 10
-0.4639588296398074
 20
1.6799997538328171
 30
0.0
 11
-13.04495707154274
 21
1.6799997538328171
 31
0.0
  0
LINE
  5
1BA6
  8
241
 10
-0.463958829643275
 20
-1.5000002458691579
 30
0.0
 11
-13.25008569547407
 21
-1.5000002458691579
 31
0.0
  0
LINE
  5
1BA7
  8
240
 10
-0.4639588296397507
 20
1.6799997537598861
 30
0.0
 11
-0.463958829640376
 21
8.7460189959079457
 31
0.0
  0
LINE
  5
1BA8
  8
240
 10
0.0
 20
-9.2923771589994146
 30
0.0
 11
0.0
 21
-10.541794821619961
 31
0.0
  0
ARC
  5
1BA9
  8
240
 10
-0.1995936602221491
 20
-10.541472827648789
 30
0.0
 40
0.1996284240729252
 50
314.98342803200148
 51
359.90758378391138
  0
LINE
  5
1BAA
  8
240
 10
-0.4639588296413423
 20
-8.7460186332463934
 30
0.0
 11
-0.0584758818149567
 21
-9.1515015810727753
 31
0.0
  0
ARC
  5
1BAB
  8
240
 10
-0.1991548142603392
 20
-9.2924876560175846
 30
0.0
 40
0.1991673551622426
 50
0.0317874036709239
 51
45.062478339484649
  0
ARC
  5
1BAC
  8
240
 10
-5.739365874769021
 20
-16.081885208096789
 30
0.0
 40
0.1991745529407189
 50
270.62698006328918
 51
315.06288298797551
  0
LINE
  5
1BAD
  8
240
 10
-0.0584758818149567
 20
-10.68267226219174
 30
0.0
 11
-5.5983737111091614
 21
-16.2225682288408
 31
0.0
  0
ARC
  5
1BAE
  8
240
 10
-14.092386541599289
 20
-11.600000042700881
 30
0.0
 40
2.0000000000000022
 50
65.530094885847632
 51
90.0
  0
ARC
  5
1BAF
  8
240
 10
-12.52873130158264
 20
-10.541673182795501
 30
0.0
 40
0.1991991550706508
 50
180.0349870545123
 51
225.05860748629519
  0
LINE
  5
1BB0
  8
240
 10
-12.72791996598243
 20
-10.541794821619961
 30
0.0
 11
-12.72791996598243
 21
-9.7525697201490118
 31
0.0
  0
ARC
  5
1BB1
  8
240
 10
-6.9883724978143951
 20
-16.081506147562521
 30
0.0
 40
0.1995708908049547
 50
224.9773290642064
 51
269.01982468669041
  0
LINE
  5
1BB2
  8
240
 10
-7.1295462548732731
 20
-16.2225682288408
 30
0.0
 11
-12.669442221522329
 21
-10.68267226219174
 31
0.0
  0
LINE
  5
1BB3
  8
240
 10
-5.7392492890357971
 20
-16.281047835946051
 30
0.0
 11
-6.9886669516563398
 21
-16.281047835946051
 31
0.0
  0
LINE
  5
1BB4
  8
240
 10
-0.4639588296413423
 20
-5.8965999633073523
 30
0.0
 11
-0.4639588296411148
 21
-8.7460186332410501
 31
0.0
  0
ARC
  5
1BB5
  8
240
 10
-80.156852635666553
 20
10.09999995729912
 30
0.0
 40
0.500000000000004
 50
224.9999999999954
 51
270.0
  0
LINE
  5
1BB6
  8
240
 10
-80.51040556281805
 20
9.746446565259248
 30
0.0
 11
-80.763959065079675
 21
9.999999956562533
 31
0.0
  0
LINE
  5
1BB7
  8
241
 10
-80.763959065079675
 20
0.0
 30
0.0
 11
-80.763959065079675
 21
9.999999956562533
 31
0.0
  0
ARC
  5
1BB8
  8
240
 10
-80.156852635666553
 20
-10.100000042700881
 30
0.0
 40
0.5000000000000241
 50
90.0
 51
135.0000000000046
  0
LINE
  5
1BB9
  8
240
 10
-80.763959065079675
 20
-9.9999997764825501
 30
0.0
 11
-80.51040556281805
 21
-9.7464472055434879
 31
0.0
  0
LINE
  5
1BBA
  8
241
 10
-80.156852230429635
 20
9.5999999612104165
 30
0.0
 11
-80.156852230429635
 21
-9.6000004559755041
 31
0.0
  0
LINE
  5
1BBB
  8
241
 10
-80.763959065079675
 20
-9.9999997764825501
 30
0.0
 11
-80.763959065079675
 21
0.0
 31
0.0
  0
LINE
  5
1BBC
  8
240
 10
-80.156852230429635
 20
-9.6000004559755041
 30
0.0
 11
-14.092385768890381
 21
-9.6000004559755041
 31
0.0
  0
LINE
  5
1BBD
  8
240
 10
-14.092385768890381
 20
9.5999999612104165
 30
0.0
 11
-80.156852230429635
 21
9.5999999612104165
 31
0.0
  0
LINE
  5
1BBE
  8
240
 10
-158.3639594912529
 20
-9.9999997764825501
 30
0.0
 11
-80.763959065079675
 21
-9.9999997764825501
 31
0.0
  0
LINE
  5
1BBF
  8
240
 10
-80.763959065079675
 20
9.999999956562533
 30
0.0
 11
-158.3639594912529
 21
9.999999956562533
 31
0.0
  0
LINE
  5
1BC0
  8
240
 10
-7.1295462548732731
 20
16.222568694502112
 30
0.0
 11
-12.669442221522329
 21
10.68267144728452
 31
0.0
  0
LINE
  5
1BC1
  8
240
 10
-0.0584758818149567
 20
10.68267144728452
 30
0.0
 11
-5.5983737111091614
 21
16.222568694502112
 31
0.0
  0
LINE
  5
1BC2
  8
240
 10
-160.363956093788
 20
-7.9999994486570056
 30
0.0
 11
-160.363956093788
 21
0.0
 31
0.0
  0
LINE
  5
1BC3
  8
240
 10
-160.363956093788
 20
0.0
 30
0.0
 11
-160.363956093788
 21
7.9999999143183231
 31
0.0
  0
LINE
  5
1BC4
  8
245
 10
-164.10950512181071
 20
0.0
 30
0.0
 11
3.3927216673024518
 21
0.0
 31
0.0
  0
ARC
  5
1BC5
  8
240
 10
-158.36395941685311
 20
-8.0000000427008615
 30
0.0
 40
2.0
 50
180.0
 51
270.0
  0
ARC
  5
1BC6
  8
240
 10
-158.36395941685311
 20
7.9999999572991101
 30
0.0
 40
2.0
 50
90.0
 51
180.0
  0
ARC
  5
1BC7
  8
247
 10
-148.1359648050794
 20
-6.3067887601110879
 30
0.0
 40
0.7566075439453125
 50
53.444012197057567
 51
164.00018438768521
  0
LINE
  5
1BC8
  8
247
 10
-148.5628232035169
 20
-7.0775016507361102
 30
0.0
 11
-148.24907125039189
 21
-5.9833248929236031
 31
0.0
  0
ARC
  5
1BC9
  8
247
 10
-148.32784761757941
 20
-7.1448786038611161
 30
0.0
 40
0.2444446334838867
 50
164.00027305718251
 51
344.0002730571826
  0
ARC
  5
1BCA
  8
247
 10
-147.06582613320441
 20
-6.928579775736095
 30
0.0
 40
1.9799648437499999
 50
155.2051773698403
 51
172.79482596205219
  0
ARC
  5
1BCB
  8
247
 10
-147.10078902382941
 20
-6.7723981351111027
 30
0.0
 40
0.9894138793945311
 50
110.8721834020737
 51
132.54194893738691
  0
ARC
  5
1BCC
  8
247
 10
-148.0140956644544
 20
-6.0507106351111011
 30
0.0
 40
0.2444448051452637
 50
1.7101213820627561
 51
163.99839835444709
  0
ARC
  5
1BCD
  8
247
 10
-147.10078902382941
 20
-6.7723981351111027
 30
0.0
 40
1.222216369628905
 50
110.22964506332001
 51
118.57168892371671
  0
LINE
  5
1BCE
  8
247
 10
-147.45330074257939
 20
-5.8479118069861027
 30
0.0
 11
-147.52341109414189
 21
-5.6255748929235647
 31
0.0
  0
LINE
  5
1BCF
  8
247
 10
-147.34228609414191
 20
-5.812904971048594
 30
0.0
 11
-147.41239644570439
 21
-5.5905680569861129
 31
0.0
  0
LINE
  5
1BD0
  8
247
 10
-147.7327050394544
 20
-7.6454071988317764
 30
0.0
 11
-147.39225191445439
 21
-6.4581100491735981
 31
0.0
  0
LINE
  5
1BD1
  8
247
 10
-148.07037203164191
 20
-6.4581100491735981
 30
0.0
 11
-147.39225191445439
 21
-6.4581100491735981
 31
0.0
  0
LINE
  5
1BD2
  8
247
 10
-148.13712496132939
 20
-6.690914736673589
 30
0.0
 11
-148.07037203164191
 21
-6.4581100491735981
 31
0.0
  0
LINE
  5
1BD3
  8
247
 10
-147.86926949257941
 20
-7.5088515347693203
 30
0.0
 11
-147.7327050394544
 21
-7.6454071988317764
 31
0.0
  0
LINE
  5
1BD4
  8
247
 10
-148.13712496132939
 20
-6.690914736673589
 30
0.0
 11
-147.94337886757941
 21
-6.690914736673589
 31
0.0
  0
LINE
  5
1BD5
  8
247
 10
-148.09287203164189
 20
-7.2122555569860918
 30
0.0
 11
-147.94337886757941
 21
-6.690914736673589
 31
0.0
  0
ARC
  5
1BD6
  8
247
 10
-147.10078902382941
 20
-6.7723981351111027
 30
0.0
 40
0.9894111328124999
 50
270.0
 51
104.12743649641099
  0
ARC
  5
1BD7
  8
247
 10
-147.10078902382941
 20
-6.7723981351111027
 30
0.0
 40
1.2222158203124971
 50
270.0
 51
104.77079396609319
  0
LINE
  5
1BD8
  8
247
 10
-151.7045351175793
 20
-7.6454071988317764
 30
0.0
 11
-151.17049410195469
 21
-5.7829870022993362
 31
0.0
  0
LINE
  5
1BD9
  8
247
 10
-151.43644290046771
 20
-6.7104596103999068
 30
0.0
 11
-150.62152982356321
 21
-5.8955465334954331
 31
0.0
  0
ARC
  5
1BDA
  8
247
 10
-150.73114644570441
 20
-6.1089118069861241
 30
0.0
 40
0.349197280883789
 50
261.6626016879294
 51
66.338155095189762
  0
LINE
  5
1BDB
  8
247
 10
-150.59099940526821
 20
-5.7890719282443106
 30
0.0
 11
-150.78178022947159
 21
-6.4544186244558528
 31
0.0
  0
LINE
  5
1BDC
  8
247
 10
-150.03346187539191
 20
-7.6454071988317764
 30
0.0
 11
-149.50609175820441
 21
-5.8062604397985922
 31
0.0
  0
LINE
  5
1BDD
  8
247
 10
-150.74729415668941
 20
-6.7972049954820459
 30
0.0
 11
-149.91420753325281
 21
-5.9641183720454194
 31
0.0
  0
LINE
  5
1BDE
  8
247
 10
-151.33246674301969
 20
-6.3478520766652178
 30
0.0
 11
-150.53479698115319
 21
-5.550182314798688
 31
0.0
  0
ARC
  5
1BDF
  8
247
 10
-150.47142085976679
 20
-6.1321852444860898
 30
0.0
 40
0.5820078735351563
 50
287.66957754739889
 51
90.236159842671583
  0
LINE
  5
1BE0
  8
247
 10
-150.38940460887369
 20
-6.1806840713794884
 30
0.0
 11
-149.99982843922299
 21
-5.791107901728763
 31
0.0
  0
LINE
  5
1BE1
  8
247
 10
-151.22849058557179
 20
-5.9852445429304719
 30
0.0
 11
-150.79342835744001
 21
-5.5501823147986604
 31
0.0
  0
LINE
  5
1BE2
  8
247
 10
-151.8266942972669
 20
-5.7829870022985972
 30
0.0
 11
-151.4126767191419
 21
-5.7829870022985972
 31
0.0
  0
LINE
  5
1BE3
  8
247
 10
-151.2915898050797
 20
-5.7829870022985972
 30
0.0
 11
-151.17049410195469
 21
-5.7829870022993362
 31
0.0
  0
LINE
  5
1BE4
  8
247
 10
-150.41924356002281
 20
-5.9518916462419309
 30
0.0
 11
-150.12895331986181
 21
-5.6616014060807913
 31
0.0
  0
LINE
  5
1BE5
  8
247
 10
-151.8266942972669
 20
-5.5501823147986027
 30
0.0
 11
-151.34592378945439
 21
-5.5501823147986027
 31
0.0
  0
LINE
  5
1BE6
  8
247
 10
-151.22483687539179
 20
-5.5501823147986027
 30
0.0
 11
-150.473819753714
 21
-5.550182314798688
 31
0.0
  0
LINE
  5
1BE7
  8
247
 10
-151.22483687539179
 20
-5.5501823147986027
 30
0.0
 11
-151.2915898050797
 21
-5.7829870022985972
 31
0.0
  0
LINE
  5
1BE8
  8
247
 10
-151.34592378945439
 20
-5.5501823147986027
 30
0.0
 11
-151.4126767191419
 21
-5.7829870022985972
 31
0.0
  0
LINE
  5
1BE9
  8
247
 10
-151.2848644212267
 20
-5.7829870022986531
 30
0.0
 11
-151.05205973372671
 21
-5.5501823147986604
 31
0.0
  0
LINE
  5
1BEA
  8
247
 10
-150.5416115237847
 20
-5.8156282337169767
 30
0.0
 11
-150.30151361942561
 21
-5.575530329357802
 31
0.0
  0
LINE
  5
1BEB
  8
247
 10
-149.5908622660169
 20
-5.8062604397985922
 30
0.0
 11
-149.50609175820441
 21
-5.8062604397985922
 31
0.0
  0
LINE
  5
1BEC
  8
247
 10
-149.5908622660169
 20
-5.8062604397985922
 30
0.0
 11
-149.51742964882939
 21
-5.5501823147986027
 31
0.0
  0
LINE
  5
1BED
  8
247
 10
-150.65701356802879
 20
-6.9655557831082131
 30
0.0
 11
-149.8936371769135
 21
-6.2021793919928712
 31
0.0
  0
ARC
  5
1BEE
  8
247
 10
-150.73844136757941
 20
-7.0634039944861193
 30
0.0
 40
0.5820029296875
 50
270.0
 51
40.329840654167278
  0
LINE
  5
1BEF
  8
247
 10
-151.5404190579155
 20
-7.0730671441346544
 30
0.0
 11
-150.72550254904399
 21
-6.2581506352630338
 31
0.0
  0
LINE
  5
1BF0
  8
247
 10
-151.6443952153634
 20
-7.4356746778693417
 30
0.0
 11
-150.65937418131099
 21
-6.4506536438169046
 31
0.0
  0
LINE
  5
1BF1
  8
247
 10
-151.7045351175793
 20
-7.6454071988317764
 30
0.0
 11
-150.73844136757941
 21
-7.6454071988317764
 31
0.0
  0
LINE
  5
1BF2
  8
247
 10
-151.07823360746559
 20
-7.6454071988317764
 30
0.0
 11
-150.22402027765489
 21
-6.7911938690211269
 31
0.0
  0
ARC
  5
1BF3
  8
247
 10
-150.99816695351689
 20
-7.0401217679235764
 30
0.0
 40
0.3492072715759277
 50
261.66285421114799
 51
66.338192159113618
  0
LINE
  5
1BF4
  8
247
 10
-150.85801713451411
 20
-6.7202721989775682
 30
0.0
 11
-151.0488010973032
 21
-7.385638630036766
 31
0.0
  0
LINE
  5
1BF5
  8
247
 10
-150.81960223117881
 20
-7.6454071988318031
 30
0.0
 11
-150.16144257624711
 21
-6.9872475439000814
 31
0.0
  0
LINE
  5
1BF6
  8
247
 10
-151.33686498375241
 20
-7.6454071988317764
 30
0.0
 11
-151.03742627165889
 21
-7.3459684867383714
 31
0.0
  0
LINE
  5
1BF7
  8
247
 10
-151.59549636003911
 20
-7.6454071988317764
 30
0.0
 11
-150.93345547170611
 21
-6.9833663104988091
 31
0.0
  0
LINE
  5
1BF8
  8
247
 10
-150.51733497072269
 20
-7.6017713146624422
 30
0.0
 11
-150.20007404740309
 21
-7.2845103913428764
 31
0.0
  0
LINE
  5
1BF9
  8
247
 10
-150.03346187539191
 20
-7.6454071988317764
 30
0.0
 11
-149.51276265664191
 21
-7.6454071988317764
 31
0.0
  0
ARC
  5
1BFA
  8
247
 10
-151.8266942972669
 20
-6.7723981351110991
 30
0.0
 40
1.2222158203124971
 50
90.0
 51
270.0
  0
ARC
  5
1BFB
  8
247
 10
-151.8266942972669
 20
-6.7723981351110991
 30
0.0
 40
0.9894111328124999
 50
90.0
 51
270.0
  0
ARC
  5
1BFC
  8
247
 10
-148.30285152382939
 20
-6.8888004788610981
 30
0.0
 40
0.756615234375
 50
163.99975070172931
 51
304.96387329163002
  0
LINE
  5
1BFD
  8
247
 10
-151.8266942972669
 20
-7.7618095425818012
 30
0.0
 11
-147.10078902382941
 21
-7.7618095425818012
 31
0.0
  0
LINE
  5
1BFE
  8
247
 10
-151.8266942972669
 20
-7.9946142240902969
 30
0.0
 11
-147.10078902382941
 21
-7.9946142240902969
 31
0.0
  0
LINE
  5
1BFF
  8
247
 10
-149.51276265664191
 20
-7.6454071988317764
 30
0.0
 11
-148.91196871132939
 21
-5.5501823147986027
 31
0.0
  0
LINE
  5
1C00
  8
247
 10
-149.51742964882939
 20
-5.5501823147986027
 30
0.0
 11
-148.91196871132939
 21
-5.5501823147986027
 31
0.0
  0
TEXT
  5
1C01
  8
247
 10
-144.8496811218036
 20
-7.6978255001660596
 30
0.0
 40
2.0
  1
ST20-C2232-45B-80
 41
0.7
  7
YOKO
 11
-144.8496811218036
 21
-7.6978255001660596
 31
0.0
 73
     1
  0
POINT
  5
1C02
  8
0
 10
-339.40858315172119
 20
-226.5968078178723
 30
0.0
1001
GENIUS_GENODEF_13
1002
{
1000
HIER
1070
     1
1002
}
1002
{
1000
MANEDIT
1070
     0
1002
}
1002
{
1000
NOSEL
1070
     0
1002
}
1002
{
1000
BEHIND
1070
     0
1002
}
1002
{
1000
OTHER
1070
     0
1002
}
1002
{
1000
REACTOR
1002
}
1001
GENIUS_GENOENT_13
1002
{
1000
MYREF
1005
1C02
1002
}
1002
{
1000
GRP
1005
0
1002
}
1001
GENIUS_GENOBJ-N-FIL_13
1002
{
1000
OWNER
1000
GEN
1002
}
1001
GENIUS_GENOLIS_13
1002
{
1000
ENT
1005
1B8F
1005
1B91
1002
}
  0
ENDBLK
  5
1C04
  8
0
  0
ENDSEC
  0
SECTION
  2
ENTITIES
  0
TEXT
  5
144C
  8
241
 10
-161.0
 20
29.191755186225919
 30
0.0
 40
5.0
  1
ST20-C2232-45B-80
  7
YOKO
 11
-161.0
 21
29.191755186225919
 31
0.0
 73
     1
  0
LINE
  5
167C
  8
250
 10
-158.8639594912529
 20
-9.9999997764825501
 30
0.0
 11
-171.0
 21
-9.9999997764825501
 31
0.0
  0
LINE
  5
167D
  8
250
 10
-158.8639594912529
 20
9.999999956562533
 30
0.0
 11
-171.0
 21
9.9999999565625366
 31
0.0
  0
LINE
  5
167E
  8
250
 10
-170.0
 20
-7.7699997764825479
 30
0.0
 11
-170.0
 21
7.7699999565625344
 31
0.0
  0
LINE
  5
1682
  8
250
 10
-160.36395941685311
 20
-8.5000000427008615
 30
0.0
 11
-160.36395941685311
 21
-36.0
 31
0.0
  0
LINE
  5
1683
  8
250
 10
0.0000345041678429
 20
-11.041794821619961
 30
0.0
 11
0.0000345041678413
 21
-36.0
 31
0.0
  0
LINE
  5
1684
  8
250
 10
-158.13395941685309
 20
-35.0
 30
0.0
 11
-2.229965495832158
 21
-35.0
 31
0.0
  0
LINE
  5
1688
  8
250
 10
-80.156852635666567
 20
-10.10000004270085
 30
0.0
 11
-80.156852635666567
 21
-29.0
 31
0.0
  0
LINE
  5
1689
  8
250
 10
0.0
 20
-11.041794821619961
 30
0.0
 11
-0.0000000000000011
 21
-29.0
 31
0.0
  0
LINE
  5
168A
  8
250
 10
-77.926852635666592
 20
-28.0
 30
0.0
 11
-2.2299999999999991
 21
-28.0
 31
0.0
  0
LINE
  5
168E
  8
250
 10
0.1241955321278283
 20
11.0
 30
0.0
 11
15.0
 21
10.99999999999998
 31
0.0
  0
LINE
  5
168F
  8
250
 10
0.1241962736836513
 20
-10.99999999999997
 30
0.0
 11
15.0
 21
-10.99999999999997
 31
0.0
  0
LINE
  5
1690
  8
250
 10
14.0
 20
8.769999999999996
 30
0.0
 11
14.0
 21
-8.7699999999999747
 31
0.0
  0
LINE
  5
1694
  8
250
 10
-4.8758049932217764
 20
16.0
 30
0.0
 11
22.000000000000011
 21
15.99999999999998
 31
0.0
  0
LINE
  5
1695
  8
250
 10
-4.8758054074356201
 20
-16.0
 30
0.0
 11
22.0
 21
-16.0
 31
0.0
  0
LINE
  5
1696
  8
250
 10
21.0
 20
13.769999999999991
 30
0.0
 11
21.0
 21
-13.77
 31
0.0
  0
LINE
  5
169A
  8
250
 10
0.0
 20
11.124195571613621
 30
0.0
 11
0.0000000000000036
 21
22.262011456391608
 31
0.0
  0
LINE
  5
169B
  8
250
 10
-5.9519271202763431
 20
16.576122066521471
 30
0.0
 11
-8.2291789626465981
 21
18.853373669621082
 31
0.0
  0
ARC
  5
169C
  8
250
 10
0.0000000000000004
 20
10.624195571613621
 30
0.0
 40
10.637815884778
 50
102.03298711183849
 51
122.9670158981929
  0
LINE
  5
16A0
  8
250
 10
-12.85211374215856
 20
11.0
 30
0.0
 11
-18.408583151721238
 21
11.0
 31
0.0
  0
LINE
  5
16A1
  8
250
 10
-12.852114483714161
 20
-10.99999999999994
 30
0.0
 11
-18.408583151721238
 21
-10.99999999999994
 31
0.0
  0
LINE
  5
16A2
  8
250
 10
-17.408583151721238
 20
8.7699999999999978
 30
0.0
 11
-17.408583151721238
 21
-8.7699999999999427
 31
0.0
  0
TEXT
  5
16A6
  8
250
 10
-8.1118389335085581
 20
20.12730061483942
 30
0.0
 40
2.799999999999998
  1
45üï
 50
19.14441753644557
  0
LINE
  5
16A7
  8
250
 10
-5.554818537651439
 20
19.26024599100111
 30
0.0
 11
-7.5220721443122267
 21
18.14626692558236
 31
0.0
  0
LINE
  5
16A8
  8
250
 10
-6.0224470781472927
 20
19.838059103138718
 30
0.0
 11
-7.5220721443122267
 21
18.14626692558236
 31
0.0
  0
LINE
  5
16A9
  8
250
 10
-7.5220721443122267
 20
18.14626692558236
 30
0.0
 11
-5.7886328078993667
 21
19.54915254706993
 31
0.0
  0
LINE
  5
16AA
  8
250
 10
-2.256672781769598
 20
21.397894005423328
 30
0.0
 11
0.0000000000000036
 21
21.262011456391608
 31
0.0
  0
LINE
  5
16AB
  8
250
 10
-2.178760485143687
 20
20.65865512760444
 30
0.0
 11
0.0000000000000036
 21
21.262011456391608
 31
0.0
  0
LINE
  5
16AC
  8
250
 10
0.0000000000000036
 20
21.262011456391608
 30
0.0
 11
-2.2177166334566421
 21
21.028274566513879
 31
0.0
  0
TEXT
  5
16AD
  8
250
 10
20.0
 20
-4.0714285714285721
 30
0.0
 40
3.0
  1
\U+2205
 50
90.0
  0
TEXT
  5
16AE
  8
250
 10
20.0
 20
-1.357142857142859
 30
0.0
 40
3.0
  1
32
 50
90.0
  0
LINE
  5
16AF
  8
250
 10
21.371666666666648
 20
-13.77
 30
0.0
 11
21.0
 21
-16.0
 31
0.0
  0
LINE
  5
16B0
  8
250
 10
20.62833333333333
 20
-13.77
 30
0.0
 11
21.0
 21
-16.0
 31
0.0
  0
LINE
  5
16B1
  8
250
 10
21.0
 20
-16.0
 30
0.0
 11
21.0
 21
-13.77
 31
0.0
  0
LINE
  5
16B2
  8
250
 10
20.628333333333341
 20
13.769999999999991
 30
0.0
 11
21.0
 21
15.99999999999998
 31
0.0
  0
LINE
  5
16B3
  8
250
 10
21.37166666666667
 20
13.769999999999991
 30
0.0
 11
21.0
 21
15.99999999999998
 31
0.0
  0
LINE
  5
16B4
  8
250
 10
21.0
 20
15.99999999999998
 30
0.0
 11
21.0
 21
13.769999999999991
 31
0.0
  0
TEXT
  5
16B5
  8
250
 10
13.0
 20
-4.0714285714285561
 30
0.0
 40
3.0
  1
\U+2205
 50
90.0
  0
TEXT
  5
16B6
  8
250
 10
13.0
 20
-1.3571428571428421
 30
0.0
 40
3.0
  1
22
 50
90.0
  0
LINE
  5
16B7
  8
250
 10
14.371666666666661
 20
-8.7699999999999747
 30
0.0
 11
14.0
 21
-10.99999999999997
 31
0.0
  0
LINE
  5
16B8
  8
250
 10
13.62833333333333
 20
-8.7699999999999747
 30
0.0
 11
14.0
 21
-10.99999999999997
 31
0.0
  0
LINE
  5
16B9
  8
250
 10
14.0
 20
-10.99999999999997
 30
0.0
 11
14.0
 21
-8.7699999999999747
 31
0.0
  0
LINE
  5
16BA
  8
250
 10
13.62833333333333
 20
8.769999999999996
 30
0.0
 11
14.0
 21
10.99999999999998
 31
0.0
  0
LINE
  5
16BB
  8
250
 10
14.37166666666667
 20
8.769999999999996
 30
0.0
 11
14.0
 21
10.99999999999998
 31
0.0
  0
LINE
  5
16BC
  8
250
 10
14.0
 20
10.99999999999998
 30
0.0
 11
14.0
 21
8.769999999999996
 31
0.0
  0
TEXT
  5
16BD
  8
250
 10
-42.889444545133692
 20
-27.0
 30
0.0
 40
3.0
  1
80
  0
LINE
  5
16BE
  8
250
 10
-2.2299999999999991
 20
-27.62833333333333
 30
0.0
 11
-0.0000000000000011
 21
-28.0
 31
0.0
  0
LINE
  5
16BF
  8
250
 10
-2.2299999999999991
 20
-28.371666666666659
 30
0.0
 11
-0.0000000000000011
 21
-28.0
 31
0.0
  0
LINE
  5
16C0
  8
250
 10
-0.0000000000000011
 20
-28.0
 30
0.0
 11
-2.2299999999999991
 21
-28.0
 31
0.0
  0
LINE
  5
16C1
  8
250
 10
-77.926852635666592
 20
-28.371666666666659
 30
0.0
 11
-80.156852635666567
 21
-28.0
 31
0.0
  0
LINE
  5
16C2
  8
250
 10
-77.926852635666592
 20
-27.62833333333333
 30
0.0
 11
-80.156852635666567
 21
-28.0
 31
0.0
  0
LINE
  5
16C3
  8
250
 10
-80.156852635666567
 20
-28.0
 30
0.0
 11
-77.926852635666592
 21
-28.0
 31
0.0
  0
TEXT
  5
16C4
  8
250
 10
-84.700173163204283
 20
-34.000000000000007
 30
0.0
 40
3.0
  1
160
  0
LINE
  5
16C5
  8
250
 10
-2.229965495832158
 20
-34.62833333333333
 30
0.0
 11
0.0000345041678414
 21
-35.0
 31
0.0
  0
LINE
  5
16C6
  8
250
 10
-2.229965495832158
 20
-35.37166666666667
 30
0.0
 11
0.0000345041678414
 21
-35.0
 31
0.0
  0
LINE
  5
16C7
  8
250
 10
0.0000345041678414
 20
-35.0
 30
0.0
 11
-2.229965495832158
 21
-35.0
 31
0.0
  0
LINE
  5
16C8
  8
250
 10
-158.13395941685309
 20
-35.37166666666667
 30
0.0
 11
-160.36395941685311
 21
-35.0
 31
0.0
  0
LINE
  5
16C9
  8
250
 10
-158.13395941685309
 20
-34.62833333333333
 30
0.0
 11
-160.36395941685311
 21
-35.0
 31
0.0
  0
LINE
  5
16CA
  8
250
 10
-160.36395941685311
 20
-35.0
 30
0.0
 11
-158.13395941685309
 21
-35.0
 31
0.0
  0
TEXT
  5
16CB
  8
250
 10
-171.0
 20
-4.071428481388601
 30
0.0
 40
3.0
  1
\U+2205
 50
90.0
  0
TEXT
  5
16CC
  8
250
 10
-171.0
 20
-1.3571427671028871
 30
0.0
 40
3.0
  1
20
 50
90.0
  0
LINE
  5
16CD
  8
250
 10
-170.37166666666661
 20
7.7699999565625362
 30
0.0
 11
-170.0
 21
9.9999999565625366
 31
0.0
  0
LINE
  5
16CE
  8
250
 10
-169.6283333333333
 20
7.7699999565625362
 30
0.0
 11
-170.0
 21
9.9999999565625366
 31
0.0
  0
LINE
  5
16CF
  8
250
 10
-170.0
 20
9.9999999565625366
 30
0.0
 11
-170.0
 21
7.7699999565625362
 31
0.0
  0
LINE
  5
16D0
  8
250
 10
-169.6283333333333
 20
-7.769999776482547
 30
0.0
 11
-170.0
 21
-9.9999997764825501
 31
0.0
  0
LINE
  5
16D1
  8
250
 10
-170.37166666666661
 20
-7.769999776482547
 30
0.0
 11
-170.0
 21
-9.9999997764825501
 31
0.0
  0
LINE
  5
16D2
  8
250
 10
-170.0
 20
-9.9999997764825501
 30
0.0
 11
-170.0
 21
-7.769999776482547
 31
0.0
  0
TEXT
  5
16D3
  8
250
 10
-18.408583151721238
 20
-4.0714285714285454
 30
0.0
 40
3.0
  1
\U+2205
 50
90.0
  0
TEXT
  5
16D4
  8
250
 10
-18.408583151721238
 20
-1.357142857142831
 30
0.0
 40
3.0
  1
22
 50
90.0
  0
LINE
  5
16D5
  8
250
 10
-17.036916485054579
 20
-8.7699999999999427
 30
0.0
 11
-17.408583151721238
 21
-10.99999999999994
 31
0.0
  0
LINE
  5
16D6
  8
250
 10
-17.780249818387912
 20
-8.7699999999999427
 30
0.0
 11
-17.408583151721238
 21
-10.99999999999994
 31
0.0
  0
LINE
  5
16D7
  8
250
 10
-17.408583151721238
 20
-10.99999999999994
 30
0.0
 11
-17.408583151721238
 21
-8.7699999999999427
 31
0.0
  0
LINE
  5
16D8
  8
250
 10
-17.780249818387901
 20
8.7699999999999978
 30
0.0
 11
-17.408583151721238
 21
11.0
 31
0.0
  0
LINE
  5
16D9
  8
250
 10
-17.036916485054569
 20
8.7699999999999978
 30
0.0
 11
-17.408583151721238
 21
11.0
 31
0.0
  0
LINE
  5
16DA
  8
250
 10
-17.408583151721238
 20
11.0
 30
0.0
 11
-17.408583151721238
 21
8.7699999999999978
 31
0.0
  0
INSERT
  5
1C06
  8
240
  2
A$C29C52223
 10
0.0
 20
0.0
 30
0.0
  0
VIEWPORT
  5
22
 67
     1
  8
0
 10
261.51769911504419
 20
148.5
 30
0.0
 40
523.0353982300885
 41
297.0
 68
     1
 69
     1
1001
ACAD
1000
MVIEW
1002
{
1070
    16
1010
0.0
1020
0.0
1030
0.0
1010
0.0
1020
0.0
1030
1.0
1040
0.0
1040
297.0
1040
261.51769911504419
1040
148.5
1040
50.0
1040
0.0
1040
0.0
1070
     0
1070
   100
1070
     1
1070
     1
1070
     0
1070
     0
1070
     0
1070
     0
1040
0.0
1040
0.0
1040
0.0
1040
1.0
1040
1.0
1040
10.0
1040
10.0
1070
     0
1002
{
1002
}
1002
}
1001
GENIUS_GENODEF_13
1002
{
1000
HIER
1070
     0
1002
}
1002
{
1000
MANEDIT
1070
     0
1002
}
1002
{
1000
NOSEL
1070
     0
1002
}
1002
{
1000
BEHIND
1070
     0
1002
}
1002
{
1000
OTHER
1070
     0
1002
}
1002
{
1000
REACTOR
1002
}
1001
GENIUS_GENOBJ-N-SDF_13
1002
{
1000
OWNER
1000
GEN
1002
}
1001
GENIUS_GENSCREG_15
1000
PF
1040
1.0
1000
DF
1040
1.0
1000
MIN
1011
0.0
1021
0.0
1031
0.0
1021
0.0
1031
0.0
1000
MAX
1011
523.0353982300885
1021
0.0
1031
0.0
1021
297.0
1031
0.0
1000
FLAGS
1070
     2
  0
ENDSEC
  0
EOF
