  0
SECTION
  2
HEADER
  9
$ACADVER
  1
AC1009
  9
$INSBASE
 10
0.0
 20
0.0
 30
0.0
  9
$EXTMIN
 10
-144.00892586774299
 20
-36.007232218989202
 30
-0.0015258207003583
  9
$EXTMAX
 10
22.015777959273919
 20
32.197265906954733
 30
0.0000000349246037
  9
$LIMMIN
 10
0.0
 20
0.0
  9
$LIMMAX
 10
297.0
 20
210.0
  9
$ORTHOMODE
 70
     1
  9
$REGENMODE
 70
     1
  9
$FILLMODE
 70
     1
  9
$QTEXTMODE
 70
     0
  9
$MIRRTEXT
 70
     1
  9
$DRAGMODE
 70
     2
  9
$LTSCALE
 40
10.0
  9
$OSMODE
 70
  2597
  9
$ATTMODE
 70
     1
  9
$TEXTSIZE
 40
3.0
  9
$TRACEWID
 40
1.0
  9
$TEXTSTYLE
  7
YOKO
  9
$CLAYER
  8
240
  9
$CELTYPE
  6
BYLAYER
  9
$CECOLOR
 62
   256
  9
$DIMSCALE
 40
1.0
  9
$DIMASZ
 40
2.2299999999999991
  9
$DIMEXO
 40
0.5
  9
$DIMDLI
 40
7.0
  9
$DIMRND
 40
0.0
  9
$DIMDLE
 40
0.0
  9
$DIMEXE
 40
1.0
  9
$DIMTP
 40
0.0
  9
$DIMTM
 40
0.01
  9
$DIMTXT
 40
2.7999999999999989
  9
$DIMCEN
 40
0.0
  9
$DIMTSZ
 40
0.0
  9
$DIMTOL
 70
     0
  9
$DIMLIM
 70
     0
  9
$DIMTIH
 70
     0
  9
$DIMTOH
 70
     0
  9
$DIMSE1
 70
     0
  9
$DIMSE2
 70
     0
  9
$DIMTAD
 70
     3
  9
$DIMZIN
 70
     9
  9
$DIMBLK
  1
OPEN
  9
$DIMASO
 70
     1
  9
$DIMSHO
 70
     1
  9
$DIMPOST
  1

  9
$DIMAPOST
  1

  9
$DIMALT
 70
     0
  9
$DIMALTD
 70
     2
  9
$DIMALTF
 40
25.399999999999999
  9
$DIMLFAC
 40
1.0
  9
$DIMTOFL
 70
     1
  9
$DIMTVP
 40
0.0
  9
$DIMTIX
 70
     1
  9
$DIMSOXD
 70
     0
  9
$DIMSAH
 70
     0
  9
$DIMBLK1
  1

  9
$DIMBLK2
  1

  9
$DIMSTYLE
  2
BIGT
  9
$DIMCLRD
 70
   256
  9
$DIMCLRE
 70
   256
  9
$DIMCLRT
 70
    40
  9
$DIMTFAC
 40
1.0
  9
$DIMGAP
 40
1.0
  9
$LUNITS
 70
     2
  9
$LUPREC
 70
     3
  9
$SKETCHINC
 40
1.0
  9
$FILLETRAD
 40
0.0
  9
$AUNITS
 70
     0
  9
$AUPREC
 70
     3
  9
$MENU
  1
.
  9
$ELEVATION
 40
0.0
  9
$PELEVATION
 40
0.0
  9
$THICKNESS
 40
0.0
  9
$LIMCHECK
 70
     0
  9
$BLIPMODE
 70
     0
  9
$CHAMFERA
 40
0.25
  9
$CHAMFERB
 40
0.25
  9
$SKPOLY
 70
     0
  9
$TDCREATE
 40
2454090.355248658
  9
$TDUPDATE
 40
2454090.3763754978
  9
$TDINDWG
 40
0.0211375116
  9
$TDUSRTIMER
 40
0.0211375116
  9
$USRTIMER
 70
     1
  9
$ANGBASE
 50
0.0
  9
$ANGDIR
 70
     0
  9
$PDMODE
 70
     1
  9
$PDSIZE
 40
0.0
  9
$PLINEWID
 40
0.0
  9
$COORDS
 70
     0
  9
$SPLFRAME
 70
     0
  9
$SPLINETYPE
 70
     6
  9
$SPLINESEGS
 70
     4
  9
$ATTDIA
 70
     1
  9
$ATTREQ
 70
     1
  9
$HANDLING
 70
     1
  9
$HANDSEED
  5
1882
  9
$SURFTAB1
 70
     6
  9
$SURFTAB2
 70
     6
  9
$SURFTYPE
 70
     6
  9
$SURFU
 70
     6
  9
$SURFV
 70
     6
  9
$UCSNAME
  2

  9
$UCSORG
 10
0.0
 20
0.0
 30
0.0
  9
$UCSXDIR
 10
1.0
 20
0.0
 30
0.0
  9
$UCSYDIR
 10
0.0
 20
1.0
 30
0.0
  9
$PUCSNAME
  2

  9
$PUCSORG
 10
0.0
 20
0.0
 30
0.0
  9
$PUCSXDIR
 10
1.0
 20
0.0
 30
0.0
  9
$PUCSYDIR
 10
0.0
 20
1.0
 30
0.0
  9
$USERI1
 70
     1
  9
$USERI2
 70
     0
  9
$USERI3
 70
     0
  9
$USERI4
 70
     0
  9
$USERI5
 70
     0
  9
$USERR1
 40
0.0
  9
$USERR2
 40
0.0
  9
$USERR3
 40
0.0
  9
$USERR4
 40
0.0
  9
$USERR5
 40
0.0
  9
$WORLDVIEW
 70
     1
  9
$SHADEDGE
 70
     3
  9
$SHADEDIF
 70
    70
  9
$TILEMODE
 70
     1
  9
$MAXACTVP
 70
    16
  9
$PLIMCHECK
 70
     0
  9
$PEXTMIN
 10
1.0000000000000000E+020
 20
1.0000000000000000E+020
 30
1.0000000000000000E+020
  9
$PEXTMAX
 10
-1.0000000000000000E+020
 20
-1.0000000000000000E+020
 30
-1.0000000000000000E+020
  9
$PLIMMIN
 10
0.0
 20
0.0
  9
$PLIMMAX
 10
420.0
 20
297.0
  9
$UNITMODE
 70
     0
  9
$VISRETAIN
 70
     1
  9
$PLINEGEN
 70
     0
  9
$PSLTSCALE
 70
     1
  0
ENDSEC
  0
SECTION
  2
TABLES
  0
TABLE
  2
VPORT
 70
    18
  0
VPORT
  2
*ACTIVE
 70
     0
 10
0.0
 20
0.0
 11
1.0
 21
1.0
 12
-60.996573954234549
 22
-1.904983156017237
 13
0.0
 23
0.0
 14
7.0
 24
7.0
 15
7.0
 25
7.0
 16
0.0
 26
0.0
 36
1.0
 17
0.0
 27
0.0
 37
0.0
 40
112.7993258852939
 41
1.4791666666666661
 42
50.0
 43
0.0
 44
0.0
 50
0.0
 51
0.0
 71
     0
 72
  2000
 73
     1
 74
     0
 75
     0
 76
     0
 77
     0
 78
     0
  0
ENDTAB
  0
TABLE
  2
LTYPE
 70
    13
  0
LTYPE
  2
CONTINUOUS
 70
     0
  3
Solid line
 72
    65
 73
     0
 40
0.0
  0
LTYPE
  2
CENTER2
 70
     0
  3
___ _ ___ _ ___ _ ___ _ ___ _ ___ _ ___ _ ___ _
 72
    65
 73
     4
 40
1.125
 49
0.75
 49
-0.125
 49
0.125
 49
-0.125
  0
LTYPE
  2
HIDDEN2
 70
     0
  3
_ _ _ _ _ _ _ _ _ _ _ _ _ _ _ _ _ _ _ _ _ _ _ _
 72
    65
 73
     2
 40
0.1875
 49
0.125
 49
-0.0625
  0
LTYPE
  2
PHANTOM2
 70
     0
  3
___ _ _ ___ _ _ ___ _ _ ___ _ _ ___ _ _ ___ _ _
 72
    65
 73
     6
 40
1.25
 49
0.625
 49
-0.125
 49
0.125
 49
-0.125
 49
0.125
 49
-0.125
  0
LTYPE
  2
CENTER
 70
     0
  3
____ _ ____ _ ____ _ ____ _ ____ _ ____ _ ____ 
 72
    65
 73
     4
 40
2.0
 49
1.25
 49
-0.25
 49
0.25
 49
-0.25
  0
LTYPE
  2
AM_ISO02W050
 70
     0
  3
__ __ __ __ __ __ __ __ __ __ __ __ __ __ __
 72
    65
 73
     2
 40
7.5
 49
6.0
 49
-1.5
  0
LTYPE
  2
AMCONSTR
 70
     0
  3
_______________________
 72
    65
 73
     2
 40
9999.0
 49
9999.0
 49
0.0
  0
LTYPE
  2
ACISOWELD
 70
     0
  3
_ _ _ _ _
 72
    65
 73
     2
 40
2.0
 49
2.0
 49
-1.0
  0
LTYPE
  2
ACISOTGB
 70
     0
  3
__ . . __ . .
 72
    65
 73
     6
 40
9.0
 49
4.0
 49
-1.0
 49
1.0
 49
-1.0
 49
1.0
 49
-1.0
  0
LTYPE
  2
ACISOTGL
 70
     0
  3
_ _ _ _ _
 72
    65
 73
     2
 40
3.0
 49
2.0
 49
-1.0
  0
LTYPE
  2
ACJISTGB
 70
     0
  3
__ . . __ . .
 72
    65
 73
     6
 40
9.0
 49
4.0
 49
-1.0
 49
1.0
 49
-1.0
 49
1.0
 49
-1.0
  0
LTYPE
  2
ACJISTGL
 70
     0
  3
_ _ _ _ _
 72
    65
 73
     2
 40
3.0
 49
2.0
 49
-1.0
  0
LTYPE
  2
HIDDEN
 70
     0
  3
Hidden __ __ __ __ __ __ __ __ __ __ __ __ __ _
 72
    65
 73
     2
 40
9.5249999999999986
 49
6.3499999999999988
 49
-3.1749999999999989
  0
ENDTAB
  0
TABLE
  2
LAYER
 70
    15
  0
LAYER
  2
0
 70
     0
 62
     7
  6
CONTINUOUS
  0
LAYER
  2
DEFPOINTS
 70
     0
 62
     7
  6
CONTINUOUS
  0
LAYER
  2
245
 70
     0
 62
     2
  6
CENTER2
  0
LAYER
  2
240
 70
     0
 62
     4
  6
CONTINUOUS
  0
LAYER
  2
241
 70
     0
 62
   211
  6
CONTINUOUS
  0
LAYER
  2
246
 70
     0
 62
     3
  6
PHANTOM2
  0
LAYER
  2
247
 70
     0
 62
    60
  6
CONTINUOUS
  0
LAYER
  2
250
 70
     0
 62
     3
  6
CONTINUOUS
  0
ENDTAB
  0
TABLE
  2
STYLE
 70
     6
  0
STYLE
  2
STANDARD
 70
     0
 40
0.0
 41
1.0
 50
0.0
 71
     0
 42
3.0
  3
romans.shx
  4
extfont.shx
  0
STYLE
  2
ACISOTS
 70
     0
 40
1.0
 41
1.0
 50
0.0
 71
     0
 42
3.0
  3
amgdt.shx
  4
extfont.shx
  0
STYLE
  2
ACISOGDT
 70
     0
 40
0.0
 41
1.0
 50
0.0
 71
     0
 42
3.0
  3
amgdt.shx
  4
extfont.shx
  0
STYLE
  2
ACJISTS
 70
     0
 40
1.0
 41
1.0
 50
0.0
 71
     0
 42
3.0
  3
amgdt.shx
  4
extfont.shx
  0
STYLE
  2
ACJISGDT
 70
     0
 40
0.0
 41
1.0
 50
0.0
 71
     0
 42
3.0
  3
amgdt.shx
  4
extfont.shx
  0
STYLE
  2
YOKO
 70
     0
 40
0.0
 41
1.0
 50
0.0
 71
     0
 42
3.0
  3
romans.shx
  4
extfont.shx
  0
ENDTAB
  0
TABLE
  2
VIEW
 70
     0
  0
ENDTAB
  0
TABLE
  2
UCS
 70
     0
  0
ENDTAB
  0
TABLE
  2
APPID
 70
    31
  0
APPID
  2
ACAD
 70
     0
  0
APPID
  2
GLOBAL
 70
     0
  0
APPID
  2
DETAIL
 70
     0
  0
APPID
  2
GRPNAME
 70
     0
  0
APPID
  2
GPARA
 70
     0
  0
APPID
  2
MCAD_NO_VIS
 70
     0
  0
APPID
  2
ACAD_TEMP_GRAPHIC
 70
     0
  0
APPID
  2
ACATTRIBSERVICES
 70
     0
  0
APPID
  2
GENIUS_GENSCREG_15
 70
     0
  0
APPID
  2
GENIUS_GENODEF_13
 70
     0
  0
APPID
  2
GENIUS_GENOBJ-N-SDF_13
 70
     0
  0
APPID
  2
GENIUS_GENREC_14
 70
     0
  0
APPID
  2
GENIUS_GENOBJ-N-REC_13
 70
     0
  0
APPID
  2
GENIUS_GENDIMSH_14
 70
     0
  0
APPID
  2
GENIUS_GENOBJ-N-DIM_13
 70
     0
  0
APPID
  2
GENIUS_GENDIM_13
 70
     0
  0
APPID
  2
GENIUS_GENDTOL_13
 70
     0
  0
APPID
  2
GENIUS_GENOLIS_13
 70
     0
  0
APPID
  2
GENIUS_GENOENT_13
 70
     0
  0
APPID
  2
GENIUS_GENOBJ-F-FEM_13
 70
     0
  0
APPID
  2
GENIUS_GENOREF_13
 70
     0
  0
APPID
  2
GENIUS_GEFFEM_13
 70
     0
  0
APPID
  2
GENIUS_GEFFEMP_13
 70
     0
  0
APPID
  2
AD_DRAW
 70
     0
  0
APPID
  2
DESIGNERASSEMBLIES
 70
     0
  0
APPID
  2
ACADM_DIM_EDIT
 70
     0
  0
APPID
  2
AMDT_DM_ADJ
 70
     0
  0
APPID
  2
GENIUS_GENOBJ-N-FIL_13
 70
     0
  0
APPID
  2
HATCH_TYPE
 70
     0
  0
APPID
  2
HATCH_DISPLAY
 70
     0
  0
APPID
  2
HATCH_DISTANCE
 70
     0
  0
ENDTAB
  0
TABLE
  2
DIMSTYLE
 70
    25
  0
DIMSTYLE
  2
BIGT
 70
     0
  3

  4

  5
OPEN
  6

  7

 40
1.0
 41
2.2299999999999991
 42
0.5
 43
7.0
 44
1.0
 45
0.0
 46
0.0
 47
0.0
 48
0.01
140
2.7999999999999989
141
0.0
142
0.0
143
25.399999999999999
144
1.0
145
0.0
146
1.0
147
1.0
 71
     0
 72
     0
 73
     0
 74
     0
 75
     0
 76
     0
 77
     3
 78
     9
170
     0
171
     2
172
     1
173
     0
174
     1
175
     0
176
   256
177
   256
178
    40
  0
DIMSTYLE
  2
AM_ISO
 70
     0
  3

  4
"
  5

  6

  7

 40
1.0
 41
2.5
 42
1.0
 43
10.0
 44
1.0
 45
0.0
 46
0.0
 47
0.1
 48
0.1
140
3.5
141
0.0
142
0.0
143
0.0393701
144
1.0
145
0.0
146
0.71
147
1.5
 71
     0
 72
     0
 73
     0
 74
     0
 75
     0
 76
     0
 77
     1
 78
     8
170
     0
171
     2
172
     1
173
     0
174
     0
175
     0
176
   256
177
   256
178
     2
  0
DIMSTYLE
  2
AM_ISO$3
 70
     0
  3

  4
"
  5

  6

  7

 40
1.0
 41
2.5
 42
1.0
 43
10.0
 44
1.0
 45
0.0
 46
0.0
 47
0.1
 48
0.1
140
3.5
141
0.0
142
0.0
143
0.0393701
144
1.0
145
0.0
146
0.71
147
1.5
 71
     0
 72
     0
 73
     0
 74
     1
 75
     0
 76
     0
 77
     1
 78
     8
170
     0
171
     2
172
     0
173
     0
174
     0
175
     0
176
   256
177
   256
178
     2
  0
DIMSTYLE
  2
AM_ISO$4
 70
     0
  3

  4
"
  5

  6

  7

 40
1.0
 41
2.5
 42
1.0
 43
10.0
 44
1.0
 45
0.0
 46
0.0
 47
0.1
 48
0.1
140
3.5
141
0.0
142
0.0
143
0.0393701
144
1.0
145
0.0
146
0.71
147
1.5
 71
     0
 72
     0
 73
     0
 74
     1
 75
     0
 76
     0
 77
     1
 78
     8
170
     0
171
     2
172
     0
173
     0
174
     0
175
     0
176
   256
177
   256
178
     2
  0
DIMSTYLE
  2
AM_ISO$6
 70
     0
  3

  4
"
  5

  6

  7

 40
1.0
 41
2.5
 42
1.0
 43
10.0
 44
1.0
 45
0.0
 46
0.0
 47
0.1
 48
0.1
140
3.5
141
0.0
142
0.0
143
0.0393701
144
1.0
145
0.0
146
0.71
147
1.5
 71
     0
 72
     0
 73
     0
 74
     0
 75
     0
 76
     0
 77
     0
 78
     8
170
     0
171
     2
172
     1
173
     0
174
     0
175
     0
176
   256
177
   256
178
     2
  0
DIMSTYLE
  2
AM_ISO$7
 70
     0
  3

  4
"
  5

  6

  7

 40
1.0
 41
2.5
 42
1.0
 43
10.0
 44
1.0
 45
0.0
 46
0.0
 47
0.1
 48
0.1
140
5.0
141
0.0
142
0.0
143
0.0393701
144
1.0
145
0.0
146
0.71
147
1.5
 71
     0
 72
     0
 73
     0
 74
     0
 75
     0
 76
     0
 77
     1
 78
     8
170
     0
171
     2
172
     1
173
     0
174
     0
175
     0
176
   256
177
   256
178
     2
  0
DIMSTYLE
  2
AM_ISO$SF
 70
     0
  3

  4
"
  5

  6

  7

 40
1.0
 41
2.5
 42
1.0
 43
10.0
 44
1.0
 45
0.0
 46
0.0
 47
0.1
 48
0.1
140
3.5
141
0.0
142
0.0
143
0.0393701
144
1.0
145
0.0
146
0.71
147
1.5
 71
     0
 72
     0
 73
     0
 74
     0
 75
     1
 76
     1
 77
     1
 78
     8
170
     0
171
     2
172
     1
173
     0
174
     0
175
     0
176
   256
177
   256
178
     2
  0
DIMSTYLE
  2
AM_ISO$SH
 70
     0
  3

  4
"
  5

  6
GENAXEH
  7

 40
1.0
 41
2.5
 42
1.0
 43
10.0
 44
1.0
 45
0.0
 46
0.0
 47
0.1
 48
0.1
140
3.5
141
0.0
142
0.0
143
0.0393701
144
2.0
145
0.0
146
0.71
147
1.5
 71
     0
 72
     0
 73
     0
 74
     0
 75
     1
 76
     1
 77
     1
 78
     8
170
     0
171
     2
172
     1
173
     1
174
     0
175
     0
176
   256
177
   256
178
     2
  0
DIMSTYLE
  2
BIGT$2
 70
     0
  3

  4

  5
OPEN
  6

  7

 40
1.0
 41
2.2299999999999991
 42
0.5
 43
7.0
 44
1.0
 45
0.0
 46
0.0
 47
0.0
 48
0.01
140
2.7999999999999989
141
0.0
142
0.0
143
25.399999999999999
144
1.0
145
0.0
146
1.0
147
1.0
 71
     0
 72
     0
 73
     0
 74
     0
 75
     0
 76
     0
 77
     3
 78
     9
170
     0
171
     2
172
     1
173
     0
174
     0
175
     0
176
   256
177
   256
178
    40
  0
DIMSTYLE
  2
BIGT$3
 70
     0
  3

  4

  5
OPEN
  6

  7

 40
1.0
 41
2.2299999999999991
 42
0.5
 43
2.5
 44
1.0
 45
0.0
 46
0.0
 47
0.0
 48
0.01
140
2.7999999999999989
141
0.0
142
0.0
143
25.399999999999999
144
1.0
145
0.0
146
1.0
147
1.0
 71
     0
 72
     0
 73
     0
 74
     0
 75
     0
 76
     0
 77
     3
 78
     9
170
     0
171
     2
172
     1
173
     0
174
     0
175
     0
176
   256
177
   256
178
    40
  0
DIMSTYLE
  2
BIGT$7
 70
     0
  3

  4

  5
OPEN
  6

  7

 40
0.0
 41
2.2299999999999991
 42
0.5
 43
7.0
 44
1.0
 45
0.0
 46
0.0
 47
0.0
 48
0.01
140
2.7999999999999989
141
0.0
142
0.0
143
25.399999999999999
144
1.0
145
0.0
146
1.0
147
1.0
 71
     0
 72
     0
 73
     0
 74
     0
 75
     0
 76
     0
 77
     3
 78
     9
170
     0
171
     2
172
     0
173
     0
174
     0
175
     0
176
   256
177
   256
178
    40
  0
DIMSTYLE
  2
BIGT$6
 70
     0
  3

  4

  5
OPEN
  6

  7

 40
1.0
 41
2.2299999999999991
 42
0.5
 43
2.5
 44
1.0
 45
0.0
 46
0.0
 47
0.0
 48
0.01
140
2.7999999999999989
141
0.0
142
0.0
143
25.399999999999999
144
1.0
145
0.0
146
1.0
147
1.0
 71
     0
 72
     0
 73
     0
 74
     0
 75
     0
 76
     0
 77
     3
 78
     9
170
     0
171
     2
172
     1
173
     0
174
     0
175
     0
176
   256
177
   256
178
    40
  0
DIMSTYLE
  2
BIGT$0
 70
     0
  3

  4

  5
OPEN
  6

  7

 40
1.0
 41
2.2299999999999991
 42
0.5
 43
7.0
 44
1.0
 45
0.0
 46
0.0
 47
0.0
 48
0.01
140
2.7999999999999989
141
0.0
142
0.0
143
25.399999999999999
144
1.0
145
0.0
146
1.0
147
1.0
 71
     0
 72
     0
 73
     0
 74
     0
 75
     0
 76
     0
 77
     3
 78
     9
170
     0
171
     2
172
     1
173
     0
174
     0
175
     0
176
   256
177
   256
178
    40
  0
DIMSTYLE
  2
BIGT$4
 70
     0
  3

  4

  5
OPEN
  6

  7

 40
1.0
 41
2.2299999999999991
 42
0.5
 43
2.5
 44
1.0
 45
0.0
 46
0.0
 47
0.0
 48
0.01
140
2.7999999999999989
141
0.0
142
0.0
143
25.399999999999999
144
1.0
145
0.0
146
1.0
147
1.0
 71
     0
 72
     0
 73
     0
 74
     0
 75
     0
 76
     0
 77
     3
 78
     9
170
     0
171
     2
172
     1
173
     0
174
     0
175
     0
176
   256
177
   256
178
    40
  0
DIMSTYLE
  2
BIGT$SH
 70
     0
  3

  4

  5
OPEN
  6

  7

 40
1.0
 41
2.2299999999999991
 42
0.5
 43
7.0
 44
1.0
 45
0.0
 46
0.0
 47
0.0
 48
0.0
140
2.7999999999999989
141
0.0
142
0.0
143
25.399999999999999
144
1.0
145
0.0
146
1.0
147
1.0
 71
     0
 72
     0
 73
     0
 74
     0
 75
     0
 76
     0
 77
     3
 78
     9
170
     0
171
     2
172
     1
173
     0
174
     0
175
     0
176
   256
177
   256
178
    40
  0
DIMSTYLE
  2
BIGT$SF
 70
     0
  3

  4

  5
OPEN
  6

  7

 40
1.0
 41
2.2299999999999991
 42
0.5
 43
7.0
 44
1.0
 45
0.0
 46
0.0
 47
0.0
 48
0.0
140
2.7999999999999989
141
0.0
142
0.0
143
25.399999999999999
144
1.0
145
0.0
146
1.0
147
1.0
 71
     0
 72
     0
 73
     0
 74
     0
 75
     0
 76
     0
 77
     3
 78
     9
170
     0
171
     2
172
     1
173
     0
174
     0
175
     0
176
   256
177
   256
178
    40
  0
DIMSTYLE
  2
TECHNICAL_OSAKA
 70
     0
  3

  4
"
  5
OPEN30
  6

  7

 40
1.0
 41
2.5
 42
1.0
 43
10.0
 44
1.0
 45
0.0
 46
0.0
 47
0.1
 48
0.1
140
2.7999999999999989
141
0.0
142
0.0
143
0.0393701
144
1.0
145
0.0
146
0.71
147
1.5
 71
     0
 72
     0
 73
     0
 74
     0
 75
     0
 76
     0
 77
     3
 78
     8
170
     0
171
     2
172
     1
173
     0
174
     0
175
     0
176
   256
177
   256
178
    40
  0
DIMSTYLE
  2
TECHNICAL_OSAKA$3
 70
     0
  3

  4
"
  5
OPEN30
  6

  7

 40
1.0
 41
2.5
 42
1.0
 43
10.0
 44
1.0
 45
0.0
 46
0.0
 47
0.1
 48
0.1
140
2.7999999999999989
141
0.0
142
0.0
143
0.0393701
144
1.0
145
0.0
146
0.71
147
1.5
 71
     0
 72
     0
 73
     0
 74
     1
 75
     0
 76
     0
 77
     3
 78
     8
170
     0
171
     2
172
     0
173
     0
174
     0
175
     0
176
   256
177
   256
178
    40
  0
DIMSTYLE
  2
TECHNICAL_OSAKA$4
 70
     0
  3

  4
"
  5
OPEN30
  6

  7

 40
1.0
 41
2.5
 42
1.0
 43
10.0
 44
1.0
 45
0.0
 46
0.0
 47
0.1
 48
0.1
140
2.7999999999999989
141
0.0
142
0.0
143
0.0393701
144
1.0
145
0.0
146
0.71
147
1.5
 71
     0
 72
     0
 73
     0
 74
     1
 75
     0
 76
     0
 77
     3
 78
     8
170
     0
171
     2
172
     0
173
     0
174
     0
175
     0
176
   256
177
   256
178
    40
  0
DIMSTYLE
  2
TECHNICAL_OSAKA$6
 70
     0
  3

  4
"
  5
OPEN30
  6

  7

 40
1.0
 41
2.5
 42
1.0
 43
10.0
 44
1.0
 45
0.0
 46
0.0
 47
0.1
 48
0.1
140
2.7999999999999989
141
0.0
142
0.0
143
0.0393701
144
1.0
145
0.0
146
0.71
147
1.5
 71
     0
 72
     0
 73
     0
 74
     0
 75
     0
 76
     0
 77
     0
 78
     8
170
     0
171
     2
172
     1
173
     0
174
     0
175
     0
176
   256
177
   256
178
    40
  0
DIMSTYLE
  2
TECHNICAL_OSAKA$7
 70
     0
  3

  4
"
  5
OPEN30
  6

  7

 40
1.0
 41
2.5
 42
1.0
 43
10.0
 44
1.0
 45
0.0
 46
0.0
 47
0.1
 48
0.1
140
2.7999999999999989
141
0.0
142
0.0
143
0.0393701
144
1.0
145
0.0
146
0.71
147
1.5
 71
     0
 72
     0
 73
     0
 74
     0
 75
     0
 76
     0
 77
     3
 78
     8
170
     0
171
     2
172
     1
173
     0
174
     0
175
     0
176
   256
177
   256
178
    40
  0
DIMSTYLE
  2
TECHNICAL_OSAKA$SF
 70
     0
  3

  4
"
  5
OPEN30
  6
OPEN30
  7
OPEN30
 40
1.0
 41
2.5
 42
1.0
 43
10.0
 44
1.0
 45
0.0
 46
0.0
 47
0.1
 48
0.1
140
3.5
141
0.0
142
0.0
143
0.0393701
144
1.0
145
0.0
146
0.71
147
1.5
 71
     0
 72
     0
 73
     0
 74
     0
 75
     1
 76
     1
 77
     3
 78
     8
170
     0
171
     2
172
     1
173
     0
174
     0
175
     0
176
   256
177
   256
178
    40
  0
DIMSTYLE
  2
TECHNICAL_OSAKA$SH
 70
     0
  3

  4
"
  5
OPEN30
  6
GENAXEH
  7
OPEN30
 40
1.0
 41
2.5
 42
1.0
 43
10.0
 44
1.0
 45
0.0
 46
0.0
 47
0.1
 48
0.1
140
3.5
141
0.0
142
0.0
143
0.0393701
144
2.0
145
0.0
146
0.71
147
1.5
 71
     0
 72
     0
 73
     0
 74
     0
 75
     1
 76
     1
 77
     3
 78
     8
170
     0
171
     2
172
     1
173
     1
174
     0
175
     0
176
   256
177
   256
178
    40
  0
ENDTAB
  0
ENDSEC
  0
SECTION
  2
BLOCKS
  0
BLOCK
  8
0
  2
$MODEL_SPACE
 70
     0
 10
0.0
 20
0.0
 30
0.0
  3
$MODEL_SPACE
  1

  0
ENDBLK
  5
1C
  8
0
  0
BLOCK
 67
     1
  8
0
  2
$PAPER_SPACE
 70
     0
 10
0.0
 20
0.0
 30
0.0
  3
$PAPER_SPACE
  1

  0
ENDBLK
  5
19
 67
     1
  8
0
  0
BLOCK
  8
0
  2
_OPEN
 70
     0
 10
0.0
 20
0.0
 30
0.0
  3
_OPEN
  1

  0
LINE
  5
595
  8
0
  6
BYBLOCK
 62
     0
 10
-1.0
 20
0.1666666666666666
 30
0.0
 11
0.0
 21
0.0
 31
0.0
  0
LINE
  5
596
  8
0
  6
BYBLOCK
 62
     0
 10
-1.0
 20
-0.1666666666666666
 30
0.0
 11
0.0
 21
0.0
 31
0.0
  0
LINE
  5
597
  8
0
  6
BYBLOCK
 62
     0
 10
0.0
 20
0.0
 30
0.0
 11
-1.0
 21
0.0
 31
0.0
  0
ENDBLK
  5
599
  8
0
  0
BLOCK
  8
0
  2
GENAXEH
 70
     0
 10
0.0
 20
0.0
 30
0.0
  3
GENAXEH
  1

  0
LINE
  5
6E8
  8
0
 10
-1.0
 20
0.0
 30
0.0
 11
1.0
 21
0.0
 31
0.0
  0
ENDBLK
  5
6EA
  8
0
  0
BLOCK
  8
0
  2
_OPEN30
 70
     0
 10
0.0
 20
0.0
 30
0.0
  3
_OPEN30
  1

  0
LINE
  5
E8F
  8
0
  6
BYBLOCK
 62
     0
 10
-1.0
 20
0.26794919
 30
0.0
 11
0.0
 21
0.0
 31
0.0
  0
LINE
  5
E90
  8
0
  6
BYBLOCK
 62
     0
 10
0.0
 20
0.0
 30
0.0
 11
-1.0
 21
-0.26794919
 31
0.0
  0
LINE
  5
E91
  8
0
  6
BYBLOCK
 62
     0
 10
0.0
 20
0.0
 30
0.0
 11
-1.0
 21
0.0
 31
0.0
  0
ENDBLK
  5
E93
  8
0
  0
BLOCK
  8
0
  2
*X29
 70
     1
 10
0.0
 20
0.0
 30
0.0
  3
*X29
  1

  0
LINE
  5
16E9
  8
0
 62
     0
 10
4.2731626460786947
 20
-5.8571670211471272
 30
0.0
 11
3.510115154589633
 21
-5.094119529658065
 31
0.0
  0
LINE
  5
16EA
  8
0
 62
     0
 10
3.4940719416106631
 20
-5.336707692965879
 30
0.0
 11
3.1883917659254011
 21
-5.03102751728062
 31
0.0
  0
LINE
  5
16EB
  8
0
 62
     0
 10
4.3362546584561468
 20
-6.1788904098113662
 30
0.0
 11
4.0305744827708789
 21
-5.8732102341260974
 31
0.0
  0
LINE
  5
16EC
  8
0
 62
     0
 10
3.1614668723394019
 20
-5.2627339999814282
 30
0.0
 11
2.9403393877385029
 21
-5.0416065153805292
 31
0.0
  0
LINE
  5
16ED
  8
0
 62
     0
 10
4.3383903626899851
 20
-6.4396574903320092
 30
0.0
 11
4.1045481757553324
 21
-6.2058153033973582
 31
0.0
  0
LINE
  5
16EE
  8
0
 62
     0
 10
2.9211994892945921
 20
-5.281097993223403
 30
0.0
 11
2.7312050109658861
 21
-5.091103514894697
 31
0.0
  0
LINE
  5
16EF
  8
0
 62
     0
 10
4.338390362689978
 20
-6.6982888666187881
 30
0.0
 11
4.1055856811814859
 21
-6.4654841851102969
 31
0.0
  0
LINE
  5
16F0
  8
0
 62
     0
 10
2.7241461983551201
 20
-5.342676078570725
 30
0.0
 11
2.549611000613679
 21
-5.1681408808292844
 31
0.0
  0
LINE
  5
16F1
  8
0
 62
     0
 10
4.338390362689978
 20
-6.9569202429055821
 30
0.0
 11
4.1055856811814859
 21
-6.7241155613970891
 31
0.0
  0
LINE
  5
16F2
  8
0
 62
     0
 10
2.5574155323842751
 20
-5.4345767888866652
 30
0.0
 11
2.3904879894348241
 21
-5.2676492459372142
 31
0.0
  0
LINE
  5
16F3
  8
0
 62
     0
 10
4.3383903626899851
 20
-7.2155516191923743
 30
0.0
 11
4.1055856811814859
 21
-6.982746937683876
 31
0.0
  0
LINE
  5
16F4
  8
0
 62
     0
 10
2.4161255819181511
 20
-5.5519182147073352
 30
0.0
 11
2.2515077835827939
 21
-5.3873004163719713
 31
0.0
  0
LINE
  5
16F5
  8
0
 62
     0
 10
4.3383903626899851
 20
-7.4741829954791612
 30
0.0
 11
4.105585681181493
 21
-7.2413783139706691
 31
0.0
  0
LINE
  5
16F6
  8
0
 62
     0
 10
2.2989457159389901
 20
-5.6933697250149731
 30
0.0
 11
2.1319866093836382
 21
-5.5264106184596198
 31
0.0
  0
LINE
  5
16F7
  8
0
 62
     0
 10
4.3383903626899851
 20
-7.7328143717659659
 30
0.0
 11
4.1055856811814788
 21
-7.5000096902574631
 31
0.0
  0
LINE
  5
16F8
  8
0
 62
     0
 10
2.2072252078153962
 20
-5.8602805931781683
 30
0.0
 11
2.0326176602498318
 21
-5.6856730456126021
 31
0.0
  0
LINE
  5
16F9
  8
0
 62
     0
 10
4.338390362689978
 20
-7.9914457480527474
 30
0.0
 11
4.1055856811814859
 21
-7.758641066544258
 31
0.0
  0
LINE
  5
16FA
  8
0
 62
     0
 10
2.1458777492053529
 20
-6.0575645108549079
 30
0.0
 11
1.955742399326019
 21
-5.8674291609755747
 31
0.0
  0
LINE
  5
16FB
  8
0
 62
     0
 10
4.338390362689978
 20
-8.2500771243395334
 30
0.0
 11
4.1055856811814859
 21
-8.0172724428310431
 31
0.0
  0
LINE
  5
16FC
  8
0
 62
     0
 10
2.127884606905837
 20
-6.298202744842186
 30
0.0
 11
1.9064556573934921
 21
-6.0767737953298484
 31
0.0
  0
LINE
  5
16FD
  8
0
 62
     0
 10
4.3383903626899851
 20
-8.5087085006263337
 30
0.0
 11
4.1055856811814859
 21
-8.2759038191178362
 31
0.0
  0
LINE
  5
16FE
  8
0
 62
     0
 10
2.0859571237484991
 20
-6.5149066379716469
 30
0.0
 11
1.896203437136684
 21
-6.325152951359831
 31
0.0
  0
LINE
  5
16FF
  8
0
 62
     0
 10
4.338390362689978
 20
-8.7673398769131268
 30
0.0
 11
4.1055856811814859
 21
-8.5345351954046365
 31
0.0
  0
LINE
  5
1700
  8
0
 62
     0
 10
4.338390362689978
 20
-9.0259712531999217
 30
0.0
 11
4.1055856811814859
 21
-8.7931665716914225
 31
0.0
  0
LINE
  5
1701
  8
0
 62
     0
 10
4.338390362689978
 20
-9.2846026294867041
 30
0.0
 11
4.1055856811814859
 21
-9.0517979479782156
 31
0.0
  0
LINE
  5
1702
  8
0
 62
     0
 10
4.338390362689978
 20
-9.5432340057735008
 30
0.0
 11
4.1055856811814859
 21
-9.3104293242649998
 31
0.0
  0
LINE
  5
1703
  8
0
 62
     0
 10
4.3383903626899851
 20
-9.8018653820602903
 30
0.0
 11
4.1055856811814859
 21
-9.5690607005517911
 31
0.0
  0
LINE
  5
1704
  8
0
 62
     0
 10
4.3383903626899851
 20
-10.06049675834708
 30
0.0
 11
4.105585681181493
 21
-9.8276920768385896
 31
0.0
  0
LINE
  5
1705
  8
0
 62
     0
 10
4.338390362689978
 20
-10.31912813463388
 30
0.0
 11
4.1055856811814859
 21
-10.086323453125379
 31
0.0
  0
LINE
  5
1706
  8
0
 62
     0
 10
4.338390362689978
 20
-10.577759510920661
 30
0.0
 11
4.1055856811814859
 21
-10.34495482941217
 31
0.0
  0
LINE
  5
1707
  8
0
 62
     0
 10
4.338390362689978
 20
-10.836390887207459
 30
0.0
 11
4.1055856811814859
 21
-10.60358620569896
 31
0.0
  0
LINE
  5
1708
  8
0
 62
     0
 10
4.3331743680063184
 20
-11.08980626881058
 30
0.0
 11
4.1055856811814859
 21
-10.862217581985741
 31
0.0
  0
LINE
  5
1709
  8
0
 62
     0
 10
4.2927234683474307
 20
-11.30798674543848
 30
0.0
 11
4.0963826280125399
 21
-11.11164590510359
 31
0.0
  0
LINE
  5
170A
  8
0
 62
     0
 10
4.2225300722551111
 20
-11.496424725632959
 30
0.0
 11
4.0447379717610357
 21
-11.31863262513888
 31
0.0
  0
LINE
  5
170B
  8
0
 62
     0
 10
4.1288343457024572
 20
-11.661360375367099
 30
0.0
 11
3.9604188359354979
 21
-11.492944865600141
 31
0.0
  0
LINE
  5
170C
  8
0
 62
     0
 10
4.0145495478446014
 20
-11.80570695379603
 30
0.0
 11
3.8497662771754819
 21
-11.640923683126911
 31
0.0
  0
LINE
  5
170D
  8
0
 62
     0
 10
3.8807570971703012
 20
-11.93054587940852
 30
0.0
 11
3.7149104705198961
 21
-11.76469925275811
 31
0.0
  0
LINE
  5
170E
  8
0
 62
     0
 10
3.7271431977453049
 20
-12.03556335627032
 30
0.0
 11
3.555244829520197
 21
-11.86366498804521
 31
0.0
  0
LINE
  5
170F
  8
0
 62
     0
 10
2.1267631408982761
 20
-10.69381467571009
 30
0.0
 11
1.9433546960822801
 21
-10.51040623089408
 31
0.0
  0
LINE
  5
1710
  8
0
 62
     0
 10
3.551878254361716
 20
-12.11892978917353
 30
0.0
 11
3.367040741413724
 21
-11.93409227622552
 31
0.0
  0
LINE
  5
1711
  8
0
 62
     0
 10
2.1267631408982761
 20
-10.95244605199688
 30
0.0
 11
1.8939584533982821
 21
-10.719641364496891
 31
0.0
  0
LINE
  5
1712
  8
0
 62
     0
 10
3.3508120748548631
 20
-12.17649498595347
 30
0.0
 11
3.1404436980890349
 21
-11.96612660918764
 31
0.0
  0
LINE
  5
1713
  8
0
 62
     0
 10
2.1649602340683511
 20
-11.24927452145374
 30
0.0
 11
1.8939591030962699
 21
-10.978273390481659
 31
0.0
  0
LINE
  5
1714
  8
0
 62
     0
 10
3.1149140586925621
 20
-12.19922834607795
 30
0.0
 11
2.84391292772048
 21
-11.928227215105871
 31
0.0
  0
LINE
  5
1715
  8
0
 62
     0
 10
2.819806896892358
 20
-12.162752560564529
 30
0.0
 11
1.930434888609696
 21
-11.27338055228187
 31
0.0
  0
ENDBLK
  5
1716
  8
0
  0
BLOCK
  8
0
  2
*X30
 70
     1
 10
0.0
 20
0.0
 30
0.0
  3
*X30
  1

  0
LINE
  5
1719
  8
0
 62
     0
 10
3.9891833374314549
 20
-8.6767642279413906
 30
0.0
 11
3.9699999022341199
 21
-8.6575807927440565
 31
0.0
  0
LINE
  5
171A
  8
0
 62
     0
 10
3.9891833374314549
 20
-8.9353956042281801
 30
0.0
 11
3.6073930521298849
 21
-8.5536053189266141
 31
0.0
  0
LINE
  5
171B
  8
0
 62
     0
 10
3.9748178468112911
 20
-9.179661489894805
 30
0.0
 11
3.2447862020256362
 21
-8.4496298451091505
 31
0.0
  0
LINE
  5
171C
  8
0
 62
     0
 10
3.61220957775957
 20
-9.0756845971298841
 30
0.0
 11
2.8821793519213941
 21
-8.3456543712917011
 31
0.0
  0
LINE
  5
171D
  8
0
 62
     0
 10
3.249601308707851
 20
-8.9717077043649454
 30
0.0
 11
2.5195725018171511
 21
-8.2416788974742428
 31
0.0
  0
LINE
  5
171E
  8
0
 62
     0
 10
2.886993039656117
 20
-8.8677308116000102
 30
0.0
 11
2.1569656517129001
 21
-8.1377034236567951
 31
0.0
  0
LINE
  5
171F
  8
0
 62
     0
 10
2.5243847706043909
 20
-8.7637539188350786
 30
0.0
 11
1.8939584533982821
 21
-8.1333276016289702
 31
0.0
  0
LINE
  5
1720
  8
0
 62
     0
 10
2.1617765015526582
 20
-8.659777026070131
 30
0.0
 11
1.8939584533982901
 21
-8.3919589779157633
 31
0.0
  0
LINE
  5
1721
  8
0
 62
     0
 10
1.918015068738405
 20
-8.674646969542664
 30
0.0
 11
1.8939584533982821
 21
-8.6505903542025422
 31
0.0
  0
ENDBLK
  5
1722
  8
0
  0
BLOCK
  8
0
  2
*X31
 70
     1
 10
0.0
 20
0.0
 30
0.0
  3
*X31
  1

  0
LINE
  5
1725
  8
0
 62
     0
 10
3.8682112041804739
 20
-7.0040038369696571
 30
0.0
 11
3.6499603235052889
 21
-6.7857529562944654
 31
0.0
  0
LINE
  5
1726
  8
0
 62
     0
 10
3.9856529491582999
 20
-7.380076958234282
 30
0.0
 11
3.2873524678243831
 21
-6.6817764769003682
 31
0.0
  0
LINE
  5
1727
  8
0
 62
     0
 10
3.617185728354428
 20
-7.2702411137172032
 30
0.0
 11
2.924744612143483
 21
-6.5777999975062542
 31
0.0
  0
LINE
  5
1728
  8
0
 62
     0
 10
3.9698966386926511
 20
-7.6229520240554223
 30
0.0
 11
3.6965801245195551
 21
-7.3496355098823241
 31
0.0
  0
LINE
  5
1729
  8
0
 62
     0
 10
3.2412377906756031
 20
-7.1529245523251603
 30
0.0
 11
2.8018861877732841
 21
-6.7135729494228391
 31
0.0
  0
LINE
  5
172A
  8
0
 62
     0
 10
3.8992580266775061
 20
-7.8109447883270624
 30
0.0
 11
3.6959786603753511
 21
-7.6076654220249154
 31
0.0
  0
LINE
  5
172B
  8
0
 62
     0
 10
3.034690875273276
 20
-7.2050090132096241
 30
0.0
 11
2.8018861877732761
 21
-6.9722043257096251
 31
0.0
  0
LINE
  5
172C
  8
0
 62
     0
 10
3.792131315773708
 20
-7.9624494537100619
 30
0.0
 11
3.5455738235496881
 21
-7.715891961486034
 31
0.0
  0
LINE
  5
172D
  8
0
 62
     0
 10
2.2029885065044099
 20
-6.6319380207275591
 30
0.0
 11
2.1787499076577741
 21
-6.6076994218809233
 31
0.0
  0
LINE
  5
172E
  8
0
 62
     0
 10
3.6531656331833759
 20
-8.082115147406526
 30
0.0
 11
3.2290805876554312
 21
-7.6580301018785786
 31
0.0
  0
LINE
  5
172F
  8
0
 62
     0
 10
2.2677871082174681
 20
-6.9553679987274011
 30
0.0
 11
1.982121972154764
 21
-6.6697028626646979
 31
0.0
  0
LINE
  5
1730
  8
0
 62
     0
 10
3.4804499382598579
 20
-8.168030828769794
 30
0.0
 11
2.8664723785437469
 21
-7.5540532690536812
 31
0.0
  0
LINE
  5
1731
  8
0
 62
     0
 10
2.1576583608831101
 20
-7.1038706276798393
 30
0.0
 11
1.98333579740042
 21
-6.9295480641971476
 31
0.0
  0
LINE
  5
1732
  8
0
 62
     0
 10
3.262962952369413
 20
-8.2091752191661413
 30
0.0
 11
2.5038641694320689
 21
-7.4500764362287981
 31
0.0
  0
LINE
  5
1733
  8
0
 62
     0
 10
2.9676848492862362
 20
-8.1725284923697501
 30
0.0
 11
1.912955328823172
 21
-7.1177989719066872
 31
0.0
  0
LINE
  5
1734
  8
0
 62
     0
 10
2.6231897125881769
 20
-8.0866647319584857
 30
0.0
 11
1.8976699797883041
 21
-7.3611449991586113
 31
0.0
  0
ENDBLK
  5
1735
  8
0
  0
BLOCK
  8
0
  2
A$C0209448A
 70
     0
 10
0.0
 20
0.0
 30
0.0
  3
A$C0209448A
  1

  0
TEXT
  5
1737
  8
247
 10
-114.8496811218036
 20
-7.6978255001660614
 30
0.0
 40
2.0
  1
ST20-C2232-45B-50
 41
0.7
  7
YOKO
 11
-114.8496811218036
 21
-7.6978255001660614
 31
0.0
 73
     1
  0
INSERT
  5
1738
  8
247
  6
CONTINUOUS
  2
*X29
 10
-110.8496811218035
 20
-3.6562238614003202
 30
0.0
 50
270.0
1001
ACAD
1000
HATCH
1002
{
1070
    19
1000
ANSI31
1040
0.0576
1040
6.2831853071795853
1002
}
  0
INSERT
  5
1739
  8
247
  6
CONTINUOUS
  2
*X30
 10
-110.8496811218035
 20
-3.6562238614003202
 30
0.0
 50
270.0
1001
ACAD
1000
HATCH
1002
{
1070
    19
1000
ANSI31
1040
0.0576
1040
6.2831853071795853
1002
}
  0
INSERT
  5
173A
  8
247
  6
CONTINUOUS
  2
*X31
 10
-110.8496811218035
 20
-3.6562238614003202
 30
0.0
 50
270.0
1001
ACAD
1000
HATCH
1002
{
1070
    19
1000
ANSI31
1040
0.0576
1040
6.2831853071795853
1002
}
  0
LINE
  5
173B
  8
247
 10
-119.51742964882941
 20
-5.5501823147986036
 30
0.0
 11
-118.91196871132939
 21
-5.5501823147986036
 31
0.0
  0
POLYLINE
  5
173C
  8
247
 66
     1
 10
0.0
 20
0.0
 30
0.0
 70
     1
1001
HATCH_DISTANCE
1040
1.0
1001
HATCH_DISPLAY
1070
     0
1001
HATCH_TYPE
1070
     7
  0
VERTEX
  5
173D
  8
247
 10
-119.51742964882941
 20
-5.5501823147986036
 30
0.0
  0
VERTEX
  5
173E
  8
247
 10
-119.5908622660169
 20
-5.8062604397985922
 30
0.0
  0
VERTEX
  5
173F
  8
247
 10
-119.50609175820441
 20
-5.8062604397985922
 30
0.0
  0
VERTEX
  5
1740
  8
247
 10
-120.03346187539201
 20
-7.6454071988317764
 30
0.0
  0
VERTEX
  5
1741
  8
247
 10
-119.5127626566419
 20
-7.6454071988317764
 30
0.0
  0
VERTEX
  5
1742
  8
247
 10
-118.91196871132939
 20
-5.5501823147986036
 30
0.0
  0
SEQEND
  5
1743
  8
247
  0
POLYLINE
  5
1744
  8
247
 66
     1
 10
0.0
 20
0.0
 30
0.0
 70
     1
  0
VERTEX
  5
1745
  8
247
 10
-119.51742964882941
 20
-5.5501823147986036
 30
0.0
  0
VERTEX
  5
1746
  8
247
 10
-119.5908622660169
 20
-5.8062604397985922
 30
0.0
  0
VERTEX
  5
1747
  8
247
 10
-119.50609175820441
 20
-5.8062604397985922
 30
0.0
  0
VERTEX
  5
1748
  8
247
 10
-120.03346187539201
 20
-7.6454071988317764
 30
0.0
  0
VERTEX
  5
1749
  8
247
 10
-119.5127626566419
 20
-7.6454071988317764
 30
0.0
  0
VERTEX
  5
174A
  8
247
 10
-118.91196871132939
 20
-5.5501823147986036
 30
0.0
  0
SEQEND
  5
174B
  8
247
  0
LINE
  5
174C
  8
247
 10
-119.5127626566419
 20
-7.6454071988317764
 30
0.0
 11
-118.91196871132939
 21
-5.5501823147986036
 31
0.0
  0
LINE
  5
174D
  8
247
 10
-121.8266942972669
 20
-7.9946142240902978
 30
0.0
 11
-117.10078902382941
 21
-7.9946142240902978
 31
0.0
  0
LINE
  5
174E
  8
247
 10
-121.8266942972669
 20
-7.7618095425818012
 30
0.0
 11
-117.10078902382941
 21
-7.7618095425818012
 31
0.0
  0
ARC
  5
174F
  8
247
 10
-118.3028515238294
 20
-6.888800478861099
 30
0.0
 40
0.756615234375
 50
163.99975070172931
 51
304.96387329162991
  0
ARC
  5
1750
  8
247
 10
-121.8266942972669
 20
-6.7723981351111
 30
0.0
 40
0.9894111328124999
 50
90.0
 51
270.0
  0
ARC
  5
1751
  8
247
 10
-121.8266942972669
 20
-6.7723981351111
 30
0.0
 40
1.2222158203124971
 50
90.0
 51
270.0
  0
LINE
  5
1752
  8
247
 10
-120.03346187539189
 20
-7.6454071988317764
 30
0.0
 11
-119.5127626566419
 21
-7.6454071988317764
 31
0.0
  0
LINE
  5
1753
  8
247
 10
-120.5173349707227
 20
-7.601771314662443
 30
0.0
 11
-120.20007404740311
 21
-7.2845103913428773
 31
0.0
  0
LINE
  5
1754
  8
247
 10
-121.59549636003911
 20
-7.6454071988317764
 30
0.0
 11
-120.9334554717061
 21
-6.9833663104988091
 31
0.0
  0
LINE
  5
1755
  8
247
 10
-121.33686498375241
 20
-7.6454071988317764
 30
0.0
 11
-121.0374262716589
 21
-7.3459684867383714
 31
0.0
  0
LINE
  5
1756
  8
247
 10
-120.81960223117881
 20
-7.645407198831804
 30
0.0
 11
-120.1614425762471
 21
-6.9872475439000823
 31
0.0
  0
LINE
  5
1757
  8
247
 10
-120.8580171345141
 20
-6.7202721989775682
 30
0.0
 11
-121.0488010973033
 21
-7.385638630036766
 31
0.0
  0
ARC
  5
1758
  8
247
 10
-120.9981669535169
 20
-7.0401217679235764
 30
0.0
 40
0.3492072715759277
 50
261.66285421114799
 51
66.338192159113618
  0
LINE
  5
1759
  8
247
 10
-121.07823360746561
 20
-7.6454071988317764
 30
0.0
 11
-120.2240202776549
 21
-6.7911938690211278
 31
0.0
  0
LINE
  5
175A
  8
247
 10
-121.7045351175794
 20
-7.6454071988317764
 30
0.0
 11
-120.7384413675794
 21
-7.6454071988317764
 31
0.0
  0
LINE
  5
175B
  8
247
 10
-121.6443952153635
 20
-7.4356746778693434
 30
0.0
 11
-120.65937418131099
 21
-6.4506536438169064
 31
0.0
  0
LINE
  5
175C
  8
247
 10
-121.5404190579155
 20
-7.0730671441346544
 30
0.0
 11
-120.72550254904399
 21
-6.2581506352630347
 31
0.0
  0
ARC
  5
175D
  8
247
 10
-120.7384413675794
 20
-7.0634039944861193
 30
0.0
 40
0.5820029296875
 50
270.0
 51
40.329840654167278
  0
LINE
  5
175E
  8
247
 10
-120.6570135680288
 20
-6.965555783108214
 30
0.0
 11
-119.8936371769135
 21
-6.2021793919928712
 31
0.0
  0
LINE
  5
175F
  8
247
 10
-119.5908622660169
 20
-5.8062604397985922
 30
0.0
 11
-119.51742964882941
 21
-5.5501823147986036
 31
0.0
  0
LINE
  5
1760
  8
247
 10
-119.5908622660169
 20
-5.8062604397985922
 30
0.0
 11
-119.50609175820441
 21
-5.8062604397985922
 31
0.0
  0
LINE
  5
1761
  8
247
 10
-120.5416115237847
 20
-5.8156282337169776
 30
0.0
 11
-120.30151361942561
 21
-5.5755303293578029
 31
0.0
  0
LINE
  5
1762
  8
247
 10
-121.2848644212267
 20
-5.782987002298654
 30
0.0
 11
-121.05205973372669
 21
-5.5501823147986613
 31
0.0
  0
LINE
  5
1763
  8
247
 10
-121.3459237894544
 20
-5.5501823147986036
 30
0.0
 11
-121.4126767191419
 21
-5.7829870022985972
 31
0.0
  0
LINE
  5
1764
  8
247
 10
-121.2248368753918
 20
-5.5501823147986036
 30
0.0
 11
-121.2915898050797
 21
-5.7829870022985972
 31
0.0
  0
LINE
  5
1765
  8
247
 10
-121.2248368753918
 20
-5.5501823147986036
 30
0.0
 11
-120.473819753714
 21
-5.5501823147986888
 31
0.0
  0
LINE
  5
1766
  8
247
 10
-121.8266942972669
 20
-5.5501823147986036
 30
0.0
 11
-121.3459237894544
 21
-5.5501823147986036
 31
0.0
  0
LINE
  5
1767
  8
247
 10
-120.41924356002281
 20
-5.9518916462419318
 30
0.0
 11
-120.12895331986179
 21
-5.6616014060807913
 31
0.0
  0
LINE
  5
1768
  8
247
 10
-121.2915898050797
 20
-5.7829870022985972
 30
0.0
 11
-121.1704941019547
 21
-5.7829870022993362
 31
0.0
  0
LINE
  5
1769
  8
247
 10
-121.8266942972669
 20
-5.7829870022985972
 30
0.0
 11
-121.4126767191419
 21
-5.7829870022985972
 31
0.0
  0
LINE
  5
176A
  8
247
 10
-121.22849058557181
 20
-5.9852445429304728
 30
0.0
 11
-120.79342835744001
 21
-5.5501823147986613
 31
0.0
  0
LINE
  5
176B
  8
247
 10
-120.3894046088737
 20
-6.1806840713794884
 30
0.0
 11
-119.99982843922299
 21
-5.7911079017287639
 31
0.0
  0
ARC
  5
176C
  8
247
 10
-120.47142085976689
 20
-6.1321852444860907
 30
0.0
 40
0.5820078735351563
 50
287.66957754739889
 51
90.236159842671626
  0
LINE
  5
176D
  8
247
 10
-121.33246674301969
 20
-6.3478520766652187
 30
0.0
 11
-120.53479698115321
 21
-5.5501823147986888
 31
0.0
  0
LINE
  5
176E
  8
247
 10
-120.74729415668941
 20
-6.7972049954820468
 30
0.0
 11
-119.91420753325281
 21
-5.9641183720454194
 31
0.0
  0
LINE
  5
176F
  8
247
 10
-120.03346187539189
 20
-7.6454071988317764
 30
0.0
 11
-119.50609175820441
 21
-5.8062604397985922
 31
0.0
  0
LINE
  5
1770
  8
247
 10
-120.59099940526821
 20
-5.7890719282443106
 30
0.0
 11
-120.78178022947159
 21
-6.4544186244558537
 31
0.0
  0
ARC
  5
1771
  8
247
 10
-120.7311464457044
 20
-6.108911806986125
 30
0.0
 40
0.349197280883789
 50
261.6626016879294
 51
66.338155095189762
  0
LINE
  5
1772
  8
247
 10
-121.4364429004677
 20
-6.7104596103999077
 30
0.0
 11
-120.62152982356319
 21
-5.895546533495434
 31
0.0
  0
LINE
  5
1773
  8
247
 10
-121.7045351175794
 20
-7.6454071988317764
 30
0.0
 11
-121.1704941019547
 21
-5.7829870022993362
 31
0.0
  0
ARC
  5
1774
  8
247
 10
-117.10078902382941
 20
-6.7723981351111027
 30
0.0
 40
1.2222158203124971
 50
270.0
 51
104.77079396609329
  0
ARC
  5
1775
  8
247
 10
-117.10078902382941
 20
-6.7723981351111027
 30
0.0
 40
0.9894111328124999
 50
270.0
 51
104.12743649641109
  0
LINE
  5
1776
  8
247
 10
-118.0928720316419
 20
-7.2122555569860927
 30
0.0
 11
-117.9433788675794
 21
-6.6909147366735899
 31
0.0
  0
LINE
  5
1777
  8
247
 10
-118.13712496132941
 20
-6.6909147366735899
 30
0.0
 11
-117.9433788675794
 21
-6.6909147366735899
 31
0.0
  0
LINE
  5
1778
  8
247
 10
-117.86926949257941
 20
-7.5088515347693203
 30
0.0
 11
-117.7327050394544
 21
-7.6454071988317764
 31
0.0
  0
LINE
  5
1779
  8
247
 10
-118.13712496132941
 20
-6.6909147366735899
 30
0.0
 11
-118.0703720316419
 21
-6.4581100491735981
 31
0.0
  0
LINE
  5
177A
  8
247
 10
-118.0703720316419
 20
-6.4581100491735981
 30
0.0
 11
-117.39225191445441
 21
-6.4581100491735981
 31
0.0
  0
LINE
  5
177B
  8
247
 10
-117.7327050394544
 20
-7.6454071988317764
 30
0.0
 11
-117.39225191445441
 21
-6.4581100491735981
 31
0.0
  0
POLYLINE
  5
177C
  8
247
 66
     1
 10
0.0
 20
0.0
 30
0.0
 70
     1
1001
HATCH_DISTANCE
1040
1.0
1001
HATCH_DISPLAY
1070
     0
1001
HATCH_TYPE
1070
     7
  0
VERTEX
  5
177D
  8
247
 10
-117.3422860941419
 20
-5.8129049710485949
 30
0.0
  0
VERTEX
  5
177E
  8
247
 10
-117.4123964457044
 20
-5.5905680569861138
 30
0.0
  0
VERTEX
  5
177F
  8
247
 10
-117.4123964457044
 20
-5.5905680569861138
 30
0.0
  0
VERTEX
  5
1780
  8
247
 10
-117.3422860941419
 20
-5.8129049710485949
 30
0.0
  0
SEQEND
  5
1781
  8
247
  0
POLYLINE
  5
1782
  8
247
 66
     1
 10
0.0
 20
0.0
 30
0.0
 70
     1
  0
VERTEX
  5
1783
  8
247
 10
-117.3422860941419
 20
-5.8129049710485949
 30
0.0
  0
VERTEX
  5
1784
  8
247
 10
-117.4123964457044
 20
-5.5905680569861138
 30
0.0
  0
VERTEX
  5
1785
  8
247
 10
-117.4123964457044
 20
-5.5905680569861138
 30
0.0
  0
VERTEX
  5
1786
  8
247
 10
-117.3422860941419
 20
-5.8129049710485949
 30
0.0
  0
SEQEND
  5
1787
  8
247
  0
LINE
  5
1788
  8
247
 10
-117.3422860941419
 20
-5.8129049710485949
 30
0.0
 11
-117.4123964457044
 21
-5.5905680569861138
 31
0.0
  0
POLYLINE
  5
1789
  8
247
 66
     1
 10
0.0
 20
0.0
 30
0.0
 70
     1
1001
HATCH_DISTANCE
1040
1.0
1001
HATCH_DISPLAY
1070
     0
1001
HATCH_TYPE
1070
     7
  0
VERTEX
  5
178A
  8
247
 10
-117.3422860941419
 20
-5.8129049710485949
 30
0.0
  0
VERTEX
  5
178B
  8
247
 10
-117.4123964457044
 20
-5.5905680569861138
 30
0.0
  0
VERTEX
  5
178C
  8
247
 10
-117.4123964457044
 20
-5.5905680569861138
 30
0.0
  0
VERTEX
  5
178D
  8
247
 10
-117.3422860941419
 20
-5.8129049710485949
 30
0.0
  0
SEQEND
  5
178E
  8
247
  0
POLYLINE
  5
178F
  8
247
 66
     1
 10
0.0
 20
0.0
 30
0.0
 70
     1
  0
VERTEX
  5
1790
  8
247
 10
-117.3422860941419
 20
-5.8129049710485949
 30
0.0
  0
VERTEX
  5
1791
  8
247
 10
-117.4123964457044
 20
-5.5905680569861138
 30
0.0
  0
VERTEX
  5
1792
  8
247
 10
-117.4123964457044
 20
-5.5905680569861138
 30
0.0
  0
VERTEX
  5
1793
  8
247
 10
-117.3422860941419
 20
-5.8129049710485949
 30
0.0
  0
SEQEND
  5
1794
  8
247
  0
LINE
  5
1795
  8
247
 10
-117.4533007425794
 20
-5.8479118069861036
 30
0.0
 11
-117.52341109414191
 21
-5.6255748929235656
 31
0.0
  0
ARC
  5
1796
  8
247
 10
-117.10078902382941
 20
-6.7723981351111027
 30
0.0
 40
1.222216369628905
 50
110.22964506332001
 51
118.57168892371671
  0
ARC
  5
1797
  8
247
 10
-118.0140956644544
 20
-6.0507106351111011
 30
0.0
 40
0.2444448051452637
 50
1.7101213820627561
 51
163.99839835444709
  0
ARC
  5
1798
  8
247
 10
-117.10078902382941
 20
-6.7723981351111027
 30
0.0
 40
0.9894138793945311
 50
110.8721834020737
 51
132.54194893738691
  0
ARC
  5
1799
  8
247
 10
-117.0658261332044
 20
-6.9285797757360958
 30
0.0
 40
1.9799648437499999
 50
155.2051773698403
 51
172.79482596205219
  0
ARC
  5
179A
  8
247
 10
-118.32784761757939
 20
-7.1448786038611161
 30
0.0
 40
0.2444446334838867
 50
164.00027305718251
 51
344.0002730571826
  0
LINE
  5
179B
  8
247
 10
-118.5628232035169
 20
-7.0775016507361102
 30
0.0
 11
-118.24907125039191
 21
-5.983324892923604
 31
0.0
  0
ARC
  5
179C
  8
247
 10
-118.1359648050794
 20
-6.3067887601110888
 30
0.0
 40
0.7566075439453125
 50
53.444012197057567
 51
164.00018438768529
  0
ARC
  5
179D
  8
240
 10
-128.36395941685311
 20
7.9999999572991101
 30
0.0
 40
2.0
 50
90.0
 51
180.0
  0
ARC
  5
179E
  8
240
 10
-128.36395941685311
 20
-8.0000000427008615
 30
0.0
 40
2.0
 50
180.0
 51
270.0
  0
LINE
  5
179F
  8
245
 10
-134.10950512181071
 20
0.0
 30
0.0
 11
3.3927216673024532
 21
0.0
 31
0.0
  0
LINE
  5
17A0
  8
240
 10
-130.36395609378809
 20
0.0
 30
0.0
 11
-130.36395609378809
 21
7.9999999143183231
 31
0.0
  0
LINE
  5
17A1
  8
240
 10
-130.36395609378809
 20
-7.9999994486570074
 30
0.0
 11
-130.36395609378809
 21
0.0
 31
0.0
  0
LINE
  5
17A2
  8
240
 10
-0.0584758818149567
 20
10.68267144728452
 30
0.0
 11
-5.5983737111091614
 21
16.222568694502112
 31
0.0
  0
LINE
  5
17A3
  8
240
 10
-7.1295462548732749
 20
16.222568694502112
 30
0.0
 11
-12.669442221522329
 21
10.68267144728452
 31
0.0
  0
LINE
  5
17A4
  8
240
 10
-50.763959065079682
 20
9.999999956562533
 30
0.0
 11
-128.3639594912529
 21
9.999999956562533
 31
0.0
  0
LINE
  5
17A5
  8
240
 10
-128.3639594912529
 20
-9.9999997764825537
 30
0.0
 11
-50.763959065079682
 21
-9.9999997764825537
 31
0.0
  0
LINE
  5
17A6
  8
240
 10
-14.092385768890381
 20
9.5999999612104148
 30
0.0
 11
-50.156852230429642
 21
9.5999999612104148
 31
0.0
  0
LINE
  5
17A7
  8
240
 10
-50.156852230429642
 20
-9.6000004559755041
 30
0.0
 11
-14.092385768890381
 21
-9.6000004559755041
 31
0.0
  0
LINE
  5
17A8
  8
241
 10
-50.763959065079682
 20
-9.9999997764825537
 30
0.0
 11
-50.763959065079682
 21
0.0
 31
0.0
  0
LINE
  5
17A9
  8
241
 10
-50.156852230429642
 20
9.5999999612104148
 30
0.0
 11
-50.156852230429642
 21
-9.6000004559755041
 31
0.0
  0
LINE
  5
17AA
  8
240
 10
-50.763959065079682
 20
-9.9999997764825537
 30
0.0
 11
-50.51040556281805
 21
-9.7464472055434896
 31
0.0
  0
ARC
  5
17AB
  8
240
 10
-50.15685263566656
 20
-10.100000042700881
 30
0.0
 40
0.5000000000000241
 50
90.0
 51
135.0000000000046
  0
LINE
  5
17AC
  8
241
 10
-50.763959065079682
 20
0.0
 30
0.0
 11
-50.763959065079682
 21
9.999999956562533
 31
0.0
  0
LINE
  5
17AD
  8
240
 10
-50.51040556281805
 20
9.746446565259248
 30
0.0
 11
-50.763959065079682
 21
9.999999956562533
 31
0.0
  0
ARC
  5
17AE
  8
240
 10
-50.15685263566656
 20
10.099999957299129
 30
0.0
 40
0.500000000000004
 50
224.9999999999954
 51
270.0
  0
LINE
  5
17AF
  8
240
 10
-0.4639588296413422
 20
-5.8965999633073523
 30
0.0
 11
-0.4639588296411148
 21
-8.7460186332410501
 31
0.0
  0
LINE
  5
17B0
  8
240
 10
-5.7392492890357971
 20
-16.281047835946051
 30
0.0
 11
-6.9886669516563407
 21
-16.281047835946051
 31
0.0
  0
LINE
  5
17B1
  8
240
 10
-7.1295462548732749
 20
-16.2225682288408
 30
0.0
 11
-12.669442221522329
 21
-10.68267226219174
 31
0.0
  0
ARC
  5
17B2
  8
240
 10
-6.9883724978143951
 20
-16.081506147562521
 30
0.0
 40
0.1995708908049547
 50
224.97732906420649
 51
269.01982468669041
  0
LINE
  5
17B3
  8
240
 10
-12.72791996598243
 20
-10.541794821619961
 30
0.0
 11
-12.72791996598243
 21
-9.7525697201490118
 31
0.0
  0
ARC
  5
17B4
  8
240
 10
-12.52873130158264
 20
-10.541673182795501
 30
0.0
 40
0.1991991550706508
 50
180.0349870545123
 51
225.05860748629519
  0
ARC
  5
17B5
  8
240
 10
-14.092386541599289
 20
-11.600000042700881
 30
0.0
 40
2.0000000000000022
 50
65.530094885847632
 51
90.0
  0
LINE
  5
17B6
  8
240
 10
-0.0584758818149567
 20
-10.68267226219174
 30
0.0
 11
-5.5983737111091614
 21
-16.2225682288408
 31
0.0
  0
ARC
  5
17B7
  8
240
 10
-5.739365874769021
 20
-16.081885208096789
 30
0.0
 40
0.1991745529407189
 50
270.62698006328918
 51
315.06288298797551
  0
ARC
  5
17B8
  8
240
 10
-0.1991548142603392
 20
-9.2924876560175846
 30
0.0
 40
0.1991673551622426
 50
0.0317874036709239
 51
45.062478339484649
  0
LINE
  5
17B9
  8
240
 10
-0.4639588296413422
 20
-8.7460186332463934
 30
0.0
 11
-0.0584758818149567
 21
-9.1515015810727771
 31
0.0
  0
ARC
  5
17BA
  8
240
 10
-0.1995936602221491
 20
-10.541472827648789
 30
0.0
 40
0.1996284240729252
 50
314.98342803200148
 51
359.90758378391138
  0
LINE
  5
17BB
  8
240
 10
0.0
 20
-9.2923771589994146
 30
0.0
 11
0.0
 21
-10.541794821619961
 31
0.0
  0
LINE
  5
17BC
  8
240
 10
-0.4639588296397506
 20
1.6799997537598861
 30
0.0
 11
-0.4639588296403759
 21
8.7460189959079457
 31
0.0
  0
LINE
  5
17BD
  8
241
 10
-0.4639588296432749
 20
-1.500000245869159
 30
0.0
 11
-13.25008569547407
 21
-1.500000245869159
 31
0.0
  0
LINE
  5
17BE
  8
241
 10
-0.4639588296398074
 20
1.6799997538328171
 30
0.0
 11
-13.04495707154274
 21
1.6799997538328171
 31
0.0
  0
LINE
  5
17BF
  8
241
 10
-13.25008569547407
 20
-1.500000245869159
 30
0.0
 11
-13.04495707154274
 21
1.6799997538328171
 31
0.0
  0
LINE
  5
17C0
  8
240
 10
-0.4639588296413422
 20
-4.9636177718639081
 30
0.0
 11
-0.4639588296413422
 21
-1.500000245869159
 31
0.0
  0
LINE
  5
17C1
  8
240
 10
-0.4639588296413422
 20
-5.8965999633073523
 30
0.0
 11
-0.4639588296413422
 21
-4.9636177718639081
 31
0.0
  0
ARC
  5
17C2
  8
241
 10
-5.6700456227403029
 20
-86.744898128812025
 30
0.0
 40
85.244928012969098
 50
89.951827063198365
 51
90.048172936801606
  0
LINE
  5
17C3
  8
240
 10
-0.4639588296413422
 20
1.6799997538328171
 30
0.0
 11
-0.3904542818604
 21
1.6799997538796561
 31
0.0
  0
LINE
  5
17C4
  8
240
 10
-0.1179836690425873
 20
-0.539078377187252
 30
0.0
 11
0.0
 21
-1.500000245869159
 31
0.0
  0
POLYLINE
  5
17C5
  8
240
 66
     1
 10
0.0
 20
0.0
 30
0.0
 70
   128
  0
VERTEX
  5
1875
  8
240
 10
0.0
 20
-1.500000245869159
 30
0.0
  0
VERTEX
  5
1876
  8
240
 10
-0.0144094228744507
 20
-1.499971374869346
 30
0.0
  0
VERTEX
  5
1877
  8
240
 10
-0.0327825546264649
 20
-1.499983482062816
 30
0.0
  0
VERTEX
  5
1878
  8
240
 10
-0.0584758818149567
 20
-1.500000245869159
 30
0.0
  0
SEQEND
  5
1879
  8
240
  0
LINE
  5
17C6
  8
240
 10
-0.0584758818149567
 20
-1.500000245869159
 30
0.0
 11
-0.4639588296413422
 21
-1.500000245869159
 31
0.0
  0
LINE
  5
17C7
  8
240
 10
-0.3904542818604
 20
1.6799997538796561
 30
0.0
 11
-0.1179836690425873
 21
-0.539078377187252
 31
0.0
  0
LINE
  5
17C8
  8
241
 10
-12.669442221522329
 20
9.1515009407885373
 30
0.0
 11
-7.1296407321956963
 21
3.6117036084901311
 31
0.0
  0
ARC
  5
17C9
  8
241
 10
-12.52837750310357
 20
9.2926727961659026
 30
0.0
 40
0.1995714096088116
 50
180.0847587474241
 51
225.02174946775429
  0
ARC
  5
17CA
  8
240
 10
-12.52873777855865
 20
10.54167461473935
 30
0.0
 40
0.199192989478783
 50
134.94053032615801
 51
179.96542374626159
  0
LINE
  5
17CB
  8
240
 10
-12.72791996598243
 20
10.54179482161998
 30
0.0
 11
-12.72791996597379
 21
9.7525697201490402
 31
0.0
  0
ARC
  5
17CC
  8
240
 10
-14.092386541599289
 20
11.599999957299129
 30
0.0
 40
2.0
 50
270.0
 51
294.46990511414867
  0
LINE
  5
17CD
  8
240
 10
-0.0584758818149567
 20
9.1515009407885373
 30
0.0
 11
-0.4639588296482771
 21
8.7460189959073205
 31
0.0
  0
LINE
  5
17CE
  8
241
 10
-0.4639588296413422
 20
8.74601899591039
 30
0.0
 11
-5.5982870384872276
 21
3.6117034866503839
 31
0.0
  0
ARC
  5
17CF
  8
240
 10
-0.1991585199414203
 20
9.2924888407915205
 30
0.0
 40
0.1991712645374947
 50
314.93790543223162
 51
359.96798960781382
  0
LINE
  5
17D0
  8
240
 10
0.0
 20
9.2923775664530694
 30
0.0
 11
0.0
 21
10.54179482161998
 31
0.0
  0
ARC
  5
17D1
  8
240
 10
-0.1995838307872191
 20
10.541476984602349
 30
0.0
 40
0.1996179589998855
 50
0.0912279008919384
 51
45.017558724569852
  0
LINE
  5
17D2
  8
240
 10
-5.7392492890357971
 20
16.281047370284789
 30
0.0
 11
-6.9886669516563407
 21
16.281047370284789
 31
0.0
  0
ARC
  5
17D3
  8
240
 10
-6.9883683788393682
 20
16.081495513786191
 30
0.0
 40
0.1995816499550404
 50
90.990018188109445
 51
135.02125270901749
1001
GENIUS_GENOREF_13
1005
17E4
  0
ARC
  5
17D4
  8
240
 10
-5.739367718390894
 20
16.081875242984321
 30
0.0
 40
0.1991832256726919
 50
44.938866393568787
 51
89.395156653489977
  0
LINE
  5
17D5
  8
241
 10
-5.739708219823739
 20
3.5531250177882612
 30
0.0
 11
-6.9882194290192379
 21
3.5531250177882612
 31
0.0
1001
GENIUS_GENOREF_13
1005
17E4
  0
ARC
  5
17D6
  8
241
 10
-6.9882194290192379
 20
3.7531250177882489
 30
0.0
 40
0.2
 50
225.00002149718449
 51
270.0
1001
GENIUS_GENOREF_13
1005
17E4
1001
GENIUS_GENODEF_13
1002
{
1000
HIER
1070
     0
1002
}
1002
{
1000
MANEDIT
1070
     0
1002
}
1002
{
1000
NOSEL
1070
     0
1002
}
1002
{
1000
BEHIND
1070
     0
1002
}
1002
{
1000
OTHER
1070
     0
1002
}
1002
{
1000
REACTOR
1002
}
1001
GENIUS_GENOBJ-N-FIL_13
1002
{
1000
OWNER
1000
GEN
1002
}
  0
ARC
  5
17D7
  8
241
 10
-5.739708219823739
 20
3.7531250177882489
 30
0.0
 40
0.2
 50
270.0
 51
314.99992914033351
1001
GENIUS_GENOREF_13
1005
17E4
1001
GENIUS_GENOBJ-N-FIL_13
1002
{
1000
OWNER
1000
GEN
1002
}
1001
GENIUS_GENODEF_13
1002
{
1000
HIER
1070
     0
1002
}
1002
{
1000
MANEDIT
1070
     0
1002
}
1002
{
1000
NOSEL
1070
     0
1002
}
1002
{
1000
BEHIND
1070
     0
1002
}
1002
{
1000
OTHER
1070
     0
1002
}
1002
{
1000
REACTOR
1002
}
  0
LINE
  5
17D8
  8
240
 10
-13.04495707154274
 20
-9.7525697201490118
 30
0.0
 11
-12.72791996598243
 21
-9.7525697201490118
 31
0.0
  0
CIRCLE
  5
17D9
  8
246
 10
-6.3639595173302146
 20
9.9170894742096038
 30
0.0
 40
4.9999982362538518
  0
ARC
  5
17DA
  8
241
 10
-2.009466915721986
 20
-9.8233997821058381
 30
0.0
 40
1.546629270392863
 50
322.50284644828952
 51
359.42634277430489
  0
POLYLINE
  5
17DB
  8
241
 66
     1
 10
0.0
 20
0.0
 30
0.0
 70
   128
  0
VERTEX
  5
187A
  8
241
 10
-5.7639591395854941
 20
-15.81099629402158
 30
0.0
  0
VERTEX
  5
187B
  8
241
 10
-2.4096034467220302
 20
-12.43264786899087
 30
0.0
  0
VERTEX
  5
187C
  8
241
 10
-0.7823966443538098
 20
-10.764867067336951
 30
0.0
  0
SEQEND
  5
187D
  8
241
  0
LINE
  5
17DC
  8
241
 10
-6.9639608263969421
 20
-15.81099629402158
 30
0.0
 11
-5.7639591395854941
 21
-15.81099629402158
 31
0.0
  0
POLYLINE
  5
17DD
  8
241
 66
     1
 10
0.0
 20
0.0
 30
0.0
 70
   128
  0
VERTEX
  5
187E
  8
241
 10
-12.72791996598243
 20
-9.9960572692999961
 30
0.0
  0
VERTEX
  5
187F
  8
241
 10
-8.2830749452114105
 20
-14.48377594351766
 30
0.0
  0
VERTEX
  5
1880
  8
241
 10
-6.9639608263969421
 20
-15.81099629402158
 30
0.0
  0
SEQEND
  5
1881
  8
241
  0
LINE
  5
17DE
  8
241
 10
-0.4639588296413422
 20
-8.7460186332463934
 30
0.0
 11
-0.4639588296413422
 21
-9.8388846963643743
 31
0.0
  0
LINE
  5
17DF
  8
241
 10
-12.72791996597379
 20
-9.7525697201489834
 30
0.0
 11
-12.72791996597385
 21
-1.500000245869159
 31
0.0
  0
LINE
  5
17E0
  8
240
 10
-13.04495707154274
 20
-9.7525697201490118
 30
0.0
 11
-13.263956093788121
 21
-9.7796421127488031
 31
0.0
  0
LINE
  5
17E1
  8
240
 10
-13.04495707154274
 20
9.7525697201490402
 30
0.0
 11
-13.263956093788121
 21
9.7796421127488316
 31
0.0
  0
LINE
  5
17E2
  8
240
 10
-13.04495707154274
 20
9.7525697201490402
 30
0.0
 11
-12.72791996597379
 21
9.7525697201490402
 31
0.0
  0
LINE
  5
17E3
  8
241
 10
-12.72791996597379
 20
1.6799997538328451
 30
0.0
 11
-12.72791996597379
 21
9.7525697201490402
 31
0.0
  0
POINT
  5
17E4
  8
0
 10
-339.40858315172119
 20
-226.5968078178723
 30
0.0
1001
GENIUS_GENODEF_13
1002
{
1000
HIER
1070
     1
1002
}
1002
{
1000
MANEDIT
1070
     0
1002
}
1002
{
1000
NOSEL
1070
     0
1002
}
1002
{
1000
BEHIND
1070
     0
1002
}
1002
{
1000
OTHER
1070
     0
1002
}
1002
{
1000
REACTOR
1002
}
1001
GENIUS_GENOENT_13
1002
{
1000
MYREF
1005
17E4
1002
}
1002
{
1000
GRP
1005
0
1002
}
1001
GENIUS_GENOBJ-N-FIL_13
1002
{
1000
OWNER
1000
GEN
1002
}
1001
GENIUS_GENOLIS_13
1002
{
1000
ENT
1005
17D5
1005
17D3
1002
}
  0
ENDBLK
  5
17E7
  8
0
  0
BLOCK
  8
0
  2
*U33
 70
     1
 10
0.0
 20
0.0
 30
0.0
  3
*U33
  1

  0
TEXT
  5
180D
  8
250
 62
    40
 10
331.29674421821272
 20
246.72410843271169
 30
0.0
 40
2.7999999999999989
  1
45üï
 50
19.14441753644557
  0
ENDBLK
  5
180F
  8
0
  0
BLOCK
  8
0
  2
*U34
 70
     1
 10
0.0
 20
0.0
 30
0.0
  3
*U34
  1

  0
TEXT
  5
1811
  8
250
 62
    40
 10
311.47301397674511
 20
197.0
 30
0.0
 40
3.0
  1
50
  0
ENDBLK
  5
1813
  8
0
  0
BLOCK
  8
0
  2
*U35
 70
     1
 10
0.0
 20
0.0
 30
0.0
  3
*U35
  1

  0
TEXT
  5
1815
  8
250
 62
    40
 10
307.00000000000011
 20
220.0320787364488
 30
0.0
 40
3.0
  1
\U+2205
 50
90.0
  0
TEXT
  5
1816
  8
250
 62
    40
 10
307.00000000000011
 20
222.74636445073449
 30
0.0
 40
3.0
  1
19.2
 50
90.0
  0
ENDBLK
  5
1818
  8
0
  0
BLOCK
  8
0
  2
*U36
 70
     1
 10
0.0
 20
0.0
 30
0.0
  3
*U36
  1

  0
TEXT
  5
181A
  8
250
 62
    40
 10
194.99999999999989
 20
222.52537933648381
 30
0.0
 40
3.0
  1
\U+2205
 50
90.0
  0
TEXT
  5
181B
  8
250
 62
    40
 10
194.99999999999989
 20
225.2396650507695
 30
0.0
 40
3.0
  1
20
 50
90.0
  0
ENDBLK
  5
181D
  8
0
  0
BLOCK
  8
0
  2
*U37
 70
     1
 10
0.0
 20
0.0
 30
0.0
  3
*U37
  1

  0
TEXT
  5
181F
  8
250
 62
    40
 10
269.72662069537859
 20
190.0
 30
0.0
 40
3.0
  1
130
  0
ENDBLK
  5
1821
  8
0
  0
BLOCK
  8
0
  2
*U38
 70
     1
 10
0.0
 20
0.0
 30
0.0
  3
*U38
  1

  0
TEXT
  5
1823
  8
250
 62
    40
 10
246.29103592985101
 20
197.0
 30
0.0
 40
3.0
  1
80
  0
ENDBLK
  5
1825
  8
0
  0
BLOCK
  8
0
  2
*U39
 70
     1
 10
0.0
 20
0.0
 30
0.0
  3
*U39
  1

  0
TEXT
  5
1827
  8
250
 62
    40
 10
362.99999999999989
 20
220.7015697226343
 30
0.0
 40
3.0
  1
\U+2205
 50
90.0
  0
TEXT
  5
1828
  8
250
 62
    40
 10
362.89999999999992
 20
223.41585543691991
 30
0.0
 40
2.7999999999999989
  1
32.7
 50
90.0
  0
ENDBLK
  5
182A
  8
0
  0
BLOCK
  8
0
  2
*U40
 70
     1
 10
0.0
 20
0.0
 30
0.0
  3
*U40
  1

  0
TEXT
  5
182C
  8
240
 62
    40
 10
348.99999999999989
 20
222.52537924644389
 30
0.0
 40
3.0
  1
\U+2205
 50
90.0
  0
TEXT
  5
182D
  8
240
 62
    40
 10
348.99999999999989
 20
225.23966496072961
 30
0.0
 40
3.0
  1
22
 50
90.0
  0
ENDBLK
  5
182F
  8
0
  0
BLOCK
  8
0
  2
*U41
 70
     1
 10
0.0
 20
0.0
 30
0.0
  3
*U41
  1

  0
TEXT
  5
1831
  8
240
 62
    40
 10
356.0
 20
222.5253792464438
 30
0.0
 40
3.0
  1
\U+2205
 50
90.0
  0
TEXT
  5
1832
  8
240
 62
    40
 10
356.0
 20
225.2396649607295
 30
0.0
 40
3.0
  1
32
 50
90.0
  0
ENDBLK
  5
1834
  8
0
  0
BLOCK
  8
0
  2
*U42
 70
     1
 10
0.0
 20
0.0
 30
0.0
  3
*U42
  1

  0
TEXT
  5
1836
  8
240
 62
    40
 10
320.99999999999989
 20
222.52537924644389
 30
0.0
 40
3.0
  1
\U+2205
 50
90.0
  0
TEXT
  5
1837
  8
240
 62
    40
 10
320.99999999999989
 20
225.23966496072961
 30
0.0
 40
3.0
  1
22
 50
90.0
  0
ENDBLK
  5
1839
  8
0
  0
BLOCK
  8
0
  2
*U43
 70
     1
 10
0.0
 20
0.0
 30
0.0
  3
*U43
  1

  0
TEXT
  5
1848
  8
240
 62
    40
 10
-18.408583151721238
 20
-4.0714285714285454
 30
0.0
 40
3.0
  1
\U+2205
 50
90.0
  0
TEXT
  5
1849
  8
240
 62
    40
 10
-18.408583151721238
 20
-1.357142857142831
 30
0.0
 40
3.0
  1
22
 50
90.0
  0
ENDBLK
  5
184B
  8
0
  0
BLOCK
  8
0
  2
*U44
 70
     1
 10
0.0
 20
0.0
 30
0.0
  3
*U44
  1

  0
TEXT
  5
184D
  8
250
 62
    40
 10
23.591416848278751
 20
-5.895238095238156
 30
0.0
 40
3.0
  1
\U+2205
 50
90.0
  0
TEXT
  5
184E
  8
250
 62
    40
 10
23.49141684827875
 20
-3.180952380952442
 30
0.0
 40
2.7999999999999989
  1
32.7
 50
90.0
  0
ENDBLK
  5
1850
  8
0
  0
BLOCK
  8
0
  2
*U45
 70
     1
 10
0.0
 20
0.0
 30
0.0
  3
*U45
  1

  0
TEXT
  5
1852
  8
250
 62
    40
 10
-32.408583151721132
 20
-6.5647290814235264
 30
0.0
 40
3.0
  1
\U+2205
 50
90.0
  0
TEXT
  5
1853
  8
250
 62
    40
 10
-32.408583151721132
 20
-3.850443367137812
 30
0.0
 40
3.0
  1
19.2
 50
90.0
  0
ENDBLK
  5
1855
  8
0
  0
BLOCK
  8
0
  2
*U46
 70
     1
 10
0.0
 20
0.0
 30
0.0
  3
*U46
  1

  0
TEXT
  5
1857
  8
250
 62
    40
 10
-8.1118389335085581
 20
20.12730061483942
 30
0.0
 40
2.7999999999999989
  1
45üï
 50
19.14441753644557
  0
ENDBLK
  5
1859
  8
0
  0
BLOCK
  8
0
  2
*U47
 70
     1
 10
0.0
 20
0.0
 30
0.0
  3
*U47
  1

  0
TEXT
  5
185B
  8
250
 62
    40
 10
-93.117547221870211
 20
-29.596807817872332
 30
0.0
 40
3.0
  1
80
  0
ENDBLK
  5
185D
  8
0
  0
BLOCK
  8
0
  2
*U48
 70
     1
 10
0.0
 20
0.0
 30
0.0
  3
*U48
  1

  0
TEXT
  5
185F
  8
250
 62
    40
 10
-141.0
 20
-4.071428481388601
 30
0.0
 40
3.0
  1
\U+2205
 50
90.0
  0
TEXT
  5
1860
  8
250
 62
    40
 10
-141.0
 20
-1.3571427671028871
 30
0.0
 40
3.0
  1
20
 50
90.0
  0
ENDBLK
  5
1862
  8
0
  0
BLOCK
  8
0
  2
*U49
 70
     1
 10
0.0
 20
0.0
 30
0.0
  3
*U49
  1

  0
TEXT
  5
1864
  8
250
 62
    40
 10
-27.935569174976141
 20
-27.0
 30
0.0
 40
3.0
  1
50
  0
ENDBLK
  5
1866
  8
0
  0
BLOCK
  8
0
  2
*U50
 70
     1
 10
0.0
 20
0.0
 30
0.0
  3
*U50
  1

  0
TEXT
  5
1868
  8
250
 62
    40
 10
-69.68196245634266
 20
-34.0
 30
0.0
 40
3.0
  1
130
  0
ENDBLK
  5
186A
  8
0
  0
BLOCK
  8
0
  2
*U51
 70
     1
 10
0.0
 20
0.0
 30
0.0
  3
*U51
  1

  0
TEXT
  5
186C
  8
240
 62
    40
 10
20.0
 20
-4.071428571428573
 30
0.0
 40
3.0
  1
\U+2205
 50
90.0
  0
TEXT
  5
186D
  8
240
 62
    40
 10
20.0
 20
-1.357142857142859
 30
0.0
 40
3.0
  1
32
 50
90.0
  0
ENDBLK
  5
186F
  8
0
  0
BLOCK
  8
0
  2
*U52
 70
     1
 10
0.0
 20
0.0
 30
0.0
  3
*U52
  1

  0
TEXT
  5
1871
  8
240
 62
    40
 10
13.0
 20
-4.071428571428557
 30
0.0
 40
3.0
  1
\U+2205
 50
90.0
  0
TEXT
  5
1872
  8
240
 62
    40
 10
13.0
 20
-1.357142857142843
 30
0.0
 40
3.0
  1
22
 50
90.0
  0
ENDBLK
  5
1874
  8
0
  0
ENDSEC
  0
SECTION
  2
ENTITIES
  0
TEXT
  5
144C
  8
241
 10
-128.74655964614999
 20
29.191755186225919
 30
0.0
 40
3.0
  1
ST20-C2232-45B-50
  7
YOKO
 11
-128.74655964614999
 21
29.191755186225919
 31
0.0
 73
     1
  0
LINE
  5
167C
  8
250
 10
-128.8639594912529
 20
-9.9999997764825537
 30
0.0
 11
-141.0
 21
-9.9999997764825501
 31
0.0
  0
LINE
  5
167D
  8
250
 10
-128.8639594912529
 20
9.999999956562533
 30
0.0
 11
-141.0
 21
9.9999999565625366
 31
0.0
  0
LINE
  5
167E
  8
250
 10
-140.0
 20
-7.7699997764825497
 30
0.0
 11
-140.0
 21
7.7699999565625353
 31
0.0
  0
LINE
  5
1682
  8
250
 10
-130.36395941685311
 20
-8.5000000427008615
 30
0.0
 11
-130.36395941685311
 21
-36.0
 31
0.0
  0
LINE
  5
1683
  8
250
 10
0.0000345041678429
 20
-11.041794821619961
 30
0.0
 11
0.0000345041678413
 21
-36.0
 31
0.0
  0
LINE
  5
1684
  8
250
 10
-128.13395941685309
 20
-35.0
 30
0.0
 11
-2.229965495832158
 21
-35.0
 31
0.0
  0
LINE
  5
1688
  8
250
 10
-50.15685263566656
 20
-10.10000004270085
 30
0.0
 11
-50.15685263566656
 21
-29.0
 31
0.0
  0
LINE
  5
1689
  8
250
 10
0.0
 20
-11.041794821619961
 30
0.0
 11
-0.0000000000000011
 21
-29.0
 31
0.0
  0
LINE
  5
168A
  8
250
 10
-47.926852635666563
 20
-28.0
 30
0.0
 11
-2.23
 21
-28.0
 31
0.0
  0
LINE
  5
168E
  8
250
 10
0.1241955321278283
 20
11.0
 30
0.0
 11
15.0
 21
10.999999999999989
 31
0.0
  0
LINE
  5
168F
  8
250
 10
0.1241962736836513
 20
-10.99999999999997
 30
0.0
 11
15.0
 21
-10.99999999999997
 31
0.0
  0
LINE
  5
1690
  8
250
 10
14.0
 20
8.769999999999996
 30
0.0
 11
14.0
 21
-8.7699999999999747
 31
0.0
  0
LINE
  5
1694
  8
250
 10
-4.8758049932217773
 20
16.0
 30
0.0
 11
22.000000000000011
 21
15.999999999999989
 31
0.0
  0
LINE
  5
1695
  8
250
 10
-4.8758054074356201
 20
-16.0
 30
0.0
 11
22.0
 21
-16.0
 31
0.0
  0
LINE
  5
1696
  8
250
 10
21.0
 20
13.769999999999991
 30
0.0
 11
21.0
 21
-13.77
 31
0.0
  0
LINE
  5
169A
  8
250
 10
0.0
 20
11.124195571613621
 30
0.0
 11
0.0000000000000036
 21
22.262011456391619
 31
0.0
  0
LINE
  5
169B
  8
250
 10
-5.9519271202763431
 20
16.576122066521471
 30
0.0
 11
-8.2291789626465981
 21
18.853373669621089
 31
0.0
  0
ARC
  5
169C
  8
250
 10
0.0000000000000004
 20
10.624195571613621
 30
0.0
 40
10.637815884778
 50
102.03298711183849
 51
122.9670158981929
  0
LINE
  5
16A0
  8
250
 10
-12.85211374215856
 20
11.0
 30
0.0
 11
-18.408583151721238
 21
11.0
 31
0.0
  0
LINE
  5
16A1
  8
250
 10
-12.852114483714161
 20
-10.99999999999994
 30
0.0
 11
-18.408583151721238
 21
-10.99999999999994
 31
0.0
  0
LINE
  5
16A2
  8
250
 10
-17.408583151721238
 20
8.7699999999999996
 30
0.0
 11
-17.408583151721238
 21
-8.7699999999999427
 31
0.0
  0
TEXT
  5
16A6
  8
250
 10
-8.1118389335085581
 20
20.12730061483942
 30
0.0
 40
2.7999999999999989
  1
45üï
 50
19.14441753644557
  0
LINE
  5
16A7
  8
250
 10
-5.5548185376514398
 20
19.26024599100111
 30
0.0
 11
-7.5220721443122258
 21
18.14626692558236
 31
0.0
  0
LINE
  5
16A8
  8
250
 10
-6.0224470781472936
 20
19.838059103138729
 30
0.0
 11
-7.5220721443122258
 21
18.14626692558236
 31
0.0
  0
LINE
  5
16A9
  8
250
 10
-7.5220721443122258
 20
18.14626692558236
 30
0.0
 11
-5.7886328078993667
 21
19.54915254706993
 31
0.0
  0
LINE
  5
16AA
  8
250
 10
-2.2566727817695988
 20
21.397894005423328
 30
0.0
 11
0.0000000000000036
 21
21.262011456391619
 31
0.0
  0
LINE
  5
16AB
  8
250
 10
-2.178760485143687
 20
20.65865512760444
 30
0.0
 11
0.0000000000000036
 21
21.262011456391619
 31
0.0
  0
LINE
  5
16AC
  8
250
 10
0.0000000000000036
 20
21.262011456391619
 30
0.0
 11
-2.2177166334566429
 21
21.028274566513879
 31
0.0
  0
TEXT
  5
16AD
  8
250
 10
20.0
 20
-4.071428571428573
 30
0.0
 40
3.0
  1
\U+2205
 50
90.0
  0
TEXT
  5
16AE
  8
250
 10
20.0
 20
-1.357142857142859
 30
0.0
 40
3.0
  1
32
 50
90.0
  0
LINE
  5
16AF
  8
250
 10
21.371666666666659
 20
-13.77
 30
0.0
 11
21.0
 21
-16.0
 31
0.0
  0
LINE
  5
16B0
  8
250
 10
20.62833333333333
 20
-13.77
 30
0.0
 11
21.0
 21
-16.0
 31
0.0
  0
LINE
  5
16B1
  8
250
 10
21.0
 20
-16.0
 30
0.0
 11
21.0
 21
-13.77
 31
0.0
  0
LINE
  5
16B2
  8
250
 10
20.628333333333341
 20
13.769999999999991
 30
0.0
 11
21.0
 21
15.999999999999989
 31
0.0
  0
LINE
  5
16B3
  8
250
 10
21.37166666666667
 20
13.769999999999991
 30
0.0
 11
21.0
 21
15.999999999999989
 31
0.0
  0
LINE
  5
16B4
  8
250
 10
21.0
 20
15.999999999999989
 30
0.0
 11
21.0
 21
13.769999999999991
 31
0.0
  0
TEXT
  5
16B5
  8
250
 10
13.0
 20
-4.071428571428557
 30
0.0
 40
3.0
  1
\U+2205
 50
90.0
  0
TEXT
  5
16B6
  8
250
 10
13.0
 20
-1.357142857142843
 30
0.0
 40
3.0
  1
22
 50
90.0
  0
LINE
  5
16B7
  8
250
 10
14.371666666666661
 20
-8.7699999999999747
 30
0.0
 11
14.0
 21
-10.99999999999997
 31
0.0
  0
LINE
  5
16B8
  8
250
 10
13.62833333333333
 20
-8.7699999999999747
 30
0.0
 11
14.0
 21
-10.99999999999997
 31
0.0
  0
LINE
  5
16B9
  8
250
 10
14.0
 20
-10.99999999999997
 30
0.0
 11
14.0
 21
-8.7699999999999747
 31
0.0
  0
LINE
  5
16BA
  8
250
 10
13.62833333333333
 20
8.769999999999996
 30
0.0
 11
14.0
 21
10.999999999999989
 31
0.0
  0
LINE
  5
16BB
  8
250
 10
14.37166666666667
 20
8.769999999999996
 30
0.0
 11
14.0
 21
10.999999999999989
 31
0.0
  0
LINE
  5
16BC
  8
250
 10
14.0
 20
10.999999999999989
 30
0.0
 11
14.0
 21
8.769999999999996
 31
0.0
  0
TEXT
  5
16BD
  8
250
 10
-27.935569174976141
 20
-27.0
 30
0.0
 40
3.0
  1
50
  0
LINE
  5
16BE
  8
250
 10
-2.23
 20
-27.62833333333333
 30
0.0
 11
-0.0000000000000011
 21
-28.0
 31
0.0
  0
LINE
  5
16BF
  8
250
 10
-2.23
 20
-28.371666666666659
 30
0.0
 11
-0.0000000000000011
 21
-28.0
 31
0.0
  0
LINE
  5
16C0
  8
250
 10
-0.0000000000000011
 20
-28.0
 30
0.0
 11
-2.23
 21
-28.0
 31
0.0
  0
LINE
  5
16C1
  8
250
 10
-47.926852635666563
 20
-28.371666666666659
 30
0.0
 11
-50.15685263566656
 21
-28.0
 31
0.0
  0
LINE
  5
16C2
  8
250
 10
-47.926852635666563
 20
-27.62833333333333
 30
0.0
 11
-50.15685263566656
 21
-28.0
 31
0.0
  0
LINE
  5
16C3
  8
250
 10
-50.15685263566656
 20
-28.0
 30
0.0
 11
-47.926852635666563
 21
-28.0
 31
0.0
  0
TEXT
  5
16C4
  8
250
 10
-69.68196245634266
 20
-34.0
 30
0.0
 40
3.0
  1
130
  0
LINE
  5
16C5
  8
250
 10
-2.229965495832158
 20
-34.62833333333333
 30
0.0
 11
0.0000345041678414
 21
-35.0
 31
0.0
  0
LINE
  5
16C6
  8
250
 10
-2.229965495832158
 20
-35.37166666666667
 30
0.0
 11
0.0000345041678414
 21
-35.0
 31
0.0
  0
LINE
  5
16C7
  8
250
 10
0.0000345041678414
 20
-35.0
 30
0.0
 11
-2.229965495832158
 21
-35.0
 31
0.0
  0
LINE
  5
16C8
  8
250
 10
-128.13395941685309
 20
-35.37166666666667
 30
0.0
 11
-130.36395941685311
 21
-35.0
 31
0.0
  0
LINE
  5
16C9
  8
250
 10
-128.13395941685309
 20
-34.62833333333333
 30
0.0
 11
-130.36395941685311
 21
-35.0
 31
0.0
  0
LINE
  5
16CA
  8
250
 10
-130.36395941685311
 20
-35.0
 30
0.0
 11
-128.13395941685309
 21
-35.0
 31
0.0
  0
TEXT
  5
16CB
  8
250
 10
-141.0
 20
-4.071428481388601
 30
0.0
 40
3.0
  1
\U+2205
 50
90.0
  0
TEXT
  5
16CC
  8
250
 10
-141.0
 20
-1.3571427671028871
 30
0.0
 40
3.0
  1
20
 50
90.0
  0
LINE
  5
16CD
  8
250
 10
-140.37166666666661
 20
7.7699999565625362
 30
0.0
 11
-140.0
 21
9.9999999565625366
 31
0.0
  0
LINE
  5
16CE
  8
250
 10
-139.6283333333333
 20
7.7699999565625362
 30
0.0
 11
-140.0
 21
9.9999999565625366
 31
0.0
  0
LINE
  5
16CF
  8
250
 10
-140.0
 20
9.9999999565625366
 30
0.0
 11
-140.0
 21
7.7699999565625362
 31
0.0
  0
LINE
  5
16D0
  8
250
 10
-139.6283333333333
 20
-7.7699997764825488
 30
0.0
 11
-140.0
 21
-9.9999997764825501
 31
0.0
  0
LINE
  5
16D1
  8
250
 10
-140.37166666666661
 20
-7.7699997764825488
 30
0.0
 11
-140.0
 21
-9.9999997764825501
 31
0.0
  0
LINE
  5
16D2
  8
250
 10
-140.0
 20
-9.9999997764825501
 30
0.0
 11
-140.0
 21
-7.7699997764825488
 31
0.0
  0
TEXT
  5
16D3
  8
250
 10
-18.408583151721238
 20
-4.0714285714285454
 30
0.0
 40
3.0
  1
\U+2205
 50
90.0
  0
TEXT
  5
16D4
  8
250
 10
-18.408583151721238
 20
-1.357142857142831
 30
0.0
 40
3.0
  1
22
 50
90.0
  0
LINE
  5
16D5
  8
250
 10
-17.036916485054579
 20
-8.7699999999999427
 30
0.0
 11
-17.408583151721238
 21
-10.99999999999994
 31
0.0
  0
LINE
  5
16D6
  8
250
 10
-17.780249818387912
 20
-8.7699999999999427
 30
0.0
 11
-17.408583151721238
 21
-10.99999999999994
 31
0.0
  0
LINE
  5
16D7
  8
250
 10
-17.408583151721238
 20
-10.99999999999994
 30
0.0
 11
-17.408583151721238
 21
-8.7699999999999427
 31
0.0
  0
LINE
  5
16D8
  8
250
 10
-17.780249818387901
 20
8.7699999999999996
 30
0.0
 11
-17.408583151721238
 21
11.0
 31
0.0
  0
LINE
  5
16D9
  8
250
 10
-17.036916485054569
 20
8.7699999999999996
 30
0.0
 11
-17.408583151721238
 21
11.0
 31
0.0
  0
LINE
  5
16DA
  8
250
 10
-17.408583151721238
 20
11.0
 30
0.0
 11
-17.408583151721238
 21
8.7699999999999996
 31
0.0
  0
INSERT
  5
17E8
  8
240
  2
A$C0209448A
 10
0.0
 20
0.0
 30
0.0
  0
VIEWPORT
  5
22
 67
     1
  8
0
 10
261.51769911504419
 20
148.5
 30
0.0
 40
523.0353982300885
 41
297.0
 68
     1
 69
     1
1001
ACAD
1000
MVIEW
1002
{
1070
    16
1010
0.0
1020
0.0
1030
0.0
1010
0.0
1020
0.0
1030
1.0
1040
0.0
1040
297.0
1040
261.51769911504419
1040
148.5
1040
50.0
1040
0.0
1040
0.0
1070
     0
1070
   100
1070
     1
1070
     1
1070
     0
1070
     0
1070
     0
1070
     0
1040
0.0
1040
0.0
1040
0.0
1040
1.0
1040
1.0
1040
10.0
1040
10.0
1070
     0
1002
{
1002
}
1002
}
1001
GENIUS_GENODEF_13
1002
{
1000
HIER
1070
     0
1002
}
1002
{
1000
MANEDIT
1070
     0
1002
}
1002
{
1000
NOSEL
1070
     0
1002
}
1002
{
1000
BEHIND
1070
     0
1002
}
1002
{
1000
OTHER
1070
     0
1002
}
1002
{
1000
REACTOR
1002
}
1001
GENIUS_GENOBJ-N-SDF_13
1002
{
1000
OWNER
1000
GEN
1002
}
1001
GENIUS_GENSCREG_15
1000
PF
1040
1.0
1000
DF
1040
1.0
1000
MIN
1011
0.0
1021
-0.0
1031
3.8393813443199572E+295
1021
0.0
1031
0.0
1000
MAX
1011
523.0353982300885
1021
-0.0
1031
3.8393813443199572E+295
1021
297.0
1031
0.0
1000
FLAGS
1070
     2
  0
ENDSEC
  0
EOF
