  0
SECTION
  2
HEADER
  9
$ACADVER
  1
AC1009
  9
$INSBASE
 10
0.0
 20
0.0
 30
0.0
  9
$EXTMIN
 10
-159.66774362274509
 20
-34.377611138547898
 30
0.0
  9
$EXTMAX
 10
13.3322563772549
 20
26.000000000000021
 30
0.0
  9
$LIMMIN
 10
0.0
 20
0.0
  9
$LIMMAX
 10
297.0
 20
210.0
  9
$ORTHOMODE
 70
     0
  9
$REGENMODE
 70
     1
  9
$FILLMODE
 70
     1
  9
$QTEXTMODE
 70
     0
  9
$MIRRTEXT
 70
     1
  9
$DRAGMODE
 70
     2
  9
$LTSCALE
 40
10.0
  9
$OSMODE
 70
  2799
  9
$ATTMODE
 70
     1
  9
$TEXTSIZE
 40
3.0
  9
$TRACEWID
 40
1.0
  9
$TEXTSTYLE
  7
YOKO
  9
$CLAYER
  8
240
  9
$CELTYPE
  6
BYLAYER
  9
$CECOLOR
 62
   256
  9
$DIMSCALE
 40
1.0
  9
$DIMASZ
 40
2.2299999999999991
  9
$DIMEXO
 40
0.5
  9
$DIMDLI
 40
7.0
  9
$DIMRND
 40
0.0
  9
$DIMDLE
 40
0.0
  9
$DIMEXE
 40
1.0
  9
$DIMTP
 40
0.0
  9
$DIMTM
 40
0.01
  9
$DIMTXT
 40
2.7999999999999989
  9
$DIMCEN
 40
0.0
  9
$DIMTSZ
 40
0.0
  9
$DIMTOL
 70
     0
  9
$DIMLIM
 70
     0
  9
$DIMTIH
 70
     0
  9
$DIMTOH
 70
     0
  9
$DIMSE1
 70
     0
  9
$DIMSE2
 70
     0
  9
$DIMTAD
 70
     3
  9
$DIMZIN
 70
     9
  9
$DIMBLK
  1
OPEN
  9
$DIMASO
 70
     1
  9
$DIMSHO
 70
     1
  9
$DIMPOST
  1

  9
$DIMAPOST
  1

  9
$DIMALT
 70
     0
  9
$DIMALTD
 70
     2
  9
$DIMALTF
 40
25.399999999999999
  9
$DIMLFAC
 40
1.0
  9
$DIMTOFL
 70
     1
  9
$DIMTVP
 40
0.0
  9
$DIMTIX
 70
     1
  9
$DIMSOXD
 70
     0
  9
$DIMSAH
 70
     0
  9
$DIMBLK1
  1

  9
$DIMBLK2
  1

  9
$DIMSTYLE
  2
BIGT
  9
$DIMCLRD
 70
   256
  9
$DIMCLRE
 70
   256
  9
$DIMCLRT
 70
    40
  9
$DIMTFAC
 40
1.0
  9
$DIMGAP
 40
1.0
  9
$LUNITS
 70
     2
  9
$LUPREC
 70
     3
  9
$SKETCHINC
 40
1.0
  9
$FILLETRAD
 40
0.2
  9
$AUNITS
 70
     0
  9
$AUPREC
 70
     3
  9
$MENU
  1
.
  9
$ELEVATION
 40
0.0
  9
$PELEVATION
 40
0.0
  9
$THICKNESS
 40
0.0
  9
$LIMCHECK
 70
     0
  9
$BLIPMODE
 70
     0
  9
$CHAMFERA
 40
0.25
  9
$CHAMFERB
 40
0.25
  9
$SKPOLY
 70
     0
  9
$TDCREATE
 40
2454809.3936036918
  9
$TDUPDATE
 40
2454809.4334573839
  9
$TDINDWG
 40
0.0070569329
  9
$TDUSRTIMER
 40
0.0070569329
  9
$USRTIMER
 70
     1
  9
$ANGBASE
 50
0.0
  9
$ANGDIR
 70
     0
  9
$PDMODE
 70
     1
  9
$PDSIZE
 40
0.0
  9
$PLINEWID
 40
0.0
  9
$COORDS
 70
     0
  9
$SPLFRAME
 70
     0
  9
$SPLINETYPE
 70
     6
  9
$SPLINESEGS
 70
     4
  9
$ATTDIA
 70
     1
  9
$ATTREQ
 70
     1
  9
$HANDLING
 70
     1
  9
$HANDSEED
  5
1C04
  9
$SURFTAB1
 70
     6
  9
$SURFTAB2
 70
     6
  9
$SURFTYPE
 70
     6
  9
$SURFU
 70
     6
  9
$SURFV
 70
     6
  9
$UCSNAME
  2

  9
$UCSORG
 10
0.0
 20
0.0
 30
0.0
  9
$UCSXDIR
 10
1.0
 20
0.0
 30
0.0
  9
$UCSYDIR
 10
0.0
 20
1.0
 30
0.0
  9
$PUCSNAME
  2

  9
$PUCSORG
 10
0.0
 20
0.0
 30
0.0
  9
$PUCSXDIR
 10
1.0
 20
0.0
 30
0.0
  9
$PUCSYDIR
 10
0.0
 20
1.0
 30
0.0
  9
$USERI1
 70
     1
  9
$USERI2
 70
     0
  9
$USERI3
 70
     0
  9
$USERI4
 70
     0
  9
$USERI5
 70
     0
  9
$USERR1
 40
0.0
  9
$USERR2
 40
0.0
  9
$USERR3
 40
0.0
  9
$USERR4
 40
0.0
  9
$USERR5
 40
0.0
  9
$WORLDVIEW
 70
     1
  9
$SHADEDGE
 70
     3
  9
$SHADEDIF
 70
    70
  9
$TILEMODE
 70
     1
  9
$MAXACTVP
 70
    16
  9
$PLIMCHECK
 70
     0
  9
$PEXTMIN
 10
1.0000000000000000E+020
 20
1.0000000000000000E+020
 30
1.0000000000000000E+020
  9
$PEXTMAX
 10
-1.0000000000000000E+020
 20
-1.0000000000000000E+020
 30
-1.0000000000000000E+020
  9
$PLIMMIN
 10
0.0
 20
0.0
  9
$PLIMMAX
 10
420.0
 20
297.0
  9
$UNITMODE
 70
     0
  9
$VISRETAIN
 70
     1
  9
$PLINEGEN
 70
     0
  9
$PSLTSCALE
 70
     1
  0
ENDSEC
  0
SECTION
  2
TABLES
  0
TABLE
  2
VPORT
 70
     3
  0
VPORT
  2
*ACTIVE
 70
     0
 10
0.0
 20
0.0
 11
1.0
 21
1.0
 12
-73.175948663237421
 22
-4.1880794721516557
 13
0.0
 23
0.0
 14
7.0
 24
7.0
 15
7.0
 25
7.0
 16
0.0
 26
0.0
 36
1.0
 17
0.0
 27
0.0
 37
0.0
 40
112.1725247656303
 41
1.5487804878048781
 42
50.0
 43
0.0
 44
0.0
 50
0.0
 51
0.0
 71
     0
 72
  2000
 73
     1
 74
     0
 75
     0
 76
     1
 77
     0
 78
     0
  0
ENDTAB
  0
TABLE
  2
LTYPE
 70
    13
  0
LTYPE
  2
CONTINUOUS
 70
     0
  3
Solid line
 72
    65
 73
     0
 40
0.0
  0
LTYPE
  2
CENTER2
 70
     0
  3
___ _ ___ _ ___ _ ___ _ ___ _ ___ _ ___ _ ___ _
 72
    65
 73
     4
 40
1.125
 49
0.75
 49
-0.125
 49
0.125
 49
-0.125
  0
LTYPE
  2
HIDDEN2
 70
     0
  3
_ _ _ _ _ _ _ _ _ _ _ _ _ _ _ _ _ _ _ _ _ _ _ _
 72
    65
 73
     2
 40
0.1875
 49
0.125
 49
-0.0625
  0
LTYPE
  2
PHANTOM2
 70
     0
  3
___ _ _ ___ _ _ ___ _ _ ___ _ _ ___ _ _ ___ _ _
 72
    65
 73
     6
 40
1.25
 49
0.625
 49
-0.125
 49
0.125
 49
-0.125
 49
0.125
 49
-0.125
  0
LTYPE
  2
CENTER
 70
     0
  3
____ _ ____ _ ____ _ ____ _ ____ _ ____ _ ____ 
 72
    65
 73
     4
 40
2.0
 49
1.25
 49
-0.25
 49
0.25
 49
-0.25
  0
LTYPE
  2
AM_ISO02W050
 70
     0
  3
__ __ __ __ __ __ __ __ __ __ __ __ __ __ __
 72
    65
 73
     2
 40
7.5
 49
6.0
 49
-1.5
  0
LTYPE
  2
AMCONSTR
 70
     0
  3
_______________________
 72
    65
 73
     2
 40
9999.0
 49
9999.0
 49
0.0
  0
LTYPE
  2
ACISOWELD
 70
     0
  3
_ _ _ _ _
 72
    65
 73
     2
 40
2.0
 49
2.0
 49
-1.0
  0
LTYPE
  2
ACISOTGB
 70
     0
  3
__ . . __ . .
 72
    65
 73
     6
 40
9.0
 49
4.0
 49
-1.0
 49
1.0
 49
-1.0
 49
1.0
 49
-1.0
  0
LTYPE
  2
ACISOTGL
 70
     0
  3
_ _ _ _ _
 72
    65
 73
     2
 40
3.0
 49
2.0
 49
-1.0
  0
LTYPE
  2
ACJISTGB
 70
     0
  3
__ . . __ . .
 72
    65
 73
     6
 40
9.0
 49
4.0
 49
-1.0
 49
1.0
 49
-1.0
 49
1.0
 49
-1.0
  0
LTYPE
  2
ACJISTGL
 70
     0
  3
_ _ _ _ _
 72
    65
 73
     2
 40
3.0
 49
2.0
 49
-1.0
  0
LTYPE
  2
HIDDEN
 70
     0
  3
Hidden __ __ __ __ __ __ __ __ __ __ __ __ __ _
 72
    65
 73
     2
 40
9.5249999999999986
 49
6.3499999999999988
 49
-3.1749999999999989
  0
ENDTAB
  0
TABLE
  2
LAYER
 70
     8
  0
LAYER
  2
0
 70
     0
 62
     7
  6
CONTINUOUS
  0
LAYER
  2
DEFPOINTS
 70
     0
 62
     7
  6
CONTINUOUS
  0
LAYER
  2
245
 70
     0
 62
     2
  6
CENTER2
  0
LAYER
  2
240
 70
     0
 62
     4
  6
CONTINUOUS
  0
LAYER
  2
241
 70
     0
 62
   211
  6
CONTINUOUS
  0
LAYER
  2
246
 70
     0
 62
     3
  6
PHANTOM2
  0
LAYER
  2
250
 70
     0
 62
     3
  6
CONTINUOUS
  0
LAYER
  2
247
 70
     0
 62
    60
  6
CONTINUOUS
  0
ENDTAB
  0
TABLE
  2
STYLE
 70
     6
  0
STYLE
  2
STANDARD
 70
     0
 40
0.0
 41
1.0
 50
0.0
 71
     0
 42
3.0
  3
romans.shx
  4
extfont.shx
  0
STYLE
  2
ACISOTS
 70
     0
 40
1.0
 41
1.0
 50
0.0
 71
     0
 42
3.0
  3
amgdt.shx
  4
extfont.shx
  0
STYLE
  2
ACISOGDT
 70
     0
 40
0.0
 41
1.0
 50
0.0
 71
     0
 42
3.0
  3
amgdt.shx
  4
extfont.shx
  0
STYLE
  2
ACJISTS
 70
     0
 40
1.0
 41
1.0
 50
0.0
 71
     0
 42
3.0
  3
amgdt.shx
  4
extfont.shx
  0
STYLE
  2
ACJISGDT
 70
     0
 40
0.0
 41
1.0
 50
0.0
 71
     0
 42
3.0
  3
amgdt.shx
  4
extfont.shx
  0
STYLE
  2
YOKO
 70
     0
 40
0.0
 41
1.0
 50
0.0
 71
     0
 42
3.0
  3
romans.shx
  4
extfont.shx
  0
ENDTAB
  0
TABLE
  2
VIEW
 70
     0
  0
ENDTAB
  0
TABLE
  2
UCS
 70
     0
  0
ENDTAB
  0
TABLE
  2
APPID
 70
    31
  0
APPID
  2
ACAD
 70
     0
  0
APPID
  2
GLOBAL
 70
     0
  0
APPID
  2
DETAIL
 70
     0
  0
APPID
  2
GRPNAME
 70
     0
  0
APPID
  2
GPARA
 70
     0
  0
APPID
  2
MCAD_NO_VIS
 70
     0
  0
APPID
  2
ACAD_TEMP_GRAPHIC
 70
     0
  0
APPID
  2
ACATTRIBSERVICES
 70
     0
  0
APPID
  2
GENIUS_GENSCREG_15
 70
     0
  0
APPID
  2
GENIUS_GENODEF_13
 70
     0
  0
APPID
  2
GENIUS_GENOBJ-N-SDF_13
 70
     0
  0
APPID
  2
GENIUS_GENREC_14
 70
     0
  0
APPID
  2
GENIUS_GENOBJ-N-REC_13
 70
     0
  0
APPID
  2
GENIUS_GENDIMSH_14
 70
     0
  0
APPID
  2
GENIUS_GENOBJ-N-DIM_13
 70
     0
  0
APPID
  2
GENIUS_GENDIM_13
 70
     0
  0
APPID
  2
GENIUS_GENDTOL_13
 70
     0
  0
APPID
  2
GENIUS_GENOLIS_13
 70
     0
  0
APPID
  2
GENIUS_GENOENT_13
 70
     0
  0
APPID
  2
GENIUS_GENOBJ-F-FEM_13
 70
     0
  0
APPID
  2
GENIUS_GENOREF_13
 70
     0
  0
APPID
  2
GENIUS_GEFFEM_13
 70
     0
  0
APPID
  2
GENIUS_GEFFEMP_13
 70
     0
  0
APPID
  2
AD_DRAW
 70
     0
  0
APPID
  2
DESIGNERASSEMBLIES
 70
     0
  0
APPID
  2
ACADM_DIM_EDIT
 70
     0
  0
APPID
  2
AMDT_DM_ADJ
 70
     0
  0
APPID
  2
GENIUS_GENOBJ-N-FIL_13
 70
     0
  0
APPID
  2
HATCH_TYPE
 70
     0
  0
APPID
  2
HATCH_DISPLAY
 70
     0
  0
APPID
  2
HATCH_DISTANCE
 70
     0
  0
ENDTAB
  0
TABLE
  2
DIMSTYLE
 70
    23
  0
DIMSTYLE
  2
BIGT
 70
     0
  3

  4

  5
OPEN
  6

  7

 40
1.0
 41
2.2299999999999991
 42
0.5
 43
7.0
 44
1.0
 45
0.0
 46
0.0
 47
0.0
 48
0.01
140
2.7999999999999989
141
0.0
142
0.0
143
25.399999999999999
144
1.0
145
0.0
146
1.0
147
1.0
 71
     0
 72
     0
 73
     0
 74
     0
 75
     0
 76
     0
 77
     3
 78
     9
170
     0
171
     2
172
     1
173
     0
174
     1
175
     0
176
   256
177
   256
178
    40
  0
DIMSTYLE
  2
AM_ISO
 70
     0
  3

  4
"
  5

  6

  7

 40
1.0
 41
2.5
 42
1.0
 43
10.0
 44
1.0
 45
0.0
 46
0.0
 47
0.1
 48
0.1
140
3.5
141
0.0
142
0.0
143
0.0393701
144
1.0
145
0.0
146
0.71
147
1.5
 71
     0
 72
     0
 73
     0
 74
     0
 75
     0
 76
     0
 77
     1
 78
     8
170
     0
171
     2
172
     1
173
     0
174
     0
175
     0
176
   256
177
   256
178
     2
  0
DIMSTYLE
  2
AM_ISO$3
 70
     0
  3

  4
"
  5

  6

  7

 40
1.0
 41
2.5
 42
1.0
 43
10.0
 44
1.0
 45
0.0
 46
0.0
 47
0.1
 48
0.1
140
3.5
141
0.0
142
0.0
143
0.0393701
144
1.0
145
0.0
146
0.71
147
1.5
 71
     0
 72
     0
 73
     0
 74
     1
 75
     0
 76
     0
 77
     1
 78
     8
170
     0
171
     2
172
     0
173
     0
174
     0
175
     0
176
   256
177
   256
178
     2
  0
DIMSTYLE
  2
AM_ISO$4
 70
     0
  3

  4
"
  5

  6

  7

 40
1.0
 41
2.5
 42
1.0
 43
10.0
 44
1.0
 45
0.0
 46
0.0
 47
0.1
 48
0.1
140
3.5
141
0.0
142
0.0
143
0.0393701
144
1.0
145
0.0
146
0.71
147
1.5
 71
     0
 72
     0
 73
     0
 74
     1
 75
     0
 76
     0
 77
     1
 78
     8
170
     0
171
     2
172
     0
173
     0
174
     0
175
     0
176
   256
177
   256
178
     2
  0
DIMSTYLE
  2
AM_ISO$6
 70
     0
  3

  4
"
  5

  6

  7

 40
1.0
 41
2.5
 42
1.0
 43
10.0
 44
1.0
 45
0.0
 46
0.0
 47
0.1
 48
0.1
140
3.5
141
0.0
142
0.0
143
0.0393701
144
1.0
145
0.0
146
0.71
147
1.5
 71
     0
 72
     0
 73
     0
 74
     0
 75
     0
 76
     0
 77
     0
 78
     8
170
     0
171
     2
172
     1
173
     0
174
     0
175
     0
176
   256
177
   256
178
     2
  0
DIMSTYLE
  2
AM_ISO$7
 70
     0
  3

  4
"
  5

  6

  7

 40
1.0
 41
2.5
 42
1.0
 43
10.0
 44
1.0
 45
0.0
 46
0.0
 47
0.1
 48
0.1
140
5.0
141
0.0
142
0.0
143
0.0393701
144
1.0
145
0.0
146
0.71
147
1.5
 71
     0
 72
     0
 73
     0
 74
     0
 75
     0
 76
     0
 77
     1
 78
     8
170
     0
171
     2
172
     1
173
     0
174
     0
175
     0
176
   256
177
   256
178
     2
  0
DIMSTYLE
  2
AM_ISO$SF
 70
     0
  3

  4
"
  5

  6

  7

 40
1.0
 41
2.5
 42
1.0
 43
10.0
 44
1.0
 45
0.0
 46
0.0
 47
0.1
 48
0.1
140
3.5
141
0.0
142
0.0
143
0.0393701
144
1.0
145
0.0
146
0.71
147
1.5
 71
     0
 72
     0
 73
     0
 74
     0
 75
     1
 76
     1
 77
     1
 78
     8
170
     0
171
     2
172
     1
173
     0
174
     0
175
     0
176
   256
177
   256
178
     2
  0
DIMSTYLE
  2
AM_ISO$SH
 70
     0
  3

  4
"
  5

  6
GENAXEH
  7

 40
1.0
 41
2.5
 42
1.0
 43
10.0
 44
1.0
 45
0.0
 46
0.0
 47
0.1
 48
0.1
140
3.5
141
0.0
142
0.0
143
0.0393701
144
2.0
145
0.0
146
0.71
147
1.5
 71
     0
 72
     0
 73
     0
 74
     0
 75
     1
 76
     1
 77
     1
 78
     8
170
     0
171
     2
172
     1
173
     1
174
     0
175
     0
176
   256
177
   256
178
     2
  0
DIMSTYLE
  2
BIGT$2
 70
     0
  3

  4

  5
OPEN
  6

  7

 40
1.0
 41
2.2299999999999991
 42
0.5
 43
7.0
 44
1.0
 45
0.0
 46
0.0
 47
0.0
 48
0.01
140
2.7999999999999989
141
0.0
142
0.0
143
25.399999999999999
144
1.0
145
0.0
146
1.0
147
1.0
 71
     0
 72
     0
 73
     0
 74
     0
 75
     0
 76
     0
 77
     3
 78
     9
170
     0
171
     2
172
     1
173
     0
174
     0
175
     0
176
   256
177
   256
178
    40
  0
DIMSTYLE
  2
BIGT$3
 70
     0
  3

  4

  5
OPEN
  6

  7

 40
1.0
 41
2.2299999999999991
 42
0.5
 43
2.5
 44
1.0
 45
0.0
 46
0.0
 47
0.0
 48
0.01
140
2.7999999999999989
141
0.0
142
0.0
143
25.399999999999999
144
1.0
145
0.0
146
1.0
147
1.0
 71
     0
 72
     0
 73
     0
 74
     0
 75
     0
 76
     0
 77
     3
 78
     9
170
     0
171
     2
172
     1
173
     0
174
     0
175
     0
176
   256
177
   256
178
    40
  0
DIMSTYLE
  2
BIGT$7
 70
     0
  3

  4

  5
OPEN
  6

  7

 40
0.0
 41
2.2299999999999991
 42
0.5
 43
7.0
 44
1.0
 45
0.0
 46
0.0
 47
0.0
 48
0.01
140
2.7999999999999989
141
0.0
142
0.0
143
25.399999999999999
144
1.0
145
0.0
146
1.0
147
1.0
 71
     0
 72
     0
 73
     0
 74
     0
 75
     0
 76
     0
 77
     3
 78
     9
170
     0
171
     2
172
     0
173
     0
174
     0
175
     0
176
   256
177
   256
178
    40
  0
DIMSTYLE
  2
BIGT$6
 70
     0
  3

  4

  5
OPEN
  6

  7

 40
1.0
 41
2.2299999999999991
 42
0.5
 43
2.5
 44
1.0
 45
0.0
 46
0.0
 47
0.0
 48
0.01
140
2.7999999999999989
141
0.0
142
0.0
143
25.399999999999999
144
1.0
145
0.0
146
1.0
147
1.0
 71
     0
 72
     0
 73
     0
 74
     0
 75
     0
 76
     0
 77
     3
 78
     9
170
     0
171
     2
172
     1
173
     0
174
     0
175
     0
176
   256
177
   256
178
    40
  0
DIMSTYLE
  2
BIGT$0
 70
     0
  3

  4

  5
OPEN
  6

  7

 40
1.0
 41
2.2299999999999991
 42
0.5
 43
7.0
 44
1.0
 45
0.0
 46
0.0
 47
0.0
 48
0.01
140
2.7999999999999989
141
0.0
142
0.0
143
25.399999999999999
144
1.0
145
0.0
146
1.0
147
1.0
 71
     0
 72
     0
 73
     0
 74
     0
 75
     0
 76
     0
 77
     3
 78
     9
170
     0
171
     2
172
     1
173
     0
174
     0
175
     0
176
   256
177
   256
178
    40
  0
DIMSTYLE
  2
BIGT$4
 70
     0
  3

  4

  5
OPEN
  6

  7

 40
1.0
 41
2.2299999999999991
 42
0.5
 43
2.5
 44
1.0
 45
0.0
 46
0.0
 47
0.0
 48
0.01
140
2.7999999999999989
141
0.0
142
0.0
143
25.399999999999999
144
1.0
145
0.0
146
1.0
147
1.0
 71
     0
 72
     0
 73
     0
 74
     0
 75
     0
 76
     0
 77
     3
 78
     9
170
     0
171
     2
172
     1
173
     0
174
     0
175
     0
176
   256
177
   256
178
    40
  0
DIMSTYLE
  2
BIGT$SH
 70
     0
  3

  4

  5
OPEN
  6

  7

 40
1.0
 41
2.2299999999999991
 42
0.5
 43
7.0
 44
1.0
 45
0.0
 46
0.0
 47
0.0
 48
0.0
140
2.7999999999999989
141
0.0
142
0.0
143
25.399999999999999
144
1.0
145
0.0
146
1.0
147
1.0
 71
     0
 72
     0
 73
     0
 74
     0
 75
     0
 76
     0
 77
     3
 78
     9
170
     0
171
     2
172
     1
173
     0
174
     0
175
     0
176
   256
177
   256
178
    40
  0
DIMSTYLE
  2
BIGT$SF
 70
     0
  3

  4

  5
OPEN
  6

  7

 40
1.0
 41
2.2299999999999991
 42
0.5
 43
7.0
 44
1.0
 45
0.0
 46
0.0
 47
0.0
 48
0.0
140
2.7999999999999989
141
0.0
142
0.0
143
25.399999999999999
144
1.0
145
0.0
146
1.0
147
1.0
 71
     0
 72
     0
 73
     0
 74
     0
 75
     0
 76
     0
 77
     3
 78
     9
170
     0
171
     2
172
     1
173
     0
174
     0
175
     0
176
   256
177
   256
178
    40
  0
DIMSTYLE
  2
TECHNICAL_OSAKA
 70
     0
  3

  4
"
  5
OPEN30
  6

  7

 40
1.0
 41
2.5
 42
1.0
 43
10.0
 44
1.0
 45
0.0
 46
0.0
 47
0.1
 48
0.1
140
2.7999999999999989
141
0.0
142
0.0
143
0.0393701
144
1.0
145
0.0
146
0.71
147
1.5
 71
     0
 72
     0
 73
     0
 74
     0
 75
     0
 76
     0
 77
     3
 78
     8
170
     0
171
     2
172
     1
173
     0
174
     0
175
     0
176
   256
177
   256
178
    40
  0
DIMSTYLE
  2
TECHNICAL_OSAKA$3
 70
     0
  3

  4
"
  5
OPEN30
  6

  7

 40
1.0
 41
2.5
 42
1.0
 43
10.0
 44
1.0
 45
0.0
 46
0.0
 47
0.1
 48
0.1
140
2.7999999999999989
141
0.0
142
0.0
143
0.0393701
144
1.0
145
0.0
146
0.71
147
1.5
 71
     0
 72
     0
 73
     0
 74
     1
 75
     0
 76
     0
 77
     3
 78
     8
170
     0
171
     2
172
     0
173
     0
174
     0
175
     0
176
   256
177
   256
178
    40
  0
DIMSTYLE
  2
TECHNICAL_OSAKA$4
 70
     0
  3

  4
"
  5
OPEN30
  6

  7

 40
1.0
 41
2.5
 42
1.0
 43
10.0
 44
1.0
 45
0.0
 46
0.0
 47
0.1
 48
0.1
140
2.7999999999999989
141
0.0
142
0.0
143
0.0393701
144
1.0
145
0.0
146
0.71
147
1.5
 71
     0
 72
     0
 73
     0
 74
     1
 75
     0
 76
     0
 77
     3
 78
     8
170
     0
171
     2
172
     0
173
     0
174
     0
175
     0
176
   256
177
   256
178
    40
  0
DIMSTYLE
  2
TECHNICAL_OSAKA$6
 70
     0
  3

  4
"
  5
OPEN30
  6

  7

 40
1.0
 41
2.5
 42
1.0
 43
10.0
 44
1.0
 45
0.0
 46
0.0
 47
0.1
 48
0.1
140
2.7999999999999989
141
0.0
142
0.0
143
0.0393701
144
1.0
145
0.0
146
0.71
147
1.5
 71
     0
 72
     0
 73
     0
 74
     0
 75
     0
 76
     0
 77
     0
 78
     8
170
     0
171
     2
172
     1
173
     0
174
     0
175
     0
176
   256
177
   256
178
    40
  0
DIMSTYLE
  2
TECHNICAL_OSAKA$7
 70
     0
  3

  4
"
  5
OPEN30
  6

  7

 40
1.0
 41
2.5
 42
1.0
 43
10.0
 44
1.0
 45
0.0
 46
0.0
 47
0.1
 48
0.1
140
2.7999999999999989
141
0.0
142
0.0
143
0.0393701
144
1.0
145
0.0
146
0.71
147
1.5
 71
     0
 72
     0
 73
     0
 74
     0
 75
     0
 76
     0
 77
     3
 78
     8
170
     0
171
     2
172
     1
173
     0
174
     0
175
     0
176
   256
177
   256
178
    40
  0
DIMSTYLE
  2
TECHNICAL_OSAKA$SF
 70
     0
  3

  4
"
  5
OPEN30
  6
OPEN30
  7
OPEN30
 40
1.0
 41
2.5
 42
1.0
 43
10.0
 44
1.0
 45
0.0
 46
0.0
 47
0.1
 48
0.1
140
3.5
141
0.0
142
0.0
143
0.0393701
144
1.0
145
0.0
146
0.71
147
1.5
 71
     0
 72
     0
 73
     0
 74
     0
 75
     1
 76
     1
 77
     3
 78
     8
170
     0
171
     2
172
     1
173
     0
174
     0
175
     0
176
   256
177
   256
178
    40
  0
DIMSTYLE
  2
TECHNICAL_OSAKA$SH
 70
     0
  3

  4
"
  5
OPEN30
  6
GENAXEH
  7
OPEN30
 40
1.0
 41
2.5
 42
1.0
 43
10.0
 44
1.0
 45
0.0
 46
0.0
 47
0.1
 48
0.1
140
3.5
141
0.0
142
0.0
143
0.0393701
144
2.0
145
0.0
146
0.71
147
1.5
 71
     0
 72
     0
 73
     0
 74
     0
 75
     1
 76
     1
 77
     3
 78
     8
170
     0
171
     2
172
     1
173
     1
174
     0
175
     0
176
   256
177
   256
178
    40
  0
ENDTAB
  0
ENDSEC
  0
SECTION
  2
BLOCKS
  0
BLOCK
  8
0
  2
$MODEL_SPACE
 70
     0
 10
0.0
 20
0.0
 30
0.0
  3
$MODEL_SPACE
  1

  0
ENDBLK
  5
1C
  8
0
  0
BLOCK
 67
     1
  8
0
  2
$PAPER_SPACE
 70
     0
 10
0.0
 20
0.0
 30
0.0
  3
$PAPER_SPACE
  1

  0
ENDBLK
  5
19
 67
     1
  8
0
  0
BLOCK
  8
0
  2
_OPEN
 70
     0
 10
0.0
 20
0.0
 30
0.0
  3
_OPEN
  1

  0
LINE
  5
1AF8
  8
0
  6
BYBLOCK
 62
     0
 10
-1.0
 20
0.1666666666666666
 30
0.0
 11
0.0
 21
0.0
 31
0.0
  0
LINE
  5
1AF9
  8
0
  6
BYBLOCK
 62
     0
 10
-1.0
 20
-0.1666666666666666
 30
0.0
 11
0.0
 21
0.0
 31
0.0
  0
LINE
  5
1AFA
  8
0
  6
BYBLOCK
 62
     0
 10
0.0
 20
0.0
 30
0.0
 11
-1.0
 21
0.0
 31
0.0
  0
ENDBLK
  5
1AFB
  8
0
  0
BLOCK
  8
0
  2
GENAXEH
 70
     0
 10
0.0
 20
0.0
 30
0.0
  3
GENAXEH
  1

  0
LINE
  5
1B23
  8
0
 10
-1.0
 20
0.0
 30
0.0
 11
1.0
 21
0.0
 31
0.0
  0
ENDBLK
  5
1B24
  8
0
  0
BLOCK
  8
0
  2
_OPEN30
 70
     0
 10
0.0
 20
0.0
 30
0.0
  3
_OPEN30
  1

  0
LINE
  5
1B48
  8
0
  6
BYBLOCK
 62
     0
 10
-1.0
 20
0.26794919
 30
0.0
 11
0.0
 21
0.0
 31
0.0
  0
LINE
  5
1B49
  8
0
  6
BYBLOCK
 62
     0
 10
0.0
 20
0.0
 30
0.0
 11
-1.0
 21
-0.26794919
 31
0.0
  0
LINE
  5
1B4A
  8
0
  6
BYBLOCK
 62
     0
 10
0.0
 20
0.0
 30
0.0
 11
-1.0
 21
0.0
 31
0.0
  0
ENDBLK
  5
1B4B
  8
0
  0
BLOCK
  8
0
  2
A$C355F2691
 70
     0
 10
0.0
 20
0.0
 30
0.0
  3
A$C355F2691
  1

  0
LINE
  5
18AF
  8
240
 10
-6.8452246487140647
 20
8.706744527444215
 30
0.0
 11
-6.9519691169261932
 21
8.5999997099861218
 31
0.0
  0
LINE
  5
18B0
  8
241
 10
-6.8460796630452618
 20
8.7076018707638561
 30
0.0
 11
-3.5933867849739531
 21
5.454913176440626
 31
0.0
  0
LINE
  5
18B1
  8
241
 10
-3.3105441634497761
 20
5.4549132673920804
 30
0.0
 11
-0.2519674599170679
 21
8.5134899709429561
 31
0.0
  0
LINE
  5
18B2
  8
240
 10
-0.0578555077325992
 20
8.9904447115010981
 30
0.0
 11
-3.3110864460468288
 21
12.24367390386757
 31
0.0
  0
LINE
  5
18B3
  8
240
 10
-3.5933908734738988
 20
12.243135533109379
 30
0.0
 11
-6.8460797970045606
 21
8.9904446311808304
 31
0.0
  0
LINE
  5
18B4
  8
241
 10
-6.9519691169261932
 20
-8.6000005248934315
 30
0.0
 11
-6.9519691169261932
 21
-1.9702038262039701
 31
0.0
  0
LINE
  5
18B5
  8
240
 10
-0.2519674599170685
 20
-8.5134899709373997
 30
0.0
 11
-0.0578556442622125
 21
-8.7076017865922566
 31
0.0
  0
LINE
  5
18B6
  8
241
 10
-3.701966255903244
 20
-11.82018988765779
 30
0.0
 11
-3.2019689679145809
 21
-11.82018988765779
 31
0.0
  0
LINE
  5
18B7
  8
240
 10
-0.0578556442622125
 20
-8.990444499066875
 30
0.0
 11
-3.3110864460468288
 21
-12.243675300851489
 31
0.0
  0
LINE
  5
18B8
  8
240
 10
-3.5933909114435569
 20
-12.243136891855411
 30
0.0
 11
-6.8466179072856903
 21
-8.9899061713367985
 31
0.0
  0
LINE
  5
18B9
  8
241
 10
-3.5928525030612941
 20
-0.7499998901039647
 30
0.0
 11
-6.8466179072856903
 21
-0.7499998901039647
 31
0.0
  0
POLYLINE
  8
241
  5
1B62
  66
     1
 10
0.000000
 20
0.000000
 30
0.000000
  70
     8
  0
VERTEX
  8
241
  5
1B63
 10
-6.77873
 20
0.840000
 30
0.000000
  70
    32
  0
VERTEX
  8
241
  5
1B64
 10
-6.75939
 20
0.840000
 30
0.000000
  70
    32
  0
VERTEX
  8
241
  5
1B65
 10
-6.74005
 20
0.840000
 30
0.000000
  70
    32
  0
VERTEX
  8
241
  5
1B66
 10
-6.72071
 20
0.840000
 30
0.000000
  70
    32
  0
VERTEX
  8
241
  5
1B67
 10
-6.70137
 20
0.840000
 30
0.000000
  70
    32
  0
VERTEX
  8
241
  5
1B68
 10
-6.68203
 20
0.840000
 30
0.000000
  70
    32
  0
VERTEX
  8
241
  5
1B69
 10
-6.66269
 20
0.840000
 30
0.000000
  70
    32
  0
VERTEX
  8
241
  5
1B6A
 10
-6.64335
 20
0.840000
 30
0.000000
  70
    32
  0
VERTEX
  8
241
  5
1B6B
 10
-6.62401
 20
0.840000
 30
0.000000
  70
    32
  0
VERTEX
  8
241
  5
1B6C
 10
-6.60467
 20
0.840000
 30
0.000000
  70
    32
  0
VERTEX
  8
241
  5
1B6D
 10
-6.58533
 20
0.840000
 30
0.000000
  70
    32
  0
VERTEX
  8
241
  5
1B6E
 10
-6.56599
 20
0.840000
 30
0.000000
  70
    32
  0
VERTEX
  8
241
  5
1B6F
 10
-6.54665
 20
0.840000
 30
0.000000
  70
    32
  0
VERTEX
  8
241
  5
1B70
 10
-6.52731
 20
0.840000
 30
0.000000
  70
    32
  0
VERTEX
  8
241
  5
1B71
 10
-6.50797
 20
0.840000
 30
0.000000
  70
    32
  0
VERTEX
  8
241
  5
1B72
 10
-6.48863
 20
0.840000
 30
0.000000
  70
    32
  0
VERTEX
  8
241
  5
1B73
 10
-6.46928
 20
0.840000
 30
0.000000
  70
    32
  0
VERTEX
  8
241
  5
1B74
 10
-6.44994
 20
0.840000
 30
0.000000
  70
    32
  0
VERTEX
  8
241
  5
1B75
 10
-6.43060
 20
0.840000
 30
0.000000
  70
    32
  0
VERTEX
  8
241
  5
1B76
 10
-6.41126
 20
0.840000
 30
0.000000
  70
    32
  0
VERTEX
  8
241
  5
1B77
 10
-6.39192
 20
0.840000
 30
0.000000
  70
    32
  0
VERTEX
  8
241
  5
1B78
 10
-6.37257
 20
0.840000
 30
0.000000
  70
    32
  0
VERTEX
  8
241
  5
1B79
 10
-6.35323
 20
0.840000
 30
0.000000
  70
    32
  0
VERTEX
  8
241
  5
1B7A
 10
-6.33389
 20
0.840000
 30
0.000000
  70
    32
  0
VERTEX
  8
241
  5
1B7B
 10
-6.31454
 20
0.840000
 30
0.000000
  70
    32
  0
VERTEX
  8
241
  5
1B7C
 10
-6.29520
 20
0.840000
 30
0.000000
  70
    32
  0
VERTEX
  8
241
  5
1B7D
 10
-6.27586
 20
0.840000
 30
0.000000
  70
    32
  0
VERTEX
  8
241
  5
1B7E
 10
-6.25651
 20
0.840000
 30
0.000000
  70
    32
  0
VERTEX
  8
241
  5
1B7F
 10
-6.23717
 20
0.840000
 30
0.000000
  70
    32
  0
VERTEX
  8
241
  5
1B80
 10
-6.21782
 20
0.840000
 30
0.000000
  70
    32
  0
VERTEX
  8
241
  5
1B81
 10
-6.19848
 20
0.840000
 30
0.000000
  70
    32
  0
VERTEX
  8
241
  5
1B82
 10
-6.17913
 20
0.840000
 30
0.000000
  70
    32
  0
VERTEX
  8
241
  5
1B83
 10
-6.15979
 20
0.840000
 30
0.000000
  70
    32
  0
VERTEX
  8
241
  5
1B84
 10
-6.14044
 20
0.840000
 30
0.000000
  70
    32
  0
VERTEX
  8
241
  5
1B85
 10
-6.12110
 20
0.840000
 30
0.000000
  70
    32
  0
VERTEX
  8
241
  5
1B86
 10
-6.10175
 20
0.840000
 30
0.000000
  70
    32
  0
VERTEX
  8
241
  5
1B87
 10
-6.08241
 20
0.840000
 30
0.000000
  70
    32
  0
VERTEX
  8
241
  5
1B88
 10
-6.06306
 20
0.840000
 30
0.000000
  70
    32
  0
VERTEX
  8
241
  5
1B89
 10
-6.04371
 20
0.840000
 30
0.000000
  70
    32
  0
VERTEX
  8
241
  5
1B8A
 10
-6.02437
 20
0.840000
 30
0.000000
  70
    32
  0
VERTEX
  8
241
  5
1B8B
 10
-6.00502
 20
0.840000
 30
0.000000
  70
    32
  0
VERTEX
  8
241
  5
1B8C
 10
-5.98568
 20
0.840000
 30
0.000000
  70
    32
  0
VERTEX
  8
241
  5
1B8D
 10
-5.96633
 20
0.840000
 30
0.000000
  70
    32
  0
VERTEX
  8
241
  5
1B8E
 10
-5.94698
 20
0.840000
 30
0.000000
  70
    32
  0
VERTEX
  8
241
  5
1B8F
 10
-5.92763
 20
0.840000
 30
0.000000
  70
    32
  0
VERTEX
  8
241
  5
1B90
 10
-5.90829
 20
0.840000
 30
0.000000
  70
    32
  0
VERTEX
  8
241
  5
1B91
 10
-5.88894
 20
0.840000
 30
0.000000
  70
    32
  0
VERTEX
  8
241
  5
1B92
 10
-5.86959
 20
0.840000
 30
0.000000
  70
    32
  0
VERTEX
  8
241
  5
1B93
 10
-5.85024
 20
0.840000
 30
0.000000
  70
    32
  0
VERTEX
  8
241
  5
1B94
 10
-5.83090
 20
0.840000
 30
0.000000
  70
    32
  0
VERTEX
  8
241
  5
1B95
 10
-5.81155
 20
0.840000
 30
0.000000
  70
    32
  0
VERTEX
  8
241
  5
1B96
 10
-5.79220
 20
0.840000
 30
0.000000
  70
    32
  0
VERTEX
  8
241
  5
1B97
 10
-5.77285
 20
0.840000
 30
0.000000
  70
    32
  0
VERTEX
  8
241
  5
1B98
 10
-5.75350
 20
0.840000
 30
0.000000
  70
    32
  0
VERTEX
  8
241
  5
1B99
 10
-5.73415
 20
0.840000
 30
0.000000
  70
    32
  0
VERTEX
  8
241
  5
1B9A
 10
-5.71481
 20
0.840000
 30
0.000000
  70
    32
  0
VERTEX
  8
241
  5
1B9B
 10
-5.69546
 20
0.840000
 30
0.000000
  70
    32
  0
VERTEX
  8
241
  5
1B9C
 10
-5.67611
 20
0.840000
 30
0.000000
  70
    32
  0
VERTEX
  8
241
  5
1B9D
 10
-5.65676
 20
0.840000
 30
0.000000
  70
    32
  0
VERTEX
  8
241
  5
1B9E
 10
-5.63741
 20
0.840000
 30
0.000000
  70
    32
  0
VERTEX
  8
241
  5
1B9F
 10
-5.61806
 20
0.840000
 30
0.000000
  70
    32
  0
VERTEX
  8
241
  5
1BA0
 10
-5.59871
 20
0.840000
 30
0.000000
  70
    32
  0
VERTEX
  8
241
  5
1BA1
 10
-5.57936
 20
0.840000
 30
0.000000
  70
    32
  0
VERTEX
  8
241
  5
1BA2
 10
-5.56001
 20
0.840000
 30
0.000000
  70
    32
  0
VERTEX
  8
241
  5
1BA3
 10
-5.54066
 20
0.840000
 30
0.000000
  70
    32
  0
VERTEX
  8
241
  5
1BA4
 10
-5.52131
 20
0.840000
 30
0.000000
  70
    32
  0
VERTEX
  8
241
  5
1BA5
 10
-5.50196
 20
0.840000
 30
0.000000
  70
    32
  0
VERTEX
  8
241
  5
1BA6
 10
-5.48261
 20
0.840000
 30
0.000000
  70
    32
  0
VERTEX
  8
241
  5
1BA7
 10
-5.46326
 20
0.840000
 30
0.000000
  70
    32
  0
VERTEX
  8
241
  5
1BA8
 10
-5.44391
 20
0.840000
 30
0.000000
  70
    32
  0
VERTEX
  8
241
  5
1BA9
 10
-5.42455
 20
0.840000
 30
0.000000
  70
    32
  0
VERTEX
  8
241
  5
1BAA
 10
-5.40520
 20
0.840000
 30
0.000000
  70
    32
  0
VERTEX
  8
241
  5
1BAB
 10
-5.38585
 20
0.840000
 30
0.000000
  70
    32
  0
VERTEX
  8
241
  5
1BAC
 10
-5.36650
 20
0.840000
 30
0.000000
  70
    32
  0
VERTEX
  8
241
  5
1BAD
 10
-5.34715
 20
0.840000
 30
0.000000
  70
    32
  0
VERTEX
  8
241
  5
1BAE
 10
-5.32780
 20
0.840000
 30
0.000000
  70
    32
  0
VERTEX
  8
241
  5
1BAF
 10
-5.30845
 20
0.840000
 30
0.000000
  70
    32
  0
VERTEX
  8
241
  5
1BB0
 10
-5.28909
 20
0.840000
 30
0.000000
  70
    32
  0
VERTEX
  8
241
  5
1BB1
 10
-5.26974
 20
0.840000
 30
0.000000
  70
    32
  0
VERTEX
  8
241
  5
1BB2
 10
-5.25039
 20
0.840000
 30
0.000000
  70
    32
  0
VERTEX
  8
241
  5
1BB3
 10
-5.23104
 20
0.840000
 30
0.000000
  70
    32
  0
VERTEX
  8
241
  5
1BB4
 10
-5.21169
 20
0.840000
 30
0.000000
  70
    32
  0
VERTEX
  8
241
  5
1BB5
 10
-5.19233
 20
0.840000
 30
0.000000
  70
    32
  0
VERTEX
  8
241
  5
1BB6
 10
-5.17298
 20
0.840000
 30
0.000000
  70
    32
  0
VERTEX
  8
241
  5
1BB7
 10
-5.15363
 20
0.840000
 30
0.000000
  70
    32
  0
VERTEX
  8
241
  5
1BB8
 10
-5.13427
 20
0.840000
 30
0.000000
  70
    32
  0
VERTEX
  8
241
  5
1BB9
 10
-5.11492
 20
0.840000
 30
0.000000
  70
    32
  0
VERTEX
  8
241
  5
1BBA
 10
-5.09557
 20
0.840000
 30
0.000000
  70
    32
  0
VERTEX
  8
241
  5
1BBB
 10
-5.07622
 20
0.840000
 30
0.000000
  70
    32
  0
VERTEX
  8
241
  5
1BBC
 10
-5.05686
 20
0.840000
 30
0.000000
  70
    32
  0
VERTEX
  8
241
  5
1BBD
 10
-5.03751
 20
0.840000
 30
0.000000
  70
    32
  0
VERTEX
  8
241
  5
1BBE
 10
-5.01816
 20
0.840000
 30
0.000000
  70
    32
  0
VERTEX
  8
241
  5
1BBF
 10
-4.99880
 20
0.840000
 30
0.000000
  70
    32
  0
VERTEX
  8
241
  5
1BC0
 10
-4.97945
 20
0.840000
 30
0.000000
  70
    32
  0
VERTEX
  8
241
  5
1BC1
 10
-4.96009
 20
0.840000
 30
0.000000
  70
    32
  0
VERTEX
  8
241
  5
1BC2
 10
-4.94074
 20
0.840000
 30
0.000000
  70
    32
  0
VERTEX
  8
241
  5
1BC3
 10
-4.92139
 20
0.840000
 30
0.000000
  70
    32
  0
VERTEX
  8
241
  5
1BC4
 10
-4.90203
 20
0.840000
 30
0.000000
  70
    32
  0
VERTEX
  8
241
  5
1BC5
 10
-4.88268
 20
0.840000
 30
0.000000
  70
    32
  0
VERTEX
  8
241
  5
1BC6
 10
-4.86332
 20
0.840000
 30
0.000000
  70
    32
  0
VERTEX
  8
241
  5
1BC7
 10
-4.84397
 20
0.840000
 30
0.000000
  70
    32
  0
VERTEX
  8
241
  5
1BC8
 10
-4.82462
 20
0.840000
 30
0.000000
  70
    32
  0
VERTEX
  8
241
  5
1BC9
 10
-4.80526
 20
0.840000
 30
0.000000
  70
    32
  0
VERTEX
  8
241
  5
1BCA
 10
-4.78591
 20
0.840000
 30
0.000000
  70
    32
  0
VERTEX
  8
241
  5
1BCB
 10
-4.76655
 20
0.840000
 30
0.000000
  70
    32
  0
VERTEX
  8
241
  5
1BCC
 10
-4.74720
 20
0.840000
 30
0.000000
  70
    32
  0
VERTEX
  8
241
  5
1BCD
 10
-4.72784
 20
0.840000
 30
0.000000
  70
    32
  0
VERTEX
  8
241
  5
1BCE
 10
-4.70849
 20
0.840000
 30
0.000000
  70
    32
  0
VERTEX
  8
241
  5
1BCF
 10
-4.68913
 20
0.840000
 30
0.000000
  70
    32
  0
VERTEX
  8
241
  5
1BD0
 10
-4.66978
 20
0.840000
 30
0.000000
  70
    32
  0
VERTEX
  8
241
  5
1BD1
 10
-4.65042
 20
0.840000
 30
0.000000
  70
    32
  0
VERTEX
  8
241
  5
1BD2
 10
-4.63107
 20
0.840000
 30
0.000000
  70
    32
  0
VERTEX
  8
241
  5
1BD3
 10
-4.61171
 20
0.840000
 30
0.000000
  70
    32
  0
VERTEX
  8
241
  5
1BD4
 10
-4.59236
 20
0.840000
 30
0.000000
  70
    32
  0
VERTEX
  8
241
  5
1BD5
 10
-4.57300
 20
0.840000
 30
0.000000
  70
    32
  0
VERTEX
  8
241
  5
1BD6
 10
-4.55365
 20
0.840000
 30
0.000000
  70
    32
  0
VERTEX
  8
241
  5
1BD7
 10
-4.53429
 20
0.840000
 30
0.000000
  70
    32
  0
VERTEX
  8
241
  5
1BD8
 10
-4.51494
 20
0.840000
 30
0.000000
  70
    32
  0
VERTEX
  8
241
  5
1BD9
 10
-4.49558
 20
0.840000
 30
0.000000
  70
    32
  0
VERTEX
  8
241
  5
1BDA
 10
-4.47622
 20
0.840000
 30
0.000000
  70
    32
  0
VERTEX
  8
241
  5
1BDB
 10
-4.45687
 20
0.840000
 30
0.000000
  70
    32
  0
VERTEX
  8
241
  5
1BDC
 10
-4.43751
 20
0.840000
 30
0.000000
  70
    32
  0
VERTEX
  8
241
  5
1BDD
 10
-4.41816
 20
0.840000
 30
0.000000
  70
    32
  0
VERTEX
  8
241
  5
1BDE
 10
-4.39880
 20
0.840000
 30
0.000000
  70
    32
  0
VERTEX
  8
241
  5
1BDF
 10
-4.37945
 20
0.840000
 30
0.000000
  70
    32
  0
VERTEX
  8
241
  5
1BE0
 10
-4.36009
 20
0.840000
 30
0.000000
  70
    32
  0
VERTEX
  8
241
  5
1BE1
 10
-4.34073
 20
0.840000
 30
0.000000
  70
    32
  0
VERTEX
  8
241
  5
1BE2
 10
-4.32138
 20
0.840000
 30
0.000000
  70
    32
  0
VERTEX
  8
241
  5
1BE3
 10
-4.30202
 20
0.840000
 30
0.000000
  70
    32
  0
VERTEX
  8
241
  5
1BE4
 10
-4.28267
 20
0.840000
 30
0.000000
  70
    32
  0
VERTEX
  8
241
  5
1BE5
 10
-4.26331
 20
0.840000
 30
0.000000
  70
    32
  0
VERTEX
  8
241
  5
1BE6
 10
-4.24395
 20
0.840000
 30
0.000000
  70
    32
  0
VERTEX
  8
241
  5
1BE7
 10
-4.22460
 20
0.840000
 30
0.000000
  70
    32
  0
VERTEX
  8
241
  5
1BE8
 10
-4.20524
 20
0.840000
 30
0.000000
  70
    32
  0
VERTEX
  8
241
  5
1BE9
 10
-4.18588
 20
0.840000
 30
0.000000
  70
    32
  0
VERTEX
  8
241
  5
1BEA
 10
-4.16653
 20
0.840000
 30
0.000000
  70
    32
  0
VERTEX
  8
241
  5
1BEB
 10
-4.14717
 20
0.840000
 30
0.000000
  70
    32
  0
VERTEX
  8
241
  5
1BEC
 10
-4.12781
 20
0.840000
 30
0.000000
  70
    32
  0
VERTEX
  8
241
  5
1BED
 10
-4.10846
 20
0.840000
 30
0.000000
  70
    32
  0
VERTEX
  8
241
  5
1BEE
 10
-4.08910
 20
0.840000
 30
0.000000
  70
    32
  0
VERTEX
  8
241
  5
1BEF
 10
-4.06974
 20
0.840000
 30
0.000000
  70
    32
  0
VERTEX
  8
241
  5
1BF0
 10
-4.05039
 20
0.840000
 30
0.000000
  70
    32
  0
VERTEX
  8
241
  5
1BF1
 10
-4.03103
 20
0.840000
 30
0.000000
  70
    32
  0
VERTEX
  8
241
  5
1BF2
 10
-4.01167
 20
0.840000
 30
0.000000
  70
    32
  0
VERTEX
  8
241
  5
1BF3
 10
-3.99232
 20
0.840000
 30
0.000000
  70
    32
  0
VERTEX
  8
241
  5
1BF4
 10
-3.97296
 20
0.840000
 30
0.000000
  70
    32
  0
VERTEX
  8
241
  5
1BF5
 10
-3.95360
 20
0.840000
 30
0.000000
  70
    32
  0
VERTEX
  8
241
  5
1BF6
 10
-3.93425
 20
0.840000
 30
0.000000
  70
    32
  0
VERTEX
  8
241
  5
1BF7
 10
-3.91489
 20
0.840000
 30
0.000000
  70
    32
  0
VERTEX
  8
241
  5
1BF8
 10
-3.89553
 20
0.840000
 30
0.000000
  70
    32
  0
VERTEX
  8
241
  5
1BF9
 10
-3.87618
 20
0.840000
 30
0.000000
  70
    32
  0
VERTEX
  8
241
  5
1BFA
 10
-3.85682
 20
0.840000
 30
0.000000
  70
    32
  0
VERTEX
  8
241
  5
1BFB
 10
-3.83746
 20
0.840000
 30
0.000000
  70
    32
  0
VERTEX
  8
241
  5
1BFC
 10
-3.81811
 20
0.840000
 30
0.000000
  70
    32
  0
VERTEX
  8
241
  5
1BFD
 10
-3.79875
 20
0.840000
 30
0.000000
  70
    32
  0
VERTEX
  8
241
  5
1BFE
 10
-3.77939
 20
0.840000
 30
0.000000
  70
    32
  0
VERTEX
  8
241
  5
1BFF
 10
-3.76004
 20
0.840000
 30
0.000000
  70
    32
  0
VERTEX
  8
241
  5
1C00
 10
-3.74068
 20
0.840000
 30
0.000000
  70
    32
  0
VERTEX
  8
241
  5
1C01
 10
-3.72132
 20
0.840000
 30
0.000000
  70
    32
  0
VERTEX
  8
241
  5
1C02
 10
-3.70197
 20
0.840000
 30
0.000000
  70
    32
  0
SEQEND
  8
241
  5
1C03
  0
LINE
  5
18BB
  8
241
 10
-4.053063690662384
 20
0.8399996440857364
 30
0.0
 11
-6.4437314867973319
 21
0.8399996440857364
 31
0.0
  0
LINE
  5
18BC
  8
241
 10
-6.9519691169261932
 20
-1.1273373384028951
 30
0.0
 11
-6.9519691169261932
 21
8.3712778287008121
 31
0.0
  0
LINE
  5
18BD
  8
241
 10
-61.251966223854872
 20
8.8694598741330122
 30
0.0
 11
-61.251966223854872
 21
-8.8694601396147732
 31
0.0
  0
LINE
  5
18BE
  8
245
 10
-145.2977217409663
 20
-0.0000000000000284
 30
0.0
 11
1.647534381872787
 21
0.0
 31
0.0
  0
ARC
  5
18BF
  8
240
 10
-140.65196804712889
 20
7.9999998672591062
 30
0.0
 40
2.0
 50
90.0
 51
180.0
  0
ARC
  5
18C0
  8
240
 10
-140.65196804712889
 20
-8.0000001327408352
 30
0.0
 40
2.0
 50
180.0
 51
270.0
  0
LINE
  5
18C1
  8
240
 10
-142.65196770429611
 20
-7.9999995386970113
 30
0.0
 11
-142.65196770429611
 21
7.9999998242783468
 31
0.0
  0
LINE
  5
18C2
  8
240
 10
-62.13064678013324
 20
9.4786795352774789
 30
0.0
 11
-62.651967629790299
 21
9.9999998665225576
 31
0.0
  0
ARC
  5
18C3
  8
240
 10
-60.009327360009593
 20
11.5999998672591
 30
0.0
 40
3.0
 50
225.0
 51
270.0
  0
LINE
  5
18C4
  8
240
 10
-62.651967629790299
 20
-9.9999998665225576
 30
0.0
 11
-62.13064678013324
 21
-9.4786790168654989
 31
0.0
  0
ARC
  5
18C5
  8
240
 10
-60.009327360009593
 20
-11.60000013274089
 30
0.0
 40
2.9999999999999711
 50
90.0
 51
135.0
  0
LINE
  5
18C6
  8
241
 10
-62.651967629790299
 20
-9.9999998665225576
 30
0.0
 11
-62.651967629790299
 21
9.9999998665225576
 31
0.0
  0
LINE
  5
18C7
  8
240
 10
-140.65197110176089
 20
-9.9999998665225576
 30
0.0
 11
-62.651967629790299
 21
-9.9999998665225576
 31
0.0
  0
LINE
  5
18C8
  8
240
 10
-62.651967629790299
 20
9.9999998665225576
 30
0.0
 11
-140.65197110176089
 21
9.9999998665225576
 31
0.0
  0
LINE
  5
18C9
  8
240
 10
-60.009326785802841
 20
-8.6000003821027349
 30
0.0
 11
-6.9519691169261932
 21
-8.6000003821027349
 31
0.0
  0
LINE
  5
18CA
  8
240
 10
-6.9519691169261932
 20
8.5999998527768184
 30
0.0
 11
-60.009326785802841
 21
8.5999998527768184
 31
0.0
  0
LINE
  5
18CB
  8
241
 10
-6.9519691169261932
 20
8.5999998527768184
 30
0.0
 11
-6.9519691169261932
 21
-8.6000005248934315
 31
0.0
  0
LINE
  5
18CC
  8
241
 10
-0.2519674599170692
 20
-8.8213088456541584
 30
0.0
 11
-0.2519674599170692
 21
-8.5134899709373997
 31
0.0
  0
LINE
  5
18CD
  8
241
 10
-6.7787282168865204
 20
0.8399996440857364
 30
0.0
 11
-0.4602037370204926
 21
0.8399996440857364
 31
0.0
  0
LINE
  5
18CE
  8
241
 10
-6.9051045770500608
 20
-0.7499998901039647
 30
0.0
 11
-0.2519674599170687
 21
-0.7499998901039647
 31
0.0
  0
LINE
  5
18CF
  8
241
 10
-6.7787282168865204
 20
0.8399996440857364
 30
0.0
 11
-6.905104576880861
 21
-0.7499998879751816
 31
0.0
  0
LINE
  5
18D0
  8
241
 10
-0.4602037370204926
 20
0.8399996440857364
 30
0.0
 11
-0.2519674599170687
 21
0.1223687494297864
 31
0.0
  0
LINE
  5
18D1
  8
241
 10
-0.2519674599170692
 20
-8.8213088456541584
 30
0.0
 11
-3.2019689679145809
 21
-11.82018988765779
 31
0.0
  0
LINE
  5
18D2
  8
241
 10
-3.701966255903244
 20
-11.82018988765779
 30
0.0
 11
-6.8447254016799581
 21
-8.7062604532156342
 31
0.0
  0
ARC
  5
18D3
  8
240
 10
-3.4519694742277589
 20
12.101714219880909
 30
0.0
 40
0.2
 50
45.00001537472729
 51
135.0000174247009
1001
GENIUS_GENODEF_13
1002
{
1000
HIER
1070
     0
1002
}
1002
{
1000
MANEDIT
1070
     0
1002
}
1002
{
1000
NOSEL
1070
     0
1002
}
1002
{
1000
BEHIND
1070
     0
1002
}
1002
{
1000
OTHER
1070
     0
1002
}
1002
{
1000
REACTOR
1002
}
1001
GENIUS_GENOBJ-N-FIL_13
1002
{
1000
OWNER
1000
GEN
1002
}
  0
ARC
  5
18D4
  8
240
 10
-0.1992768260209516
 20
8.8490233173148436
 30
0.0
 40
0.2
 50
315.0
 51
45.00001537472729
1001
GENIUS_GENODEF_13
1002
{
1000
HIER
1070
     0
1002
}
1002
{
1000
MANEDIT
1070
     0
1002
}
1002
{
1000
NOSEL
1070
     0
1002
}
1002
{
1000
BEHIND
1070
     0
1002
}
1002
{
1000
OTHER
1070
     0
1002
}
1002
{
1000
REACTOR
1002
}
1001
GENIUS_GENOBJ-N-FIL_13
1002
{
1000
OWNER
1000
GEN
1002
}
  0
ARC
  5
18D5
  8
241
 10
-3.45196551968762
 20
5.596334623628854
 30
0.0
 40
0.2
 50
225.00003684807979
 51
315.00000000021669
1001
GENIUS_GENODEF_13
1002
{
1000
HIER
1070
     0
1002
}
1002
{
1000
MANEDIT
1070
     0
1002
}
1002
{
1000
NOSEL
1070
     0
1002
}
1002
{
1000
BEHIND
1070
     0
1002
}
1002
{
1000
OTHER
1070
     0
1002
}
1002
{
1000
REACTOR
1002
}
1001
GENIUS_GENOBJ-N-FIL_13
1002
{
1000
OWNER
1000
GEN
1002
}
  0
ARC
  5
18D6
  8
240
 10
-6.7046583977588146
 20
8.8490233179519695
 30
0.0
 40
0.2
 50
135.0000174245412
 51
225.0000368480334
1001
GENIUS_GENODEF_13
1002
{
1000
HIER
1070
     0
1002
}
1002
{
1000
MANEDIT
1070
     0
1002
}
1002
{
1000
NOSEL
1070
     0
1002
}
1002
{
1000
BEHIND
1070
     0
1002
}
1002
{
1000
OTHER
1070
     0
1002
}
1002
{
1000
REACTOR
1002
}
1001
GENIUS_GENOBJ-N-FIL_13
1002
{
1000
OWNER
1000
GEN
1002
}
  0
CIRCLE
  5
18D7
  8
246
 10
-3.4519685432225011
 20
8.8490229682288355
 30
0.0
 40
2.5
  0
ARC
  5
18D8
  8
240
 10
-3.4519694742484819
 20
-12.101715616575911
 30
0.0
 40
0.2
 50
224.9999672005718
 51
315.0
1001
GENIUS_GENODEF_13
1002
{
1000
HIER
1070
     0
1002
}
1002
{
1000
MANEDIT
1070
     0
1002
}
1002
{
1000
NOSEL
1070
     0
1002
}
1002
{
1000
BEHIND
1070
     0
1002
}
1002
{
1000
OTHER
1070
     0
1002
}
1002
{
1000
REACTOR
1002
}
1001
GENIUS_GENOBJ-N-FIL_13
1002
{
1000
OWNER
1000
GEN
1002
}
  0
ARC
  5
18D9
  8
240
 10
-0.199277000499522
 20
-8.8490231428295658
 30
0.0
 40
0.2
 50
315.0
 51
45.0
1001
GENIUS_GENODEF_13
1002
{
1000
HIER
1070
     0
1002
}
1002
{
1000
MANEDIT
1070
     0
1002
}
1002
{
1000
NOSEL
1070
     0
1002
}
1002
{
1000
BEHIND
1070
     0
1002
}
1002
{
1000
OTHER
1070
     0
1002
}
1002
{
1000
REACTOR
1002
}
1001
GENIUS_GENOBJ-N-FIL_13
1002
{
1000
OWNER
1000
GEN
1002
}
  0
ARC
  5
18DA
  8
240
 10
-6.7046582233183027
 20
-8.8490231428295658
 30
0.0
 40
0.2
 50
134.45395886315731
 51
225.0
1001
GENIUS_GENODEF_13
1002
{
1000
HIER
1070
     0
1002
}
1002
{
1000
MANEDIT
1070
     0
1002
}
1002
{
1000
NOSEL
1070
     0
1002
}
1002
{
1000
BEHIND
1070
     0
1002
}
1002
{
1000
OTHER
1070
     0
1002
}
1002
{
1000
REACTOR
1002
}
1001
GENIUS_GENOBJ-N-FIL_13
1002
{
1000
OWNER
1000
GEN
1002
}
  0
LINE
  5
18DB
  8
240
 10
-6.8447254016799581
 20
-8.7062604532156342
 30
0.0
 11
-6.9519691169261932
 21
-8.6000005248934315
 31
0.0
  0
LINE
  5
18DC
  8
240
 10
-0.2519674599170692
 20
-8.5134899709373997
 30
0.0
 11
-0.2519674599170687
 21
-0.7499998901039647
 31
0.0
  0
LINE
  5
18DD
  8
240
 10
-0.2519674599170687
 20
0.1223687494297856
 30
0.0
 11
-0.2519674599170683
 21
8.5134899709429561
 31
0.0
  0
LINE
  5
18DE
  8
240
 10
-0.2519674599170687
 20
0.1223687494297864
 30
0.0
 11
0.0011693533264285
 21
-0.7499998901039647
 31
0.0
  0
LINE
  5
18DF
  8
240
 10
-0.2519674599170687
 20
-0.7499998901039647
 30
0.0
 11
0.0011693533264285
 21
-0.7499998901039647
 31
0.0
  0
LINE
  5
18E0
  8
240
 10
-0.2519674599170679
 20
8.5134899709429561
 30
0.0
 11
-0.0578554697836421
 21
8.7076019610775344
 31
0.0
  0
TEXT
  5
18E1
  8
247
 10
-127.13769273231171
 20
-7.697825590206067
 30
0.0
 40
2.0
  1
ST20-C1924-45B-60
 41
0.7
  7
YOKO
 11
-127.13769273231171
 21
-7.697825590206067
 31
0.0
 73
     1
  0
LINE
  5
18E2
  8
247
 10
-131.8054412593375
 20
-5.5501824048386101
 30
0.0
 11
-131.1999803218375
 21
-5.5501824048386101
 31
0.0
  0
LINE
  5
18E3
  8
247
 10
-131.80077426714999
 20
-7.645407288871783
 30
0.0
 11
-131.1999803218375
 21
-5.5501824048386101
 31
0.0
  0
LINE
  5
18E4
  8
247
 10
-134.114705907775
 20
-7.9946143141303052
 30
0.0
 11
-129.38880063433751
 21
-7.9946143141303052
 31
0.0
  0
LINE
  5
18E5
  8
247
 10
-134.114705907775
 20
-7.7618096326218078
 30
0.0
 11
-129.38880063433751
 21
-7.7618096326218078
 31
0.0
  0
ARC
  5
18E6
  8
247
 10
-130.5908631343375
 20
-6.8888005689011038
 30
0.0
 40
0.756615234375
 50
163.99975070172931
 51
304.9638732916307
  0
ARC
  5
18E7
  8
247
 10
-134.114705907775
 20
-6.7723982251511057
 30
0.0
 40
0.9894111328124999
 50
90.0
 51
270.0
  0
ARC
  5
18E8
  8
247
 10
-134.114705907775
 20
-6.7723982251511057
 30
0.0
 40
1.2222158203124971
 50
90.0
 51
270.0
  0
LINE
  5
18E9
  8
247
 10
-132.32147348589999
 20
-7.645407288871783
 30
0.0
 11
-131.80077426714999
 21
-7.645407288871783
 31
0.0
  0
LINE
  5
18EA
  8
247
 10
-132.80534658123079
 20
-7.6017714047024478
 30
0.0
 11
-132.4880856579112
 21
-7.2845104813828829
 31
0.0
  0
LINE
  5
18EB
  8
247
 10
-133.88350797054721
 20
-7.645407288871783
 30
0.0
 11
-133.22146708221419
 21
-6.9833664005388156
 31
0.0
  0
LINE
  5
18EC
  8
247
 10
-133.62487659426051
 20
-7.645407288871783
 30
0.0
 11
-133.32543788216699
 21
-7.345968576778378
 31
0.0
  0
LINE
  5
18ED
  8
247
 10
-133.10761384168691
 20
-7.6454072888718096
 30
0.0
 11
-132.44945418675519
 21
-6.987247633940088
 31
0.0
  0
LINE
  5
18EE
  8
247
 10
-133.14602874502219
 20
-6.7202722890175748
 30
0.0
 11
-133.3368127078113
 21
-7.3856387200767744
 31
0.0
  0
ARC
  5
18EF
  8
247
 10
-133.28617856402499
 20
-7.0401218579635829
 30
0.0
 40
0.3492072715759277
 50
261.66285421114719
 51
66.338192159113575
  0
LINE
  5
18F0
  8
247
 10
-133.3662452179737
 20
-7.645407288871783
 30
0.0
 11
-132.51203188816299
 21
-6.7911939590611343
 31
0.0
  0
LINE
  5
18F1
  8
247
 10
-133.9925467280874
 20
-7.645407288871783
 30
0.0
 11
-133.02645297808749
 21
-7.645407288871783
 31
0.0
  0
LINE
  5
18F2
  8
247
 10
-133.93240682587151
 20
-7.4356747679093482
 30
0.0
 11
-132.9473857918191
 21
-6.4506537338569121
 31
0.0
  0
LINE
  5
18F3
  8
247
 10
-133.82843066842361
 20
-7.073067234174661
 30
0.0
 11
-133.0135141595521
 21
-6.2581507253030413
 31
0.0
  0
ARC
  5
18F4
  8
247
 10
-133.02645297808749
 20
-7.0634040845261259
 30
0.0
 40
0.5820029296875
 50
270.0
 51
40.329840654167192
  0
LINE
  5
18F5
  8
247
 10
-132.94502517853689
 20
-6.9655558731482197
 30
0.0
 11
-132.18164878742161
 21
-6.2021794820328777
 31
0.0
  0
LINE
  5
18F6
  8
247
 10
-131.87887387652501
 20
-5.8062605298385987
 30
0.0
 11
-131.8054412593375
 21
-5.5501824048386101
 31
0.0
  0
LINE
  5
18F7
  8
247
 10
-131.87887387652501
 20
-5.8062605298385987
 30
0.0
 11
-131.79410336871251
 21
-5.8062605298385987
 31
0.0
  0
LINE
  5
18F8
  8
247
 10
-132.8296231342928
 20
-5.8156283237569841
 30
0.0
 11
-132.58952522993371
 21
-5.5755304193978086
 31
0.0
  0
LINE
  5
18F9
  8
247
 10
-133.57287603173481
 20
-5.7829870923386597
 30
0.0
 11
-133.34007134423479
 21
-5.550182404838667
 31
0.0
  0
LINE
  5
18FA
  8
247
 10
-133.6339353999625
 20
-5.5501824048386101
 30
0.0
 11
-133.70068832965001
 21
-5.7829870923386038
 31
0.0
  0
LINE
  5
18FB
  8
247
 10
-133.51284848589989
 20
-5.5501824048386101
 30
0.0
 11
-133.5796014155878
 21
-5.7829870923386038
 31
0.0
  0
LINE
  5
18FC
  8
247
 10
-133.51284848589989
 20
-5.5501824048386101
 30
0.0
 11
-132.7618313642221
 21
-5.5501824048386963
 31
0.0
  0
LINE
  5
18FD
  8
247
 10
-134.114705907775
 20
-5.5501824048386101
 30
0.0
 11
-133.6339353999625
 21
-5.5501824048386101
 31
0.0
  0
LINE
  5
18FE
  8
247
 10
-132.70725517053091
 20
-5.9518917362819366
 30
0.0
 11
-132.41696493036989
 21
-5.6616014961207979
 31
0.0
  0
LINE
  5
18FF
  8
247
 10
-133.5796014155878
 20
-5.7829870923386038
 30
0.0
 11
-133.4585057124628
 21
-5.7829870923393427
 31
0.0
  0
LINE
  5
1900
  8
247
 10
-134.114705907775
 20
-5.7829870923386038
 30
0.0
 11
-133.70068832965001
 21
-5.7829870923386038
 31
0.0
  0
LINE
  5
1901
  8
247
 10
-133.5165021960799
 20
-5.9852446329704794
 30
0.0
 11
-133.08143996794811
 21
-5.550182404838667
 31
0.0
  0
LINE
  5
1902
  8
247
 10
-132.6774162193818
 20
-6.1806841614194949
 30
0.0
 11
-132.2878400497311
 21
-5.7911079917687687
 31
0.0
  0
ARC
  5
1903
  8
247
 10
-132.7594324702749
 20
-6.1321853345260973
 30
0.0
 40
0.5820078735351563
 50
287.66957754739968
 51
90.236159842671583
  0
LINE
  5
1904
  8
247
 10
-133.6204783535278
 20
-6.3478521667052252
 30
0.0
 11
-132.8228085916613
 21
-5.5501824048386963
 31
0.0
  0
LINE
  5
1905
  8
247
 10
-133.03530576719751
 20
-6.7972050855220534
 30
0.0
 11
-132.20221914376091
 21
-5.964118462085426
 31
0.0
  0
LINE
  5
1906
  8
247
 10
-132.32147348589999
 20
-7.645407288871783
 30
0.0
 11
-131.79410336871251
 21
-5.8062605298385987
 31
0.0
  0
LINE
  5
1907
  8
247
 10
-132.87901101577631
 20
-5.7890720182843181
 30
0.0
 11
-133.0697918399797
 21
-6.4544187144958602
 31
0.0
  0
ARC
  5
1908
  8
247
 10
-133.01915805621249
 20
-6.1089118970261307
 30
0.0
 40
0.349197280883789
 50
261.6626016879294
 51
66.338155095189734
  0
LINE
  5
1909
  8
247
 10
-133.72445451097579
 20
-6.7104597004399142
 30
0.0
 11
-132.90954143407129
 21
-5.8955466235354397
 31
0.0
  0
LINE
  5
190A
  8
247
 10
-133.9925467280874
 20
-7.645407288871783
 30
0.0
 11
-133.4585057124628
 21
-5.7829870923393427
 31
0.0
  0
ARC
  5
190B
  8
247
 10
-129.38880063433751
 20
-6.772398225151111
 30
0.0
 40
1.2222158203124971
 50
270.0
 51
104.7707939660925
  0
ARC
  5
190C
  8
247
 10
-129.38880063433751
 20
-6.772398225151111
 30
0.0
 40
0.9894111328124999
 50
270.0
 51
104.1274364964102
  0
LINE
  5
190D
  8
247
 10
-130.38088364215
 20
-7.2122556470261001
 30
0.0
 11
-130.23139047808749
 21
-6.6909148267135956
 31
0.0
  0
LINE
  5
190E
  8
247
 10
-130.4251365718375
 20
-6.6909148267135956
 30
0.0
 11
-130.23139047808749
 21
-6.6909148267135956
 31
0.0
  0
LINE
  5
190F
  8
247
 10
-130.15728110308751
 20
-7.5088516248093269
 30
0.0
 11
-130.02071664996251
 21
-7.645407288871783
 31
0.0
  0
LINE
  5
1910
  8
247
 10
-130.4251365718375
 20
-6.6909148267135956
 30
0.0
 11
-130.35838364214999
 21
-6.4581101392136047
 31
0.0
  0
LINE
  5
1911
  8
247
 10
-130.35838364214999
 20
-6.4581101392136047
 30
0.0
 11
-129.6802635249625
 21
-6.4581101392136047
 31
0.0
  0
LINE
  5
1912
  8
247
 10
-130.02071664996251
 20
-7.645407288871783
 30
0.0
 11
-129.6802635249625
 21
-6.4581101392136047
 31
0.0
  0
LINE
  5
1913
  8
247
 10
-129.63029770464999
 20
-5.8129050610885997
 30
0.0
 11
-129.7004080562125
 21
-5.5905681470261204
 31
0.0
  0
LINE
  5
1914
  8
247
 10
-129.74131235308749
 20
-5.847911897026111
 30
0.0
 11
-129.81142270465
 21
-5.6255749829635722
 31
0.0
  0
ARC
  5
1915
  8
247
 10
-129.38880063433751
 20
-6.772398225151111
 30
0.0
 40
1.222216369628905
 50
110.22964506332001
 51
118.57168892371681
  0
ARC
  5
1916
  8
247
 10
-130.30210727496251
 20
-6.0507107251511076
 30
0.0
 40
0.2444448051452637
 50
1.7101213820627319
 51
163.99839835444729
  0
ARC
  5
1917
  8
247
 10
-129.38880063433751
 20
-6.772398225151111
 30
0.0
 40
0.9894138793945311
 50
110.8721834020737
 51
132.5419489373877
  0
ARC
  5
1918
  8
247
 10
-129.35383774371249
 20
-6.9285798657761024
 30
0.0
 40
1.9799648437499999
 50
155.20517736984081
 51
172.79482596205219
  0
ARC
  5
1919
  8
247
 10
-130.61585922808749
 20
-7.1448786939011226
 30
0.0
 40
0.2444446334838867
 50
164.0002730571822
 51
344.00027305718243
  0
LINE
  5
191A
  8
247
 10
-130.85083481402501
 20
-7.0775017407761167
 30
0.0
 11
-130.5370828609
 21
-5.9833249829636097
 31
0.0
  0
ARC
  5
191B
  8
247
 10
-130.4239764155875
 20
-6.3067888501510954
 30
0.0
 40
0.7566075439453125
 50
53.444012197057539
 51
164.0001843876851
  0
LINE
  5
191C
  8
247
 10
-129.63029770464999
 20
-5.8129050610885997
 30
0.0
 11
-129.7004080562125
 21
-5.5905681470261204
 31
0.0
  0
LINE
  5
191D
  8
247
 10
-129.7004080562125
 20
-5.5905681470261204
 30
0.0
 11
-129.7004080562125
 21
-5.5905681470261204
 31
0.0
  0
LINE
  5
191E
  8
247
 10
-129.7004080562125
 20
-5.5905681470261204
 30
0.0
 11
-129.63029770464999
 21
-5.8129050610885997
 31
0.0
  0
LINE
  5
191F
  8
247
 10
-129.63029770464999
 20
-5.8129050610885997
 30
0.0
 11
-129.63029770464999
 21
-5.8129050610885997
 31
0.0
  0
LINE
  5
1920
  8
247
 10
-129.63029770464999
 20
-5.8129050610885997
 30
0.0
 11
-129.7004080562125
 21
-5.5905681470261204
 31
0.0
1001
HATCH_DISTANCE
1040
1.0
1001
HATCH_DISPLAY
1070
     0
1001
HATCH_TYPE
1070
     7
  0
LINE
  5
1921
  8
247
 10
-129.7004080562125
 20
-5.5905681470261204
 30
0.0
 11
-129.7004080562125
 21
-5.5905681470261204
 31
0.0
1001
HATCH_DISTANCE
1040
1.0
1001
HATCH_DISPLAY
1070
     0
1001
HATCH_TYPE
1070
     7
  0
LINE
  5
1922
  8
247
 10
-129.7004080562125
 20
-5.5905681470261204
 30
0.0
 11
-129.63029770464999
 21
-5.8129050610885997
 31
0.0
1001
HATCH_DISTANCE
1040
1.0
1001
HATCH_DISPLAY
1070
     0
1001
HATCH_TYPE
1070
     7
  0
LINE
  5
1923
  8
247
 10
-129.63029770464999
 20
-5.8129050610885997
 30
0.0
 11
-129.63029770464999
 21
-5.8129050610885997
 31
0.0
1001
HATCH_DISTANCE
1040
1.0
1001
HATCH_DISPLAY
1070
     0
1001
HATCH_TYPE
1070
     7
  0
LINE
  5
1924
  8
247
 10
-129.63029770464999
 20
-5.8129050610885997
 30
0.0
 11
-129.7004080562125
 21
-5.5905681470261204
 31
0.0
  0
LINE
  5
1925
  8
247
 10
-129.7004080562125
 20
-5.5905681470261204
 30
0.0
 11
-129.7004080562125
 21
-5.5905681470261204
 31
0.0
  0
LINE
  5
1926
  8
247
 10
-129.7004080562125
 20
-5.5905681470261204
 30
0.0
 11
-129.63029770464999
 21
-5.8129050610885997
 31
0.0
  0
LINE
  5
1927
  8
247
 10
-129.63029770464999
 20
-5.8129050610885997
 30
0.0
 11
-129.63029770464999
 21
-5.8129050610885997
 31
0.0
  0
LINE
  5
1928
  8
247
 10
-129.63029770464999
 20
-5.8129050610885997
 30
0.0
 11
-129.7004080562125
 21
-5.5905681470261204
 31
0.0
1001
HATCH_DISTANCE
1040
1.0
1001
HATCH_DISPLAY
1070
     0
1001
HATCH_TYPE
1070
     7
  0
LINE
  5
1929
  8
247
 10
-129.7004080562125
 20
-5.5905681470261204
 30
0.0
 11
-129.7004080562125
 21
-5.5905681470261204
 31
0.0
1001
HATCH_DISTANCE
1040
1.0
1001
HATCH_DISPLAY
1070
     0
1001
HATCH_TYPE
1070
     7
  0
LINE
  5
192A
  8
247
 10
-129.7004080562125
 20
-5.5905681470261204
 30
0.0
 11
-129.63029770464999
 21
-5.8129050610885997
 31
0.0
1001
HATCH_DISTANCE
1040
1.0
1001
HATCH_DISPLAY
1070
     0
1001
HATCH_TYPE
1070
     7
  0
LINE
  5
192B
  8
247
 10
-129.63029770464999
 20
-5.8129050610885997
 30
0.0
 11
-129.63029770464999
 21
-5.8129050610885997
 31
0.0
1001
HATCH_DISTANCE
1040
1.0
1001
HATCH_DISPLAY
1070
     0
1001
HATCH_TYPE
1070
     7
  0
LINE
  5
192C
  8
247
 10
-131.8054412593375
 20
-5.5501824048386101
 30
0.0
 11
-131.87887387652501
 21
-5.8062605298385987
 31
0.0
  0
LINE
  5
192D
  8
247
 10
-131.87887387652501
 20
-5.8062605298385987
 30
0.0
 11
-131.79410336871251
 21
-5.8062605298385987
 31
0.0
  0
LINE
  5
192E
  8
247
 10
-131.79410336871251
 20
-5.8062605298385987
 30
0.0
 11
-132.3214734859001
 21
-7.645407288871783
 31
0.0
  0
LINE
  5
192F
  8
247
 10
-132.3214734859001
 20
-7.645407288871783
 30
0.0
 11
-131.80077426714999
 21
-7.645407288871783
 31
0.0
  0
LINE
  5
1930
  8
247
 10
-131.80077426714999
 20
-7.645407288871783
 30
0.0
 11
-131.1999803218375
 21
-5.5501824048386101
 31
0.0
  0
LINE
  5
1931
  8
247
 10
-131.1999803218375
 20
-5.5501824048386101
 30
0.0
 11
-131.8054412593375
 21
-5.5501824048386101
 31
0.0
  0
LINE
  5
1932
  8
247
 10
-131.8054412593375
 20
-5.5501824048386101
 30
0.0
 11
-131.87887387652501
 21
-5.8062605298385987
 31
0.0
1001
HATCH_DISTANCE
1040
1.0
1001
HATCH_DISPLAY
1070
     0
1001
HATCH_TYPE
1070
     7
  0
LINE
  5
1933
  8
247
 10
-131.87887387652501
 20
-5.8062605298385987
 30
0.0
 11
-131.79410336871251
 21
-5.8062605298385987
 31
0.0
1001
HATCH_DISTANCE
1040
1.0
1001
HATCH_DISPLAY
1070
     0
1001
HATCH_TYPE
1070
     7
  0
LINE
  5
1934
  8
247
 10
-131.79410336871251
 20
-5.8062605298385987
 30
0.0
 11
-132.3214734859001
 21
-7.645407288871783
 31
0.0
1001
HATCH_DISTANCE
1040
1.0
1001
HATCH_DISPLAY
1070
     0
1001
HATCH_TYPE
1070
     7
  0
LINE
  5
1935
  8
247
 10
-132.3214734859001
 20
-7.645407288871783
 30
0.0
 11
-131.80077426714999
 21
-7.645407288871783
 31
0.0
1001
HATCH_DISTANCE
1040
1.0
1001
HATCH_DISPLAY
1070
     0
1001
HATCH_TYPE
1070
     7
  0
LINE
  5
1936
  8
247
 10
-131.80077426714999
 20
-7.645407288871783
 30
0.0
 11
-131.1999803218375
 21
-5.5501824048386101
 31
0.0
1001
HATCH_DISTANCE
1040
1.0
1001
HATCH_DISPLAY
1070
     0
1001
HATCH_TYPE
1070
     7
  0
LINE
  5
1937
  8
247
 10
-131.1999803218375
 20
-5.5501824048386101
 30
0.0
 11
-131.8054412593375
 21
-5.5501824048386101
 31
0.0
1001
HATCH_DISTANCE
1040
1.0
1001
HATCH_DISPLAY
1070
     0
1001
HATCH_TYPE
1070
     7
  0
LINE
  5
1938
  8
247
 10
-130.14169656928121
 20
-7.5244351556207993
 30
0.0
 11
-129.92344568860599
 21
-7.306184274945613
 31
0.0
  0
LINE
  5
1939
  8
247
 10
-130.5177696905458
 20
-7.6418769005986258
 30
0.0
 11
-129.81946920921189
 21
-6.9435764192647076
 31
0.0
  0
LINE
  5
193A
  8
247
 10
-130.40793384602881
 20
-7.2734096797947538
 30
0.0
 11
-129.71549272981781
 21
-6.5809685635838084
 31
0.0
  0
LINE
  5
193B
  8
247
 10
-130.76064475636699
 20
-7.6261205901329756
 30
0.0
 11
-130.48732824219391
 21
-7.3528040759598792
 31
0.0
  0
LINE
  5
193C
  8
247
 10
-130.29061728463671
 20
-6.8974617421159277
 30
0.0
 11
-129.85126568173439
 21
-6.45811013921361
 31
0.0
  0
LINE
  5
193D
  8
247
 10
-130.94863752063861
 20
-7.5554819781178306
 30
0.0
 11
-130.74535815433649
 21
-7.3522026118156756
 31
0.0
  0
LINE
  5
193E
  8
247
 10
-130.3427017455212
 20
-6.6909148267136018
 30
0.0
 11
-130.1098970580212
 21
-6.4581101392136011
 31
0.0
  0
LINE
  5
193F
  8
247
 10
-131.1001421860216
 20
-7.4483552672140334
 30
0.0
 11
-130.85358469379759
 21
-7.2017977749900126
 31
0.0
  0
LINE
  5
1940
  8
247
 10
-129.76963075303911
 20
-5.8592124579447349
 30
0.0
 11
-129.7453921541925
 21
-5.8349738590980991
 31
0.0
  0
LINE
  5
1941
  8
247
 10
-131.2198078797181
 20
-7.3093895846237009
 30
0.0
 11
-130.79572283419009
 21
-6.885304539095757
 31
0.0
  0
LINE
  5
1942
  8
247
 10
-130.093060731039
 20
-5.9240110596577917
 30
0.0
 11
-129.8073955949763
 21
-5.6383459235950886
 31
0.0
  0
LINE
  5
1943
  8
247
 10
-131.30572356108129
 20
-7.1366738897001829
 30
0.0
 11
-130.6917460013652
 21
-6.5226963299840719
 31
0.0
  0
LINE
  5
1944
  8
247
 10
-130.2415633599914
 20
-5.8138823123234351
 30
0.0
 11
-130.06724079650871
 21
-5.6395597488407452
 31
0.0
  0
LINE
  5
1945
  8
247
 10
-131.34686795147769
 20
-6.9191869038097389
 30
0.0
 11
-130.5877691685404
 21
-6.1600881208723939
 31
0.0
  0
LINE
  5
1946
  8
247
 10
-131.3102212246813
 20
-6.6239088007265616
 30
0.0
 11
-130.25549170421829
 21
-5.5691792802634961
 31
0.0
  0
LINE
  5
1947
  8
247
 10
-131.22435746427001
 20
-6.2794136640285023
 30
0.0
 11
-130.49883773147019
 21
-5.5538939312286297
 31
0.0
  0
LINE
  5
1948
  8
247
 10
-131.81445696025301
 20
-7.6454072888717821
 30
0.0
 11
-131.79527352505571
 21
-7.6262238536744462
 31
0.0
  0
LINE
  5
1949
  8
247
 10
-132.0730883365398
 20
-7.6454072888717821
 30
0.0
 11
-131.69129805123819
 21
-7.2636170035702099
 31
0.0
  0
LINE
  5
194A
  8
247
 10
-132.3173542222064
 20
-7.6310417982516174
 30
0.0
 11
-131.58732257742071
 21
-6.901010153465962
 31
0.0
  0
LINE
  5
194B
  8
247
 10
-132.21337732944141
 20
-7.2684335291998954
 30
0.0
 11
-131.48334710360331
 21
-6.5384033033617204
 31
0.0
  0
LINE
  5
194C
  8
247
 10
-132.10940043667651
 20
-6.905825260148176
 30
0.0
 11
-131.37937162978579
 21
-6.1757964532574769
 31
0.0
  0
LINE
  5
194D
  8
247
 10
-132.0054235439116
 20
-6.5432169910964406
 30
0.0
 11
-131.27539615596839
 21
-5.8131896031532238
 31
0.0
  0
LINE
  5
194E
  8
247
 10
-131.9014466511467
 20
-6.180608722044715
 30
0.0
 11
-131.2710203339405
 21
-5.5501824048386057
 31
0.0
  0
LINE
  5
194F
  8
247
 10
-131.79746975838171
 20
-5.8180004529929832
 30
0.0
 11
-131.52965171022731
 21
-5.5501824048386146
 31
0.0
  0
LINE
  5
1950
  8
247
 10
-131.8123397018542
 20
-5.5742390201787302
 30
0.0
 11
-131.7882830865141
 21
-5.5501824048386057
 31
0.0
  0
LINE
  5
1951
  8
247
 10
-128.99485975345871
 20
-7.929386597519021
 30
0.0
 11
-128.23181226196959
 21
-7.1663391060299597
 31
0.0
  0
LINE
  5
1952
  8
247
 10
-128.47440042527751
 20
-7.1502958930509877
 30
0.0
 11
-128.16872024959221
 21
-6.844615717365726
 31
0.0
  0
LINE
  5
1953
  8
247
 10
-129.31658314212291
 20
-7.9924786098964713
 30
0.0
 11
-129.0109029664377
 21
-7.6867984342112061
 31
0.0
  0
LINE
  5
1954
  8
247
 10
-128.400426732293
 20
-6.8176908237797269
 30
0.0
 11
-128.17929924769209
 21
-6.5965633391788288
 31
0.0
  0
LINE
  5
1955
  8
247
 10
-129.57735022264359
 20
-7.9946143141303088
 30
0.0
 11
-129.34350803570891
 21
-7.7607721271956578
 31
0.0
  0
LINE
  5
1956
  8
247
 10
-128.4187907255349
 20
-6.5774234407349166
 30
0.0
 11
-128.2287962472063
 21
-6.3874289624062124
 31
0.0
  0
LINE
  5
1957
  8
247
 10
-129.8359815989304
 20
-7.9946143141303034
 30
0.0
 11
-129.60317691742179
 21
-7.7618096326218122
 31
0.0
  0
LINE
  5
1958
  8
247
 10
-128.48036881088231
 20
-6.3803701497954437
 30
0.0
 11
-128.30583361314081
 21
-6.2058349520540057
 31
0.0
  0
LINE
  5
1959
  8
247
 10
-130.09461297521719
 20
-7.9946143141303034
 30
0.0
 11
-129.86180829370869
 21
-7.7618096326218122
 31
0.0
  0
LINE
  5
195A
  8
247
 10
-128.57226952119819
 20
-6.2136394838245996
 30
0.0
 11
-128.4053419782488
 21
-6.0467119408751486
 31
0.0
  0
LINE
  5
195B
  8
247
 10
-130.35324435150389
 20
-7.9946143141303088
 30
0.0
 11
-130.12043966999551
 21
-7.7618096326218122
 31
0.0
  0
LINE
  5
195C
  8
247
 10
-128.68961094701891
 20
-6.0723495333584774
 30
0.0
 11
-128.52499314868351
 21
-5.9077317350231189
 31
0.0
  0
LINE
  5
195D
  8
247
 10
-130.6118757277907
 20
-7.9946143141303088
 30
0.0
 11
-130.37907104628221
 21
-7.7618096326218176
 31
0.0
  0
LINE
  5
195E
  8
247
 10
-128.83106245732651
 20
-5.9551696673793151
 30
0.0
 11
-128.6641033507712
 21
-5.7882105608239636
 31
0.0
  0
LINE
  5
195F
  8
247
 10
-130.87050710407749
 20
-7.9946143141303088
 30
0.0
 11
-130.63770242256899
 21
-7.7618096326218016
 31
0.0
  0
LINE
  5
1960
  8
247
 10
-128.99797332548971
 20
-5.8634491592557216
 30
0.0
 11
-128.8233657779241
 21
-5.6888416116901572
 31
0.0
  0
LINE
  5
1961
  8
247
 10
-131.1291384803643
 20
-7.9946143141303034
 30
0.0
 11
-130.89633379885581
 21
-7.7618096326218122
 31
0.0
  0
LINE
  5
1962
  8
247
 10
-129.19525724316651
 20
-5.8021017006456779
 30
0.0
 11
-129.00512189328711
 21
-5.6119663507663438
 31
0.0
  0
LINE
  5
1963
  8
247
 10
-131.38776985665109
 20
-7.9946143141303034
 30
0.0
 11
-131.15496517514271
 21
-7.7618096326218122
 31
0.0
  0
LINE
  5
1964
  8
247
 10
-129.43589547715371
 20
-5.7841085583461629
 30
0.0
 11
-129.21446652764141
 21
-5.5626796088338173
 31
0.0
  0
LINE
  5
1965
  8
247
 10
-131.6464012329379
 20
-7.9946143141303088
 30
0.0
 11
-131.41359655142941
 21
-7.7618096326218122
 31
0.0
  0
LINE
  5
1966
  8
247
 10
-129.65259937028321
 20
-5.7421810751888236
 30
0.0
 11
-129.46284568367139
 21
-5.5524273885770086
 31
0.0
  0
LINE
  5
1967
  8
247
 10
-131.90503260922469
 20
-7.9946143141303034
 30
0.0
 11
-131.67222792771619
 21
-7.7618096326218122
 31
0.0
  0
LINE
  5
1968
  8
247
 10
-132.1636639855115
 20
-7.9946143141303034
 30
0.0
 11
-131.93085930400301
 21
-7.7618096326218122
 31
0.0
  0
LINE
  5
1969
  8
247
 10
-132.42229536179829
 20
-7.9946143141303034
 30
0.0
 11
-132.18949068028979
 21
-7.7618096326218122
 31
0.0
  0
LINE
  5
196A
  8
247
 10
-132.68092673808511
 20
-7.9946143141303034
 30
0.0
 11
-132.44812205657649
 21
-7.7618096326218122
 31
0.0
  0
LINE
  5
196B
  8
247
 10
-132.93955811437189
 20
-7.9946143141303088
 30
0.0
 11
-132.70675343286339
 21
-7.7618096326218122
 31
0.0
  0
LINE
  5
196C
  8
247
 10
-133.19818949065871
 20
-7.9946143141303088
 30
0.0
 11
-132.96538480915009
 21
-7.7618096326218176
 31
0.0
  0
LINE
  5
196D
  8
247
 10
-133.45682086694541
 20
-7.9946143141303034
 30
0.0
 11
-133.22401618543691
 21
-7.7618096326218122
 31
0.0
  0
LINE
  5
196E
  8
247
 10
-133.71545224323231
 20
-7.9946143141303034
 30
0.0
 11
-133.4826475617237
 21
-7.7618096326218122
 31
0.0
  0
LINE
  5
196F
  8
247
 10
-133.97408361951901
 20
-7.9946143141303034
 30
0.0
 11
-133.74127893801051
 21
-7.7618096326218122
 31
0.0
  0
LINE
  5
1970
  8
247
 10
-134.22749900112211
 20
-7.9893983194466438
 30
0.0
 11
-133.9999103142973
 21
-7.7618096326218122
 31
0.0
  0
LINE
  5
1971
  8
247
 10
-134.44567947774999
 20
-7.9489474197877543
 30
0.0
 11
-134.24933863741509
 21
-7.7526065794528662
 31
0.0
  0
LINE
  5
1972
  8
247
 10
-134.63411745794451
 20
-7.8787540236954356
 30
0.0
 11
-134.4563253574504
 21
-7.7009619232013611
 31
0.0
  0
LINE
  5
1973
  8
247
 10
-134.7990531076787
 20
-7.7850582971427809
 30
0.0
 11
-134.63063759791169
 21
-7.616642787375822
 31
0.0
  0
LINE
  5
1974
  8
247
 10
-134.9433996861076
 20
-7.670773499284925
 30
0.0
 11
-134.77861641543851
 21
-7.505990228615806
 31
0.0
  0
LINE
  5
1975
  8
247
 10
-135.06823861172009
 20
-7.5369810486106239
 30
0.0
 11
-134.9023919850697
 21
-7.3711344219602184
 31
0.0
  0
LINE
  5
1976
  8
247
 10
-135.17325608858189
 20
-7.383367149185629
 30
0.0
 11
-135.00135772035679
 21
-7.2114687809605211
 31
0.0
  0
LINE
  5
1977
  8
247
 10
-133.83150740802171
 20
-5.7829870923386011
 30
0.0
 11
-133.6480989632056
 21
-5.5995786475226046
 31
0.0
  0
LINE
  5
1978
  8
247
 10
-135.2566225214851
 20
-7.2081022058020423
 30
0.0
 11
-135.07178500853709
 21
-7.0232646928540481
 31
0.0
  0
LINE
  5
1979
  8
247
 10
-134.09013878430841
 20
-5.7829870923386002
 30
0.0
 11
-133.85733409680839
 21
-5.5501824048386057
 31
0.0
  0
LINE
  5
197A
  8
247
 10
-135.314187718265
 20
-7.0070360262951876
 30
0.0
 11
-135.10381934149919
 21
-6.7966676495293603
 31
0.0
  0
LINE
  5
197B
  8
247
 10
-134.38696725376531
 20
-5.8211841855086757
 30
0.0
 11
-134.1159661227932
 21
-5.5501830545365927
 31
0.0
  0
LINE
  5
197C
  8
247
 10
-135.33692107838951
 20
-6.7711380101328871
 30
0.0
 11
-135.0659199474174
 21
-6.500136879160805
 31
0.0
  0
LINE
  5
197D
  8
247
 10
-135.30044529287611
 20
-6.4760308483326829
 30
0.0
 11
-134.41107328459341
 21
-5.5866588400500197
 31
0.0
  0
ENDBLK
  5
1980
  8
0
  0
ENDSEC
  0
SECTION
  2
ENTITIES
  0
LINE
  5
13EC
  8
250
  6
CONTINUOUS
 62
     3
 10
0.0011660158633617
 20
18.963172921995891
 30
0.0
 11
-2.2150168243632602
 21
18.715314860426471
 31
0.0
  0
LINE
  5
13ED
  8
250
  6
CONTINUOUS
 62
     3
 10
-2.1737071474350378
 20
18.34595105372205
 30
0.0
 11
0.0011660158633617
 21
18.963172921995891
 31
0.0
  0
LINE
  5
13EE
  8
250
  6
CONTINUOUS
 62
     3
 10
-2.256326501291539
 20
19.084678667130898
 30
0.0
 11
0.0011660158633617
 21
18.963172921995891
 31
0.0
  0
LINE
  5
13EF
  8
250
  6
CONTINUOUS
 62
     3
 10
-7.0923540283886828
 20
16.024939599672901
 30
0.0
 11
-5.3500143710870702
 21
17.416755865777731
 31
0.0
  0
LINE
  5
13F0
  8
250
  6
CONTINUOUS
 62
     3
 10
-5.5819837487711652
 20
17.707145808661348
 30
0.0
 11
-7.0923540283886828
 21
16.024939599672901
 31
0.0
  0
LINE
  5
13F1
  8
250
  6
CONTINUOUS
 62
     3
 10
-5.1180449934029184
 20
17.126365922894131
 30
0.0
 11
-7.0923540283886828
 21
16.024939599672901
 31
0.0
  0
TEXT
  5
13F2
  8
250
  6
CONTINUOUS
 62
     3
 10
-7.9846402379568531
 20
17.96786144102148
 30
0.0
 40
3.0
  1
45üï
 50
17.642702651935981
  0
LINE
  5
13F3
  8
250
  6
CONTINUOUS
 62
     3
 10
12.332256377254909
 20
-12.350000000000019
 30
0.0
 11
12.332256377254909
 21
-10.120000000000029
 31
0.0
  0
LINE
  5
13F4
  8
250
  6
CONTINUOUS
 62
     3
 10
11.960589710588239
 20
-10.120000000000029
 30
0.0
 11
12.332256377254909
 21
-12.350000000000019
 31
0.0
  0
LINE
  5
13F5
  8
250
  6
CONTINUOUS
 62
     3
 10
12.703923043921581
 20
-10.120000000000029
 30
0.0
 11
12.332256377254909
 21
-12.350000000000019
 31
0.0
  0
LINE
  5
13F6
  8
250
  6
CONTINUOUS
 62
     3
 10
12.332256377254909
 20
12.349999999999991
 30
0.0
 11
12.332256377254909
 21
10.119999999999999
 31
0.0
  0
LINE
  5
13F7
  8
250
  6
CONTINUOUS
 62
     3
 10
12.703923043921581
 20
10.119999999999999
 30
0.0
 11
12.332256377254909
 21
12.349999999999991
 31
0.0
  0
LINE
  5
13F8
  8
250
  6
CONTINUOUS
 62
     3
 10
11.960589710588239
 20
10.119999999999999
 30
0.0
 11
12.332256377254909
 21
12.349999999999991
 31
0.0
  0
TEXT
  5
13F9
  8
250
  6
CONTINUOUS
 62
     3
 10
11.332256377254851
 20
-3.4999999999999432
 30
0.0
 40
3.0
  1
24.7
 50
90.0
  0
TEXT
  5
13FA
  8
250
  6
CONTINUOUS
 62
     3
 10
11.332256377254851
 20
-6.2142857142856371
 30
0.0
 40
3.0
  1
\U+2205
 50
90.0
  0
LINE
  5
13FB
  8
250
  6
CONTINUOUS
 62
     3
 10
-36.667743622745093
 20
-8.6000003821027633
 30
0.0
 11
-36.667743622745093
 21
-6.3700003821027726
 31
0.0
  0
LINE
  5
13FC
  8
250
  6
CONTINUOUS
 62
     3
 10
-37.039410289411762
 20
-6.3700003821027726
 30
0.0
 11
-36.667743622745093
 21
-8.6000003821027633
 31
0.0
  0
LINE
  5
13FD
  8
250
  6
CONTINUOUS
 62
     3
 10
-36.296076956078423
 20
-6.3700003821027726
 30
0.0
 11
-36.667743622745093
 21
-8.6000003821027633
 31
0.0
  0
LINE
  5
13FE
  8
250
  6
CONTINUOUS
 62
     3
 10
-36.667743622745093
 20
8.59999985277679
 30
0.0
 11
-36.667743622745093
 21
6.3699998527768003
 31
0.0
  0
LINE
  5
13FF
  8
250
  6
CONTINUOUS
 62
     3
 10
-36.296076956078423
 20
6.3699998527768003
 30
0.0
 11
-36.667743622745093
 21
8.59999985277679
 31
0.0
  0
LINE
  5
1400
  8
250
  6
CONTINUOUS
 62
     3
 10
-37.039410289411762
 20
6.3699998527768003
 30
0.0
 11
-36.667743622745093
 21
8.59999985277679
 31
0.0
  0
TEXT
  5
1401
  8
250
  6
CONTINUOUS
 62
     3
 10
-37.667743622745149
 20
-3.5
 30
0.0
 40
3.0
  1
17.2
 50
90.0
  0
TEXT
  5
1402
  8
250
  6
CONTINUOUS
 62
     3
 10
-37.667743622745149
 20
-6.2142857142856931
 30
0.0
 40
3.0
  1
\U+2205
 50
90.0
  0
LINE
  5
1403
  8
250
  6
CONTINUOUS
 62
     3
 10
-61.251966223854872
 20
-26.377611138547909
 30
0.0
 11
-59.021966223854861
 21
-26.377611138547909
 31
0.0
  0
LINE
  5
1404
  8
250
  6
CONTINUOUS
 62
     3
 10
-59.021966223854861
 20
-26.005944471881239
 30
0.0
 11
-61.251966223854872
 21
-26.377611138547909
 31
0.0
  0
LINE
  5
1405
  8
250
  6
CONTINUOUS
 62
     3
 10
-59.021966223854861
 20
-26.749277805214572
 30
0.0
 11
-61.251966223854872
 21
-26.377611138547909
 31
0.0
  0
LINE
  5
1406
  8
250
  6
CONTINUOUS
 62
     3
 10
0.0
 20
-26.377611138547909
 30
0.0
 11
-2.2300000000000182
 21
-26.377611138547909
 31
0.0
  0
LINE
  5
1407
  8
250
  6
CONTINUOUS
 62
     3
 10
-2.2300000000000182
 20
-26.749277805214572
 30
0.0
 11
0.0
 21
-26.377611138547909
 31
0.0
  0
LINE
  5
1408
  8
250
  6
CONTINUOUS
 62
     3
 10
-2.2300000000000182
 20
-26.005944471881239
 30
0.0
 11
0.0
 21
-26.377611138547909
 31
0.0
  0
TEXT
  5
1409
  8
250
  6
CONTINUOUS
 62
     3
 10
-35.697411683356002
 20
-25.377611138547909
 30
0.0
 40
3.0
  1
61.3
  0
LINE
  5
140A
  8
250
  6
CONTINUOUS
 62
     3
 10
-142.65196770429611
 20
-33.377611138547913
 30
0.0
 11
-140.42196770429609
 21
-33.377611138547913
 31
0.0
  0
LINE
  5
140B
  8
250
  6
CONTINUOUS
 62
     3
 10
-140.42196770429609
 20
-33.005944471881243
 30
0.0
 11
-142.65196770429611
 21
-33.377611138547913
 31
0.0
  0
LINE
  5
140C
  8
250
  6
CONTINUOUS
 62
     3
 10
-140.42196770429609
 20
-33.749277805214582
 30
0.0
 11
-142.65196770429611
 21
-33.377611138547913
 31
0.0
  0
LINE
  5
140D
  8
250
  6
CONTINUOUS
 62
     3
 10
0.0
 20
-33.377611138547913
 30
0.0
 11
-2.2300000000000182
 21
-33.377611138547913
 31
0.0
  0
LINE
  5
140E
  8
250
  6
CONTINUOUS
 62
     3
 10
-2.2300000000000182
 20
-33.749277805214582
 30
0.0
 11
0.0
 21
-33.377611138547913
 31
0.0
  0
LINE
  5
140F
  8
250
  6
CONTINUOUS
 62
     3
 10
-2.2300000000000182
 20
-33.005944471881243
 30
0.0
 11
0.0
 21
-33.377611138547913
 31
0.0
  0
TEXT
  5
1410
  8
250
  6
CONTINUOUS
 62
     3
 10
-77.968840995005166
 20
-32.377611138547913
 30
0.0
 40
3.0
  1
142.7
  0
LINE
  5
1411
  8
250
  6
CONTINUOUS
 62
     3
 10
-142.65196770429611
 20
-26.377611138547909
 30
0.0
 11
-140.42196770429609
 21
-26.377611138547909
 31
0.0
  0
LINE
  5
1412
  8
250
  6
CONTINUOUS
 62
     3
 10
-140.42196770429609
 20
-26.005944471881239
 30
0.0
 11
-142.65196770429611
 21
-26.377611138547909
 31
0.0
  0
LINE
  5
1413
  8
250
  6
CONTINUOUS
 62
     3
 10
-140.42196770429609
 20
-26.749277805214572
 30
0.0
 11
-142.65196770429611
 21
-26.377611138547909
 31
0.0
  0
LINE
  5
1414
  8
250
  6
CONTINUOUS
 62
     3
 10
-61.251966223854872
 20
-26.377611138547909
 30
0.0
 11
-63.481966223854897
 21
-26.377611138547909
 31
0.0
  0
LINE
  5
1415
  8
250
  6
CONTINUOUS
 62
     3
 10
-63.481966223854897
 20
-26.749277805214572
 30
0.0
 11
-61.251966223854872
 21
-26.377611138547909
 31
0.0
  0
LINE
  5
1416
  8
250
  6
CONTINUOUS
 62
     3
 10
-63.481966223854897
 20
-26.005944471881239
 30
0.0
 11
-61.251966223854872
 21
-26.377611138547909
 31
0.0
  0
TEXT
  5
1417
  8
250
  6
CONTINUOUS
 62
     3
 10
-107.02339553550409
 20
-25.377611138547909
 30
0.0
 40
3.0
  1
81.4
  0
LINE
  5
1418
  8
250
  6
CONTINUOUS
 62
     3
 10
-155.66774362274509
 20
-10.000000132740841
 30
0.0
 11
-155.66774362274509
 21
-7.7700001327408472
 31
0.0
  0
LINE
  5
1419
  8
250
  6
CONTINUOUS
 62
     3
 10
-156.03941028941171
 20
-7.7700001327408472
 30
0.0
 11
-155.66774362274509
 21
-10.000000132740841
 31
0.0
  0
LINE
  5
141A
  8
250
  6
CONTINUOUS
 62
     3
 10
-155.29607695607839
 20
-7.7700001327408472
 30
0.0
 11
-155.66774362274509
 21
-10.000000132740841
 31
0.0
  0
LINE
  5
141B
  8
250
  6
CONTINUOUS
 62
     3
 10
-155.66774362274509
 20
9.9999998672591062
 30
0.0
 11
-155.66774362274509
 21
7.7699998672591164
 31
0.0
  0
LINE
  5
141C
  8
250
  6
CONTINUOUS
 62
     3
 10
-155.29607695607839
 20
7.7699998672591164
 30
0.0
 11
-155.66774362274509
 21
9.9999998672591062
 31
0.0
  0
LINE
  5
141D
  8
250
  6
CONTINUOUS
 62
     3
 10
-156.03941028941171
 20
7.7699998672591164
 30
0.0
 11
-155.66774362274509
 21
9.9999998672591062
 31
0.0
  0
TEXT
  5
141E
  8
250
  6
CONTINUOUS
 62
     3
 10
-156.66774362274509
 20
-1.3571429898836691
 30
0.0
 40
3.0
  1
20
 50
90.0
  0
TEXT
  5
141F
  8
250
  6
CONTINUOUS
 62
     3
 10
-156.66774362274509
 20
-4.0714287041693629
 30
0.0
 40
3.0
  1
\U+2205
 50
90.0
  0
LINE
  5
1420
  8
250
  6
CONTINUOUS
 62
     3
 10
-155.66774362274509
 20
-7.7700001327408472
 30
0.0
 11
-155.66774362274509
 21
7.7699998672591164
 31
0.0
  0
LINE
  5
1421
  8
250
  6
CONTINUOUS
 62
     3
 10
-141.15196804712889
 20
9.9999998672591062
 30
0.0
 11
-156.66774362274509
 21
9.9999998672591062
 31
0.0
  0
LINE
  5
1422
  8
250
  6
CONTINUOUS
 62
     3
 10
-141.15196804712889
 20
-10.000000132740841
 30
0.0
 11
-156.66774362274509
 21
-10.000000132740841
 31
0.0
  0
LINE
  5
1423
  8
250
  6
CONTINUOUS
 62
     3
 10
-140.42196770429609
 20
-26.377611138547909
 30
0.0
 11
-63.481966223854897
 21
-26.377611138547909
 31
0.0
  0
LINE
  5
1424
  8
250
  6
CONTINUOUS
 62
     3
 10
-61.251966223854872
 20
-9.3694601396147732
 30
0.0
 11
-61.251966223854872
 21
-27.377611138547909
 31
0.0
  0
LINE
  5
1425
  8
250
  6
CONTINUOUS
 62
     3
 10
-142.65196770429611
 20
-8.4999995386970113
 30
0.0
 11
-142.65196770429611
 21
-27.377611138547909
 31
0.0
  0
LINE
  5
1426
  8
250
  6
CONTINUOUS
 62
     3
 10
-140.42196770429609
 20
-33.377611138547913
 30
0.0
 11
-2.2300000000000182
 21
-33.377611138547913
 31
0.0
  0
LINE
  5
1427
  8
250
  6
CONTINUOUS
 62
     3
 10
0.0
 20
-9.3385977873160755
 30
0.0
 11
0.0
 21
-34.377611138547898
 31
0.0
  0
LINE
  5
1428
  8
250
  6
CONTINUOUS
 62
     3
 10
-142.65196770429611
 20
-8.4999995386970113
 30
0.0
 11
-142.65196770429611
 21
-34.377611138547898
 31
0.0
  0
LINE
  5
1429
  8
250
  6
CONTINUOUS
 62
     3
 10
-59.021966223854861
 20
-26.377611138547909
 30
0.0
 11
-2.2300000000000182
 21
-26.377611138547909
 31
0.0
  0
LINE
  5
142A
  8
250
  6
CONTINUOUS
 62
     3
 10
0.0
 20
-9.3385977873160755
 30
0.0
 11
0.0
 21
-27.377611138547909
 31
0.0
  0
LINE
  5
142B
  8
250
  6
CONTINUOUS
 62
     3
 10
-61.251966223854872
 20
-9.3694601396147732
 30
0.0
 11
-61.251966223854872
 21
-27.377611138547909
 31
0.0
  0
LINE
  5
142C
  8
250
  6
CONTINUOUS
 62
     3
 10
-36.667743622745093
 20
-6.3700003821027726
 30
0.0
 11
-36.667743622745093
 21
6.3699998527768003
 31
0.0
  0
LINE
  5
142D
  8
250
  6
CONTINUOUS
 62
     3
 10
-59.509326785802841
 20
8.5999998527768184
 30
0.0
 11
-35.6677436227451
 21
8.59999985277679
 31
0.0
  0
LINE
  5
142E
  8
250
  6
CONTINUOUS
 62
     3
 10
-59.509326785802841
 20
-8.6000003821027349
 30
0.0
 11
-35.6677436227451
 21
-8.6000003821027633
 31
0.0
  0
LINE
  5
142F
  8
250
  6
CONTINUOUS
 62
     3
 10
12.332256377254909
 20
-10.120000000000029
 30
0.0
 11
12.332256377254909
 21
10.119999999999999
 31
0.0
  0
LINE
  5
1430
  8
250
  6
CONTINUOUS
 62
     3
 10
-2.951969474554061
 20
12.349999999999991
 30
0.0
 11
13.3322563772549
 21
12.349999999999991
 31
0.0
  0
LINE
  5
1431
  8
250
  6
CONTINUOUS
 62
     3
 10
-2.951969474554061
 20
-12.350000000000019
 30
0.0
 11
13.3322563772549
 21
-12.350000000000019
 31
0.0
  0
ARC
  5
1432
  8
250
  6
CONTINUOUS
 62
     3
 10
0.0011660158633617
 20
8.9314233623646544
 30
0.0
 40
10.03174955963123
 50
102.7628916204979
 51
122.23712375422809
  0
LINE
  5
1433
  8
250
  6
CONTINUOUS
 62
     3
 10
-3.664639931512454
 20
12.597227342379171
 30
0.0
 11
-7.7994609993199902
 21
16.73204619111468
 31
0.0
  0
LINE
  5
1434
  8
250
  6
CONTINUOUS
 62
     3
 10
0.0011660158634186
 20
9.4314233623646544
 30
0.0
 11
0.0011660158633617
 21
19.963172921995891
 31
0.0
  0
TEXT
  5
14D7
  8
241
 10
-140.0
 20
21.0
 30
0.0
 40
5.0
  1
ST20-C1924-45B-60
  7
YOKO
 11
-140.0
 21
21.0
 31
0.0
 73
     1
  0
INSERT
  5
1981
  8
240
  2
A$C355F2691
 10
0.0
 20
0.0
 30
0.0
  0
VIEWPORT
  5
22
 67
     1
  8
0
 10
261.51769911504419
 20
148.5
 30
0.0
 40
523.0353982300885
 41
297.0
 68
     1
 69
     1
1001
ACAD
1000
MVIEW
1002
{
1070
    16
1010
0.0
1020
0.0
1030
0.0
1010
0.0
1020
0.0
1030
1.0
1040
0.0
1040
297.0
1040
261.51769911504419
1040
148.5
1040
50.0
1040
0.0
1040
0.0
1070
     0
1070
   100
1070
     1
1070
     1
1070
     0
1070
     0
1070
     0
1070
     0
1040
0.0
1040
0.0
1040
0.0
1040
1.0
1040
1.0
1040
10.0
1040
10.0
1070
     0
1002
{
1002
}
1002
}
1001
GENIUS_GENODEF_13
1002
{
1000
HIER
1070
     0
1002
}
1002
{
1000
MANEDIT
1070
     0
1002
}
1002
{
1000
NOSEL
1070
     0
1002
}
1002
{
1000
BEHIND
1070
     0
1002
}
1002
{
1000
OTHER
1070
     0
1002
}
1002
{
1000
REACTOR
1002
}
1001
GENIUS_GENOBJ-N-SDF_13
1002
{
1000
OWNER
1000
GEN
1002
}
1001
GENIUS_GENSCREG_15
1000
PF
1040
1.0
1000
DF
1040
1.0
1000
MIN
1011
0.0
1021
-0.0
1031
8.6898339008727304E+102
1021
0.0
1031
0.0
1000
MAX
1011
523.0353982300885
1021
-0.0
1031
8.6898339008727304E+102
1021
297.0
1031
0.0
1000
FLAGS
1070
     2
  0
ENDSEC
  0
EOF
