  0
SECTION
  2
HEADER
  9
$ACADVER
  1
AC1009
  9
$INSBASE
 10
0.0
 20
0.0
 30
0.0
  9
$EXTMIN
 10
-79.017041229251163
 20
-21.16676405631171
 30
-0.0015258207003583
  9
$EXTMAX
 10
43.021913525798823
 20
46.009088413876043
 30
0.0000000349246037
  9
$LIMMIN
 10
0.0
 20
0.0
  9
$LIMMAX
 10
297.0
 20
210.0
  9
$ORTHOMODE
 70
     1
  9
$REGENMODE
 70
     1
  9
$FILLMODE
 70
     1
  9
$QTEXTMODE
 70
     0
  9
$MIRRTEXT
 70
     1
  9
$DRAGMODE
 70
     2
  9
$LTSCALE
 40
10.0
  9
$OSMODE
 70
    37
  9
$ATTMODE
 70
     1
  9
$TEXTSIZE
 40
3.0
  9
$TRACEWID
 40
1.0
  9
$TEXTSTYLE
  7
YOKO
  9
$CLAYER
  8
240
  9
$CELTYPE
  6
BYLAYER
  9
$CECOLOR
 62
   256
  9
$DIMSCALE
 40
1.0
  9
$DIMASZ
 40
2.2299999999999991
  9
$DIMEXO
 40
0.5
  9
$DIMDLI
 40
2.5
  9
$DIMRND
 40
0.0
  9
$DIMDLE
 40
0.0
  9
$DIMEXE
 40
1.0
  9
$DIMTP
 40
0.0
  9
$DIMTM
 40
0.0
  9
$DIMTXT
 40
3.0
  9
$DIMCEN
 40
0.0
  9
$DIMTSZ
 40
0.0
  9
$DIMTOL
 70
     0
  9
$DIMLIM
 70
     0
  9
$DIMTIH
 70
     0
  9
$DIMTOH
 70
     0
  9
$DIMSE1
 70
     0
  9
$DIMSE2
 70
     0
  9
$DIMTAD
 70
     3
  9
$DIMZIN
 70
     8
  9
$DIMBLK
  1
OPEN
  9
$DIMASO
 70
     1
  9
$DIMSHO
 70
     1
  9
$DIMPOST
  1

  9
$DIMAPOST
  1

  9
$DIMALT
 70
     0
  9
$DIMALTD
 70
     2
  9
$DIMALTF
 40
25.399999999999999
  9
$DIMLFAC
 40
1.0
  9
$DIMTOFL
 70
     1
  9
$DIMTVP
 40
0.0
  9
$DIMTIX
 70
     0
  9
$DIMSOXD
 70
     0
  9
$DIMSAH
 70
     0
  9
$DIMBLK1
  1

  9
$DIMBLK2
  1

  9
$DIMSTYLE
  2
BIGT
  9
$DIMCLRD
 70
   256
  9
$DIMCLRE
 70
   256
  9
$DIMCLRT
 70
    40
  9
$DIMTFAC
 40
1.0
  9
$DIMGAP
 40
1.0
  9
$LUNITS
 70
     2
  9
$LUPREC
 70
     2
  9
$SKETCHINC
 40
1.0
  9
$FILLETRAD
 40
0.0
  9
$AUNITS
 70
     0
  9
$AUPREC
 70
     3
  9
$MENU
  1
.
  9
$ELEVATION
 40
0.0
  9
$PELEVATION
 40
0.0
  9
$THICKNESS
 40
0.0
  9
$LIMCHECK
 70
     0
  9
$BLIPMODE
 70
     0
  9
$CHAMFERA
 40
10.0
  9
$CHAMFERB
 40
10.0
  9
$SKPOLY
 70
     0
  9
$TDCREATE
 40
2452291.581264283
  9
$TDUPDATE
 40
2457654.7479480212
  9
$TDINDWG
 40
0.0387373032
  9
$TDUSRTIMER
 40
0.0387368981
  9
$USRTIMER
 70
     1
  9
$ANGBASE
 50
0.0
  9
$ANGDIR
 70
     0
  9
$PDMODE
 70
    35
  9
$PDSIZE
 40
2.0
  9
$PLINEWID
 40
0.0
  9
$COORDS
 70
     1
  9
$SPLFRAME
 70
     0
  9
$SPLINETYPE
 70
     6
  9
$SPLINESEGS
 70
     8
  9
$ATTDIA
 70
     1
  9
$ATTREQ
 70
     1
  9
$HANDLING
 70
     1
  9
$HANDSEED
  5
17FD
  9
$SURFTAB1
 70
     6
  9
$SURFTAB2
 70
     6
  9
$SURFTYPE
 70
     6
  9
$SURFU
 70
     6
  9
$SURFV
 70
     6
  9
$UCSNAME
  2

  9
$UCSORG
 10
0.0
 20
0.0
 30
0.0
  9
$UCSXDIR
 10
1.0
 20
0.0
 30
0.0
  9
$UCSYDIR
 10
0.0
 20
1.0
 30
0.0
  9
$PUCSNAME
  2

  9
$PUCSORG
 10
0.0
 20
0.0
 30
0.0
  9
$PUCSXDIR
 10
1.0
 20
0.0
 30
0.0
  9
$PUCSYDIR
 10
0.0
 20
1.0
 30
0.0
  9
$USERI1
 70
     1
  9
$USERI2
 70
     0
  9
$USERI3
 70
     0
  9
$USERI4
 70
     0
  9
$USERI5
 70
     0
  9
$USERR1
 40
0.0
  9
$USERR2
 40
0.0
  9
$USERR3
 40
0.0
  9
$USERR4
 40
0.0
  9
$USERR5
 40
0.0
  9
$WORLDVIEW
 70
     1
  9
$SHADEDGE
 70
     3
  9
$SHADEDIF
 70
    70
  9
$TILEMODE
 70
     1
  9
$MAXACTVP
 70
    16
  9
$PLIMCHECK
 70
     0
  9
$PEXTMIN
 10
1.0000000000000000E+020
 20
1.0000000000000000E+020
 30
1.0000000000000000E+020
  9
$PEXTMAX
 10
-1.0000000000000000E+020
 20
-1.0000000000000000E+020
 30
-1.0000000000000000E+020
  9
$PLIMMIN
 10
0.0
 20
0.0
  9
$PLIMMAX
 10
420.0
 20
297.0
  9
$UNITMODE
 70
     0
  9
$VISRETAIN
 70
     0
  9
$PLINEGEN
 70
     0
  9
$PSLTSCALE
 70
     1
  0
ENDSEC
  0
SECTION
  2
TABLES
  0
TABLE
  2
VPORT
 70
     1
  0
VPORT
  2
*ACTIVE
 70
     0
 10
0.0
 20
0.0
 11
1.0
 21
1.0
 12
-3.3182390330752858
 22
17.56825176577274
 13
0.0
 23
0.0
 14
7.0
 24
7.0
 15
7.0
 25
7.0
 16
0.0
 26
0.0
 36
1.0
 17
0.0
 27
0.0
 37
0.0
 40
133.3880847953744
 41
1.469813391877058
 42
50.0
 43
0.0
 44
0.0
 50
0.0
 51
0.0
 71
     0
 72
  2000
 73
     1
 74
     0
 75
     0
 76
     1
 77
     0
 78
     0
  0
ENDTAB
  0
TABLE
  2
LTYPE
 70
    16
  0
LTYPE
  2
CONTINUOUS
 70
     0
  3
Solid line
 72
    65
 73
     0
 40
0.0
  0
LTYPE
  2
CENTER2
 70
     0
  3
___ _ ___ _ ___ _ ___ _ ___ _ ___ _ ___ _ ___ _
 72
    65
 73
     4
 40
1.125
 49
0.75
 49
-0.125
 49
0.125
 49
-0.125
  0
LTYPE
  2
AMCONSTR
 70
     0
  3
_______________________
 72
    65
 73
     2
 40
9999.0
 49
9999.0
 49
0.0
  0
LTYPE
  2
CENTER
 70
     0
  3
__ . __
 72
    65
 73
     4
 40
7.0
 49
4.0
 49
-1.0
 49
1.0
 49
-1.0
  0
LTYPE
  2
HIDDEN
 70
     0
  3
Hidden __ __ __ __ __ __ __ __ __ __ __ __ __ _
 72
    65
 73
     2
 40
9.5249999999999986
 49
6.349999999999997
 49
-3.174999999999998
  0
LTYPE
  2
PHANTOM2
 70
     0
  3
Phantom (.5x) ___ _ _ ___ _ _ ___ _ _ ___ _ _
 72
    65
 73
     6
 40
31.75
 49
15.875
 49
-3.174999999999998
 49
3.174999999999998
 49
-3.174999999999998
 49
3.174999999999998
 49
-3.174999999999998
  0
LTYPE
  2
HIDDEN2
 70
     0
  3
Hidden (.5x) _ _ _ _ _ _ _ _ _ _ _ _ _ _ _ _ _
 72
    65
 73
     2
 40
0.1875
 49
0.125
 49
-0.0625
  0
LTYPE
  2
AMZIGZAG2
 70
     0
  3
/\/-/\/-/\/-/\/-/\/-/\/
 72
    65
 73
     2
 40
0.4401
 49
0.0001
 49
-0.4400000000000003
  0
LTYPE
  2
ACANSTGB
 70
     0
  3
__ . . __ . .
 72
    65
 73
     6
 40
0.35433070866
 49
0.15748031496
 49
-0.03937007874
 49
0.03937007874
 49
-0.03937007874
 49
0.03937007874
 49
-0.03937007874
  0
LTYPE
  2
ACANSTGL
 70
     0
  3
_ _ _ _ _
 72
    65
 73
     2
 40
0.11811023622
 49
0.07874015748
 49
-0.03937007874
  0
ENDTAB
  0
TABLE
  2
LAYER
 70
     8
  0
LAYER
  2
0
 70
     0
 62
     7
  6
CONTINUOUS
  0
LAYER
  2
240
 70
     0
 62
     4
  6
CONTINUOUS
  0
LAYER
  2
241
 70
     0
 62
   211
  6
CONTINUOUS
  0
LAYER
  2
245
 70
     0
 62
     2
  6
CENTER2
  0
LAYER
  2
247
 70
     0
 62
    60
  6
CONTINUOUS
  0
LAYER
  2
250
 70
     0
 62
     3
  6
CONTINUOUS
  0
LAYER
  2
DEFPOINTS
 70
     0
 62
     7
  6
CONTINUOUS
  0
ENDTAB
  0
TABLE
  2
STYLE
 70
     6
  0
STYLE
  2
STANDARD
 70
     0
 40
0.0
 41
1.0
 50
0.0
 71
     0
 42
3.0
  3
romans.shx
  4
BIGFONT.SHX
  0
STYLE
  2
YOKO
 70
     0
 40
0.0
 41
1.0
 50
0.0
 71
     0
 42
3.0
  3
romans.shx
  4
extfont.shx
  0
STYLE
  2
ACANSGDT
 70
     0
 40
0.0
 41
1.0
 50
0.0
 71
     0
 42
3.0
  3
amgdt.shx
  4

  0
ENDTAB
  0
TABLE
  2
VIEW
 70
     0
  0
ENDTAB
  0
TABLE
  2
UCS
 70
     0
  0
ENDTAB
  0
TABLE
  2
APPID
 70
    31
  0
APPID
  2
ACAD
 70
     0
  0
APPID
  2
ACADANNOTATIVE
 70
     0
  0
APPID
  2
GLOBAL
 70
     0
  0
APPID
  2
DETAIL
 70
     0
  0
APPID
  2
GRPNAME
 70
     0
  0
APPID
  2
GPARA
 70
     0
  0
APPID
  2
ITEMNAME
 70
     0
  0
APPID
  2
HATCH_TYPE
 70
     0
  0
APPID
  2
HATCH_DISPLAY
 70
     0
  0
APPID
  2
HATCH_DISTANCE
 70
     0
  0
APPID
  2
MCAD_NO_VIS
 70
     0
  0
APPID
  2
ACAD_TEMP_GRAPHIC
 70
     0
  0
APPID
  2
ACATTRIBSERVICES
 70
     0
  0
APPID
  2
GENIUS_GENSCREG_15
 70
     0
  0
APPID
  2
GENIUS_GENODEF_13
 70
     0
  0
APPID
  2
GENIUS_GENOBJ-N-SDF_13
 70
     0
  0
APPID
  2
AD_DRAW
 70
     0
  0
APPID
  2
DESIGNERASSEMBLIES
 70
     0
  0
APPID
  2
ACADM_DIM_EDIT
 70
     0
  0
APPID
  2
AMDT_DM_ADJ
 70
     0
  0
APPID
  2
ACAD_DSTYLE_DIMJAG
 70
     0
  0
APPID
  2
ACAD_DSTYLE_DIMBREAK
 70
     0
  0
APPID
  2
ACAD_EXEMPT_FROM_CAD_STANDARDS
 70
     0
  0
APPID
  2
ACAD_MLEADERVER
 70
     0
  0
APPID
  2
ACAD_DSTYLE_DIMARC_LENGTH_
 70
     0
  0
APPID
  2
ACAD_DSTYLE_DIM_LINETYPE
 70
     0
  0
APPID
  2
ACAD_DSTYLE_DIM_EXT1_LINETYPE
 70
     0
  0
APPID
  2
ACAD_DSTYLE_DIM_EXT2_LINETYPE
 70
     0
  0
APPID
  2
ACAD_NAV_VCDISPLAY
 70
     0
  0
APPID
  2
ACAECLAYERSTANDARD
 70
     0
  0
APPID
  2
GENIUS_GENOBJ-N-FIL_13
 70
     0
  0
ENDTAB
  0
TABLE
  2
DIMSTYLE
 70
     9
  0
DIMSTYLE
  2
STANDARD
 70
     0
  3

  4

  5

  6

  7

 40
1.0
 41
2.0
 42
2.0
 43
3.75
 44
2.0
 45
0.0
 46
0.0
 47
0.0
 48
0.0
140
4.0
141
0.09
142
0.0
143
25.399999999999999
144
1.0
145
0.0
146
1.0
147
1.0
 71
     0
 72
     0
 73
     1
 74
     1
 75
     0
 76
     0
 77
     0
 78
     8
170
     0
171
     2
172
     0
173
     1
174
     0
175
     0
176
   256
177
   256
178
   256
  0
DIMSTYLE
  2
BIGT
 70
     0
  3

  4

  5

  6

  7

 40
1.0
 41
2.2299999999999991
 42
0.5
 43
2.5
 44
1.0
 45
0.0
 46
0.0
 47
0.0
 48
0.0
140
3.5
141
0.0
142
0.0
143
25.399999999999999
144
1.0
145
0.0
146
1.0
147
1.0
 71
     0
 72
     0
 73
     0
 74
     0
 75
     0
 76
     0
 77
     3
 78
     9
170
     0
171
     2
172
     1
173
     0
174
     0
175
     0
176
   256
177
   256
178
    40
  0
DIMSTYLE
  2
AM_ANSI
 70
     0
  3

  4
mm
  5

  6

  7

 40
1.0
 41
0.12
 42
0.05
 43
0.5
 44
0.1
 45
0.0
 46
0.0
 47
0.1
 48
0.1
140
0.12
141
0.0
142
0.0
143
25.399999999999999
144
1.0
145
0.0
146
0.71
147
0.06
 71
     0
 72
     0
 73
     1
 74
     1
 75
     0
 76
     0
 77
     0
 78
     7
170
     0
171
     2
172
     0
173
     0
174
     0
175
     0
176
   256
177
   256
178
     2
  0
DIMSTYLE
  2
AM_ANSI$3
 70
     0
  3

  4
mm
  5

  6

  7

 40
1.0
 41
0.12
 42
0.05
 43
0.5
 44
0.1
 45
0.0
 46
0.0
 47
0.1
 48
0.1
140
0.12
141
0.0
142
0.0
143
25.399999999999999
144
1.0
145
0.0
146
0.71
147
0.06
 71
     0
 72
     0
 73
     1
 74
     1
 75
     0
 76
     0
 77
     0
 78
     7
170
     0
171
     2
172
     0
173
     0
174
     0
175
     0
176
   256
177
   256
178
     2
  0
DIMSTYLE
  2
AM_ANSI$4
 70
     0
  3

  4
mm
  5

  6

  7

 40
1.0
 41
0.12
 42
0.05
 43
0.5
 44
0.1
 45
0.0
 46
0.0
 47
0.1
 48
0.1
140
0.12
141
0.0
142
0.0
143
25.399999999999999
144
1.0
145
0.0
146
0.71
147
0.06
 71
     0
 72
     0
 73
     1
 74
     1
 75
     0
 76
     0
 77
     0
 78
     7
170
     0
171
     2
172
     0
173
     0
174
     0
175
     0
176
   256
177
   256
178
     2
  0
DIMSTYLE
  2
AM_ANSI$7
 70
     0
  3

  4
mm
  5

  6

  7

 40
1.0
 41
0.12
 42
0.05
 43
0.5
 44
0.1
 45
0.0
 46
0.0
 47
0.1
 48
0.1
140
0.12
141
0.0
142
0.0
143
25.399999999999999
144
1.0
145
0.0
146
0.71
147
0.06
 71
     0
 72
     0
 73
     1
 74
     1
 75
     0
 76
     0
 77
     0
 78
     7
170
     0
171
     2
172
     0
173
     0
174
     0
175
     0
176
   256
177
   256
178
     2
  0
DIMSTYLE
  2
AM_ANSI$SF
 70
     0
  3

  4
mm
  5

  6

  7

 40
1.0
 41
0.12
 42
0.05
 43
0.5
 44
0.1
 45
0.0
 46
0.0
 47
0.1
 48
0.1
140
0.12
141
0.0
142
0.0
143
25.399999999999999
144
1.0
145
0.0
146
0.71
147
0.06
 71
     0
 72
     0
 73
     1
 74
     1
 75
     1
 76
     1
 77
     0
 78
     7
170
     0
171
     2
172
     0
173
     0
174
     0
175
     0
176
   256
177
   256
178
     2
  0
DIMSTYLE
  2
AM_ANSI$SH
 70
     0
  3

  4
mm
  5

  6

  7

 40
1.0
 41
0.12
 42
0.05
 43
0.5
 44
0.1
 45
0.0
 46
0.0
 47
0.1
 48
0.1
140
0.12
141
0.0
142
0.0
143
25.399999999999999
144
1.0
145
0.0
146
0.71
147
0.06
 71
     0
 72
     0
 73
     1
 74
     1
 75
     1
 76
     1
 77
     0
 78
     7
170
     0
171
     2
172
     0
173
     1
174
     0
175
     0
176
   256
177
   256
178
     2
  0
ENDTAB
  0
ENDSEC
  0
SECTION
  2
BLOCKS
  0
BLOCK
  8
0
  2
$MODEL_SPACE
 70
     0
 10
0.0
 20
0.0
 30
0.0
  3
$MODEL_SPACE
  1

  0
ENDBLK
  5
16EC
  8
0
  0
BLOCK
 67
     1
  8
0
  2
$PAPER_SPACE
 70
     0
 10
0.0
 20
0.0
 30
0.0
  3
$PAPER_SPACE
  1

  0
ENDBLK
  5
16E8
 67
     1
  8
0
  0
BLOCK
  8
0
  2
_OPEN
 70
     0
 10
0.0
 20
0.0
 30
0.0
  3
_OPEN
  1

  0
LINE
  5
595
  8
0
  6
BYBLOCK
 62
     0
 10
-1.0
 20
0.1666666666666666
 30
0.0
 11
0.0
 21
0.0
 31
0.0
  0
LINE
  5
596
  8
0
  6
BYBLOCK
 62
     0
 10
-1.0
 20
-0.1666666666666666
 30
0.0
 11
0.0
 21
0.0
 31
0.0
  0
LINE
  5
597
  8
0
  6
BYBLOCK
 62
     0
 10
0.0
 20
0.0
 30
0.0
 11
-1.0
 21
0.0
 31
0.0
  0
ENDBLK
  5
599
  8
0
  0
BLOCK
  8
0
  2
_ACMFILLEDHALF
 70
     0
 10
0.0
 20
0.0
 30
0.0
  3
_ACMFILLEDHALF
  1

  0
TRACE
  5
1461
  8
240
 62
     0
 10
-0.8
 20
0.0
 30
0.0
 11
-1.0
 21
0.166666666
 31
0.0
 12
0.0
 22
0.0
 32
0.0
 13
0.0
 23
0.0
 33
0.0
  0
LINE
  5
1462
  8
240
 62
     0
 10
-1.0
 20
0.0
 30
0.0
 11
-0.8
 21
0.0
 31
0.0
  0
ENDBLK
  5
1460
  8
0
  0
ENDSEC
  0
SECTION
  2
ENTITIES
  0
TEXT
  5
C59
  8
241
  6
CONTINUOUS
 10
-59.000001999999931
 20
42.0
 30
0.0
 40
4.0
  1
ST20-C0525C
  7
YOKO
 11
-59.000001999999931
 21
42.0
 31
0.0
 73
     1
  0
LINE
  5
E5F
  8
250
  6
CONTINUOUS
 10
15.14140332392367
 20
12.500000000000011
 30
0.0
 11
42.999998310512069
 21
12.5
 31
0.0
  0
LINE
  5
E60
  8
250
  6
CONTINUOUS
 10
41.999998310512069
 20
10.27
 30
0.0
 11
41.999998310512062
 21
-4.7857150536627211
 31
0.0
  0
LINE
  5
E63
  8
250
  6
CONTINUOUS
 10
25.141416601663678
 20
2.5000000000000142
 30
0.0
 11
36.000001382307737
 21
2.500000000000008
 31
0.0
  0
LINE
  5
E64
  8
250
  6
CONTINUOUS
 10
35.000001382307737
 20
4.7300000000000111
 30
0.0
 11
35.000001382307737
 21
6.9600000000000071
 31
0.0
  0
LINE
  5
E66
  8
250
  6
CONTINUOUS
 10
35.000001382307737
 20
2.5000000000000102
 30
0.0
 11
35.000001382307737
 21
-2.5000000000000151
 31
0.0
  0
LINE
  5
E68
  8
250
  6
CONTINUOUS
 10
-60.499999999999943
 20
-10.0
 30
0.0
 11
-75.999999999999858
 21
-9.9999999999999911
 31
0.0
  0
LINE
  5
E69
  8
250
  6
CONTINUOUS
 10
-60.499999999999943
 20
10.000000000000011
 30
0.0
 11
-75.999999999999858
 21
10.000000000000011
 31
0.0
  0
LINE
  5
E6A
  8
250
  6
CONTINUOUS
 10
-74.999999999999901
 20
-7.7699999999999934
 30
0.0
 11
-74.999999999999901
 21
7.7700000000000191
 31
0.0
  0
LINE
  5
E71
  8
250
  6
CONTINUOUS
 10
0.0000000000000995
 20
17.0
 30
0.0
 11
0.0000000000000959
 21
29.0
 31
0.0
  0
LINE
  5
E72
  8
250
  6
CONTINUOUS
 10
24.999998000000058
 20
2.5585749999999901
 30
0.0
 11
24.999998000000058
 21
29.0
 31
0.0
  0
LINE
  5
E73
  8
250
  6
CONTINUOUS
 10
2.230000000000099
 20
28.0
 30
0.0
 11
22.769998000000069
 21
28.0
 31
0.0
  0
LINE
  5
E77
  8
250
  6
CONTINUOUS
 10
-59.999999999999943
 20
10.49999999999998
 30
0.0
 11
-59.999999999999943
 21
29.0
 31
0.0
  0
LINE
  5
E78
  8
250
  6
CONTINUOUS
 10
0.0000000000000995
 20
17.0
 30
0.0
 11
0.0000000000000959
 21
29.0
 31
0.0
  0
LINE
  5
E79
  8
250
  6
CONTINUOUS
 10
-57.769999999999932
 20
28.0
 30
0.0
 11
-2.2299999999999041
 21
28.0
 31
0.0
  0
TEXT
  5
E7D
  8
250
  6
CONTINUOUS
 10
-34.099648280122679
 20
29.0
 30
0.0
 40
3.0
  1
60
1001
ACAD
1000
MTEXTBEGIN
1070
    73
1070
     1
1070
    44
1040
1.0
1070
    74
1070
     0
1000
MTEXTEND
  0
LINE
  5
E7E
  8
250
  6
CONTINUOUS
 10
-2.2299999999999041
 20
28.371666666666659
 30
0.0
 11
0.0000000000000959
 21
28.0
 31
0.0
  0
LINE
  5
E7F
  8
250
  6
CONTINUOUS
 10
-2.2299999999999041
 20
27.62833333333333
 30
0.0
 11
0.0000000000000959
 21
28.0
 31
0.0
  0
LINE
  5
E80
  8
250
  6
CONTINUOUS
 10
0.0000000000000959
 20
28.0
 30
0.0
 11
-2.2299999999999041
 21
28.0
 31
0.0
  0
LINE
  5
E81
  8
250
  6
CONTINUOUS
 10
-57.769999999999953
 20
27.62833333333333
 30
0.0
 11
-59.999999999999943
 21
28.0
 31
0.0
  0
LINE
  5
E82
  8
250
  6
CONTINUOUS
 10
-57.769999999999953
 20
28.371666666666659
 30
0.0
 11
-59.999999999999943
 21
28.0
 31
0.0
  0
LINE
  5
E83
  8
250
  6
CONTINUOUS
 10
-59.999999999999943
 20
28.0
 30
0.0
 11
-57.769999999999953
 21
28.0
 31
0.0
  0
TEXT
  5
E84
  8
250
  6
CONTINUOUS
 10
9.6428561428572301
 20
29.0
 30
0.0
 40
3.0
  1
25
1001
ACAD
1000
MTEXTBEGIN
1070
    73
1070
     1
1070
    44
1040
1.0
1070
    74
1070
     0
1000
MTEXTEND
  0
LINE
  5
E85
  8
250
  6
CONTINUOUS
 10
22.769998000000069
 20
28.371666666666659
 30
0.0
 11
24.999998000000058
 21
28.0
 31
0.0
  0
LINE
  5
E86
  8
250
  6
CONTINUOUS
 10
22.769998000000069
 20
27.62833333333333
 30
0.0
 11
24.999998000000058
 21
28.0
 31
0.0
  0
LINE
  5
E87
  8
250
  6
CONTINUOUS
 10
24.999998000000058
 20
28.0
 30
0.0
 11
22.769998000000069
 21
28.0
 31
0.0
  0
LINE
  5
E88
  8
250
  6
CONTINUOUS
 10
2.230000000000099
 20
27.62833333333333
 30
0.0
 11
0.0000000000000959
 21
28.0
 31
0.0
  0
LINE
  5
E89
  8
250
  6
CONTINUOUS
 10
2.230000000000099
 20
28.371666666666659
 30
0.0
 11
0.0000000000000959
 21
28.0
 31
0.0
  0
LINE
  5
E8A
  8
250
  6
CONTINUOUS
 10
0.0000000000000959
 20
28.0
 30
0.0
 11
2.230000000000099
 21
28.0
 31
0.0
  0
TEXT
  5
E8F
  8
250
  6
CONTINUOUS
 10
-75.999999999999858
 20
-4.0714285714285721
 30
0.0
 40
3.0
  1
\U+2205
 50
90.0
1001
ACAD
1000
MTEXTBEGIN
1070
    73
1070
     1
1070
    44
1040
1.0
1070
    74
1070
     0
1000
MTEXTEND
  0
TEXT
  5
E90
  8
250
  6
CONTINUOUS
 10
-75.999999999999858
 20
-1.3571428571428581
 30
0.0
 40
3.0
  1
20
 50
90.0
1001
ACAD
1000
MTEXTBEGIN
1070
    73
1070
     1
1070
    44
1040
1.0
1070
    74
1070
     0
1000
MTEXTEND
  0
LINE
  5
E91
  8
250
  6
CONTINUOUS
 10
-75.371666666666542
 20
7.7700000000000093
 30
0.0
 11
-74.999999999999901
 21
10.000000000000011
 31
0.0
  0
LINE
  5
E92
  8
250
  6
CONTINUOUS
 10
-74.628333333333245
 20
7.7700000000000093
 30
0.0
 11
-74.999999999999901
 21
10.000000000000011
 31
0.0
  0
LINE
  5
E93
  8
250
  6
CONTINUOUS
 10
-74.999999999999901
 20
10.000000000000011
 30
0.0
 11
-74.999999999999901
 21
7.7700000000000093
 31
0.0
  0
LINE
  5
E94
  8
250
  6
CONTINUOUS
 10
-74.628333333333245
 20
-7.769999999999996
 30
0.0
 11
-74.999999999999901
 21
-9.9999999999999911
 31
0.0
  0
LINE
  5
E95
  8
250
  6
CONTINUOUS
 10
-75.371666666666542
 20
-7.769999999999996
 30
0.0
 11
-74.999999999999901
 21
-9.9999999999999911
 31
0.0
  0
LINE
  5
E96
  8
250
  6
CONTINUOUS
 10
-74.999999999999901
 20
-9.9999999999999911
 30
0.0
 11
-74.999999999999901
 21
-7.769999999999996
 31
0.0
  0
LINE
  5
E97
  8
250
  6
CONTINUOUS
 10
35.371668048974399
 20
4.7300000000000084
 30
0.0
 11
35.000001382307737
 21
2.5000000000000102
 31
0.0
  0
LINE
  5
E98
  8
250
  6
CONTINUOUS
 10
34.628334715641081
 20
4.7300000000000084
 30
0.0
 11
35.000001382307737
 21
2.5000000000000102
 31
0.0
  0
LINE
  5
E99
  8
250
  6
CONTINUOUS
 10
35.000001382307737
 20
2.5000000000000102
 30
0.0
 11
35.000001382307737
 21
4.7300000000000084
 31
0.0
  0
TEXT
  5
E9A
  8
250
  6
CONTINUOUS
 10
34.119020340654721
 20
-5.6613973408396161
 30
0.0
 40
3.0
  1
\U+2205
 50
90.0
  0
TEXT
  5
E9B
  8
250
  6
CONTINUOUS
 10
34.119020340654721
 20
-2.9471116265539021
 30
0.0
 40
3.0
  1
5
 50
90.0
  0
TEXT
  5
E9C
  8
250
  6
CONTINUOUS
 10
40.999998310512041
 20
-4.071429339377004
 30
0.0
 40
3.0
  1
\U+2205
 50
90.0
1001
ACAD
1000
MTEXTBEGIN
1070
    73
1070
     1
1070
    44
1040
1.0
1070
    74
1070
     0
1000
MTEXTEND
  0
TEXT
  5
E9D
  8
250
  6
CONTINUOUS
 10
40.999998310512041
 20
-1.357143625091292
 30
0.0
 40
3.0
  1
25
 50
90.0
1001
ACAD
1000
MTEXTBEGIN
1070
    73
1070
     1
1070
    44
1040
1.0
1070
    74
1070
     0
1000
MTEXTEND
  0
LINE
  5
E9E
  8
250
  6
CONTINUOUS
 10
41.628331643845392
 20
10.27
 30
0.0
 11
41.999998310512069
 21
12.5
 31
0.0
  0
LINE
  5
E9F
  8
250
  6
CONTINUOUS
 10
42.371664977178732
 20
10.27
 30
0.0
 11
41.999998310512069
 21
12.5
 31
0.0
  0
LINE
  5
EA0
  8
250
  6
CONTINUOUS
 10
41.999998310512069
 20
12.5
 30
0.0
 11
41.999998310512069
 21
10.27
 31
0.0
  0
LINE
  5
105C
  8
245
  6
CENTER2
 10
-61.729116999999903
 20
0.0
 30
0.0
 11
26.762533000000051
 21
0.0
 31
0.0
  0
LINE
  5
105D
  8
240
  6
CONTINUOUS
 10
0.0000000000000711
 20
-16.5
 30
0.0
 11
6.6999997571668599
 21
-16.5
 31
0.0
  0
LINE
  5
105E
  8
240
  6
CONTINUOUS
 10
0.0000000000000604
 20
16.5
 30
0.0
 11
6.6999971571655719
 21
16.5
 31
0.0
  0
LINE
  5
105F
  8
241
  6
CONTINUOUS
 10
0.0000000000000462
 20
10.00000000000005
 30
0.0
 11
-0.0000000000000462
 21
-9.999999999999984
 31
0.0
  0
LINE
  5
1062
  8
240
  6
CONTINUOUS
 10
-59.999999999999943
 20
-10.0
 30
0.0
 11
0.0000000000000711
 21
-9.999999999999984
 31
0.0
  0
LINE
  5
1063
  8
240
  6
CONTINUOUS
 10
-59.999999999999943
 20
-10.0
 30
0.0
 11
-59.999999999999943
 21
10.0
 31
0.0
  0
LINE
  5
1068
  8
240
  6
CONTINUOUS
 10
0.0000000000000711
 20
-16.5
 30
0.0
 11
0.0000000000000711
 21
-9.999999999999984
 31
0.0
  0
LINE
  5
1069
  8
240
  6
CONTINUOUS
 10
-59.999999999999943
 20
10.0
 30
0.0
 11
0.0000000000001528
 21
10.000000000000011
 31
0.0
  0
LINE
  5
106E
  8
240
  6
CONTINUOUS
 10
0.0000000000000604
 20
16.5
 30
0.0
 11
0.0000000000001528
 21
10.000000000000011
 31
0.0
  0
LINE
  5
1070
  8
241
  6
CONTINUOUS
 10
12.55000000000007
 20
-14.225495999999991
 30
0.0
 11
12.55000000000007
 21
3.150000000000003
 31
0.0
  0
LINE
  5
1071
  8
241
  6
CONTINUOUS
 10
6.6999990000000622
 20
9.0000009999999691
 30
0.0
 11
6.6999990000000622
 21
-16.491306000000009
 31
0.0
  0
ARC
  5
1072
  8
241
  6
CONTINUOUS
 10
17.39997000000006
 20
3.9568839999999721
 30
0.0
 40
4.0
 50
225.0
 51
279.99997200000041
  0
LINE
  5
1073
  8
240
  6
CONTINUOUS
 10
24.800000000000079
 20
-1.7928939999999871
 30
0.0
 11
24.800000000000079
 21
1.7928929999999621
 31
0.0
  0
ARC
  5
1074
  8
240
  6
CONTINUOUS
 10
24.300000000000072
 20
-1.7928939999999871
 30
0.0
 40
0.5
 50
314.99999999999989
 51
0.0
  0
LINE
  5
1075
  8
240
  6
CONTINUOUS
 10
6.6999997571668599
 20
-16.5
 30
0.0
 11
12.54999833426753
 21
-14.25000165949479
 31
0.0
  0
LINE
  5
1078
  8
240
  6
CONTINUOUS
 10
24.653554000000049
 20
-2.1464470000000202
 30
0.0
 11
12.54999833426753
 21
-14.25000165949479
 31
0.0
  0
LINE
  5
10DF
  8
241
  6
CONTINUOUS
 10
14.39744300000004
 20
12.74396000000001
 30
0.0
 11
24.941420000000068
 21
2.1999969999999629
 31
0.0
  0
LINE
  5
10E0
  8
241
  6
CONTINUOUS
 10
17.680172000000059
 20
0.6000759999999731
 30
0.0
 11
24.835412000000051
 21
1.861735000000009
 31
0.0
  0
LINE
  5
10E1
  8
241
  6
CONTINUOUS
 10
18.094561000000059
 20
0.0176529999999673
 30
0.0
 11
24.800000000000079
 21
1.199999999999988
 31
0.0
  0
LINE
  5
10E2
  8
241
  6
CONTINUOUS
 10
2.8000000000000851
 20
16.5
 30
0.0
 11
2.8000000000000851
 21
14.55685400000001
 31
0.0
  0
LINE
  5
10E3
  8
240
  6
CONTINUOUS
 10
6.6999971571655719
 20
16.5
 30
0.0
 11
12.54999996940329
 21
14.250000030596709
 31
0.0
  0
LINE
  5
10E4
  8
241
  6
CONTINUOUS
 10
17.505309000000029
 20
0.6558379999999886
 30
0.0
 11
6.8867690000000543
 21
11.27438700000001
 31
0.0
  0
LINE
  5
10E5
  8
241
  6
CONTINUOUS
 10
14.57154300000005
 20
1.128456999999994
 30
0.0
 11
3.9715730000000411
 21
11.728427000000011
 31
0.0
  0
LINE
  5
10E6
  8
241
  6
CONTINUOUS
 10
6.9932450000000719
 20
11.61159599999999
 30
0.0
 11
14.04514100000006
 21
12.855040000000001
 31
0.0
  0
LINE
  5
10E7
  8
240
  6
CONTINUOUS
 10
13.95997700000007
 20
12.840023
 30
0.0
 11
12.54999996940329
 21
14.250000030596709
 31
0.0
  0
ARC
  5
10E8
  8
241
  6
CONTINUOUS
 10
6.8000000000000931
 20
14.55685400000001
 30
0.0
 40
4.0
 50
180.0
 51
225.0
  0
ARC
  5
10E9
  8
241
  6
CONTINUOUS
 10
7.0291470000000622
 20
11.41484499999998
 30
0.0
 40
0.2
 50
100.0000009999986
 51
224.99999700000009
  0
ARC
  5
10EB
  8
241
  6
CONTINUOUS
 10
17.646731000000049
 20
0.7972609999999918
 30
0.0
 40
0.2
 50
224.99999700000009
 51
280.00002599999999
  0
ARC
  5
10EC
  8
241
  6
CONTINUOUS
 10
14.114601000000061
 20
12.46111699999997
 30
0.0
 40
0.4
 50
45.000040000001022
 51
100.0000320000003
  0
ARC
  5
10EE
  8
241
  6
CONTINUOUS
 10
24.799998000000048
 20
2.0585749999999901
 30
0.0
 40
0.2
 50
279.80084100000101
 51
45.000029999999931
  0
ARC
  5
10EF
  8
240
  6
CONTINUOUS
 10
24.300000000000072
 20
1.7928929999999621
 30
0.0
 40
0.5
 50
0.0
 51
7.1137459999995389
  0
ARC
  5
10F0
  8
240
  6
CONTINUOUS
 10
24.300000000000072
 20
1.7928929999999621
 30
0.0
 40
0.5
 50
0.0
 51
7.1137459999995389
  0
ARC
  5
10F1
  8
240
  6
CONTINUOUS
 10
24.300000000000072
 20
1.7928929999999621
 30
0.0
 40
0.5
 50
0.0
 51
7.1137459999995389
  0
LINE
  5
1558
  8
250
  6
CONTINUOUS
 10
-41.696447424073547
 20
-11.565384141331259
 30
0.0
 11
-40.40777228999994
 21
-10.0
 31
0.0
  0
LINE
  5
1559
  8
250
  6
CONTINUOUS
 10
-41.119097154772952
 20
-11.89871747447239
 30
0.0
 11
-40.40777228999994
 21
-10.0
 31
0.0
  0
LINE
  5
155A
  8
250
  6
CONTINUOUS
 10
-40.40777228999994
 20
-10.0
 30
0.0
 11
-41.407772289423249
 21
-11.73205080790183
 31
0.0
  0
LINE
  5
155B
  8
250
  6
CONTINUOUS
 10
-41.407772289423249
 20
-11.73205080790183
 30
0.0
 11
-46.850833949999952
 21
-21.159710159999999
 31
0.0
1001
ACAD
1000
DSTYLE
1002
{
1070
     6
1000
OPEN
1070
    41
1040
2.0
1070
    42
1040
2.0
1070
    44
1040
2.0
1070
   140
1040
4.0
1070
   343
1005
140C
1002
}
  0
TEXT
  5
155C
  8
250
  6
CONTINUOUS
 10
-59.384167289999922
 20
-20.159710159999999
 30
0.0
 40
2.799999999999998
  1
ST20
  7
YOKO
1001
ITEMNAME
1000
LNSP3
  0
LINE
  5
155D
  8
250
  6
CONTINUOUS
 10
-46.850833949999952
 20
-21.159710159999999
 30
0.0
 11
-61.784167289999942
 21
-21.159710159999999
 31
0.0
1001
ITEMNAME
1000
LNSP2
  0
LINE
  5
155E
  8
247
  6
CONTINUOUS
 10
-53.25000000006996
 20
-6.0
 30
0.0
 11
-46.557692308029942
 21
-6.0
 31
0.0
  0
ARC
  5
155F
  8
247
  6
CONTINUOUS
 10
-53.25000000006996
 20
-4.2500000000700311
 30
0.0
 40
1.7499999999299991
 50
90.0
 51
270.0
  0
ARC
  5
1560
  8
247
  6
CONTINUOUS
 10
-46.557692308029942
 20
-4.2500000000700311
 30
0.0
 40
1.7499999999299991
 50
270.0
 51
90.0
  0
LINE
  5
1561
  8
247
  6
CONTINUOUS
 10
-52.384615384719957
 20
-2.5000000001400622
 30
0.0
 11
-53.24485154196195
 21
-5.5000000000200071
 31
0.0
  0
LINE
  5
1562
  8
247
  6
CONTINUOUS
 10
-51.484983818335749
 20
-3.9230769231598961
 30
0.0
 11
-52.792676125975753
 21
-3.9230769231598961
 31
0.0
  0
ARC
  5
1563
  8
247
  6
CONTINUOUS
 10
-51.145143816089728
 20
-3.049598667702865
 30
0.0
 40
0.5538165441895349
 50
342.9978896752952
 51
82.924166218512752
  0
ARC
  5
1564
  8
247
  6
CONTINUOUS
 10
-51.56687832302871
 20
-2.9360330444658289
 30
0.0
 40
0.9904354236226808
 50
274.74293685220141
 51
343.84922627326648
1001
GENIUS_GENOBJ-N-FIL_13
1002
{
1000
OWNER
1000
GEN
1002
}
1001
GENIUS_GENODEF_13
1002
{
1000
HIER
1070
     0
1002
}
1002
{
1000
MANEDIT
1070
     0
1002
}
1002
{
1000
NOSEL
1070
     0
1002
}
1002
{
1000
BEHIND
1070
     0
1002
}
1002
{
1000
OTHER
1070
     0
1002
}
1002
{
1000
REACTOR
1002
}
  0
LINE
  5
1565
  8
247
  6
CONTINUOUS
 10
-51.937159234321953
 20
-5.5000000000200071
 30
0.0
 11
-53.24485154196195
 21
-5.5000000000200071
 31
0.0
  0
LINE
  5
1566
  8
247
  6
CONTINUOUS
 10
-52.384615384719957
 20
-2.5000000001400622
 30
0.0
 11
-51.07692307707994
 21
-2.5000000001400622
 31
0.0
  0
ARC
  5
1567
  8
247
  6
CONTINUOUS
 10
-51.56091963654692
 20
-4.4820242326654789
 30
0.0
 40
0.5640818586791229
 50
335.99094165252171
 51
82.263443459069066
  0
ARC
  5
1568
  8
247
  6
CONTINUOUS
 10
-52.038262685346993
 20
-4.487429039186507
 30
0.0
 40
1.0176059446230981
 50
275.70198516425808
 51
347.27733843682228
1001
GENIUS_GENOBJ-N-FIL_13
1002
{
1000
OWNER
1000
GEN
1002
}
1001
GENIUS_GENODEF_13
1002
{
1000
HIER
1070
     0
1002
}
1002
{
1000
MANEDIT
1070
     0
1002
}
1002
{
1000
NOSEL
1070
     0
1002
}
1002
{
1000
BEHIND
1070
     0
1002
}
1002
{
1000
OTHER
1070
     0
1002
}
1002
{
1000
REACTOR
1002
}
  0
LINE
  5
1569
  8
247
  6
CONTINUOUS
 10
-50.283313080541951
 20
-5.5000000000200071
 30
0.0
 11
-49.423076923299931
 21
-2.5000000001400622
 31
0.0
  0
LINE
  5
156A
  8
247
  6
CONTINUOUS
 10
-47.00000000031995
 20
-2.5000000001400622
 30
0.0
 11
-47.565736619456537
 21
-2.5000000001400622
 31
0.0
  0
LINE
  5
156B
  8
247
  6
CONTINUOUS
 10
-48.461538461799918
 20
-5.5000000000200071
 30
0.0
 11
-47.846153846439961
 21
-5.5000000000200071
 31
0.0
  0
ARC
  5
156C
  8
247
  6
CONTINUOUS
 10
-46.708791209122793
 20
-4.5832851359733677
 30
0.0
 40
2.2526500823422122
 50
112.35948814153021
 51
164.99324854284609
  0
ARC
  5
156D
  8
247
  6
CONTINUOUS
 10
-47.374069479213162
 20
-3.3083126551946389
 30
0.0
 40
0.8906723995727782
 50
4.994589319075371
 51
65.166328957300493
1001
GENIUS_GENOBJ-N-FIL_13
1002
{
1000
OWNER
1000
GEN
1002
}
1001
GENIUS_GENODEF_13
1002
{
1000
HIER
1070
     0
1002
}
1002
{
1000
MANEDIT
1070
     0
1002
}
1002
{
1000
NOSEL
1070
     0
1002
}
1002
{
1000
BEHIND
1070
     0
1002
}
1002
{
1000
OTHER
1070
     0
1002
}
1002
{
1000
REACTOR
1002
}
  0
ARC
  5
156E
  8
247
  6
CONTINUOUS
 10
-48.226458886212512
 20
-4.1601458886677829
 30
0.0
 40
1.392781735586712
 50
285.84609655578072
 51
352.32513700416251
  0
ARC
  5
156F
  8
247
  6
CONTINUOUS
 10
-47.642212725840302
 20
-4.4592434315272831
 30
0.0
 40
1.324563662670287
 50
159.71360167048999
 51
231.78874565641209
1001
GENIUS_GENOBJ-N-FIL_13
1002
{
1000
OWNER
1000
GEN
1002
}
1001
GENIUS_GENODEF_13
1002
{
1000
HIER
1070
     0
1002
}
1002
{
1000
MANEDIT
1070
     0
1002
}
1002
{
1000
NOSEL
1070
     0
1002
}
1002
{
1000
BEHIND
1070
     0
1002
}
1002
{
1000
OTHER
1070
     0
1002
}
1002
{
1000
REACTOR
1002
}
  0
LINE
  5
1570
  8
247
  6
CONTINUOUS
 10
-47.53846153875994
 20
-4.346153846219976
 30
0.0
 11
-46.84615384647995
 21
-4.346153846219976
 31
0.0
  0
LINE
  5
1571
  8
247
  6
CONTINUOUS
 10
-53.25000000006996
 20
-2.5000000001400622
 30
0.0
 11
-52.576923077019998
 21
-2.5000000001400622
 31
0.0
  0
VIEWPORT
  5
22
 67
     1
  8
0
 10
261.51769911504419
 20
148.5
 30
0.0
 40
523.0353982300885
 41
297.0
 68
     1
 69
     1
1001
ACAD
1000
MVIEW
1002
{
1070
    16
1010
0.0
1020
0.0
1030
0.0
1010
0.0
1020
0.0
1030
1.0
1040
0.0
1040
297.0
1040
261.51769911504419
1040
148.5
1040
50.0
1040
0.0
1040
0.0
1070
     0
1070
   100
1070
     1
1070
     1
1070
     0
1070
     0
1070
     0
1070
     0
1040
0.0
1040
0.0
1040
0.0
1040
1.0
1040
1.0
1040
10.0
1040
10.0
1070
     0
1002
{
1002
}
1002
}
1001
GENIUS_GENODEF_13
1002
{
1000
HIER
1070
     0
1002
}
1002
{
1000
MANEDIT
1070
     0
1002
}
1002
{
1000
NOSEL
1070
     0
1002
}
1002
{
1000
BEHIND
1070
     0
1002
}
1002
{
1000
OTHER
1070
     0
1002
}
1002
{
1000
REACTOR
1002
}
1001
GENIUS_GENOBJ-N-SDF_13
1002
{
1000
OWNER
1000
GEN
1002
}
1001
GENIUS_GENSCREG_15
1000
PF
1040
1.0
1000
DF
1040
1.0
1000
MIN
1011
0.0
1021
0.0
1031
0.0
1021
0.0
1031
0.0
1000
MAX
1011
523.0353982300885
1021
0.0
1031
0.0
1021
297.0
1031
0.0
1000
FLAGS
1070
     4
  0
ENDSEC
  0
EOF
