  0
SECTION
  2
HEADER
  9
$ACADVER
  1
AC1009
  9
$INSBASE
 10
0.0
 20
0.0
 30
0.0
  9
$EXTMIN
 10
-143.83189511109919
 20
-10.208887773470559
 30
-0.0000000000112498
  9
$EXTMAX
 10
22.006402949395579
 20
46.7645712233521
 30
0.0000000000002956
  9
$LIMMIN
 10
0.0
 20
0.0
  9
$LIMMAX
 10
297.0
 20
210.0
  9
$ORTHOMODE
 70
     0
  9
$REGENMODE
 70
     1
  9
$FILLMODE
 70
     1
  9
$QTEXTMODE
 70
     0
  9
$MIRRTEXT
 70
     1
  9
$DRAGMODE
 70
     2
  9
$LTSCALE
 40
10.0
  9
$OSMODE
 70
  3071
  9
$ATTMODE
 70
     1
  9
$TEXTSIZE
 40
3.0
  9
$TRACEWID
 40
1.0
  9
$TEXTSTYLE
  7
YOKO
  9
$CLAYER
  8
240
  9
$CELTYPE
  6
BYLAYER
  9
$CECOLOR
 62
   256
  9
$DIMSCALE
 40
1.0
  9
$DIMASZ
 40
2.2299999999999991
  9
$DIMEXO
 40
0.5
  9
$DIMDLI
 40
7.0
  9
$DIMRND
 40
0.0
  9
$DIMDLE
 40
0.0
  9
$DIMEXE
 40
1.0
  9
$DIMTP
 40
0.0
  9
$DIMTM
 40
0.01
  9
$DIMTXT
 40
2.7999999999999989
  9
$DIMCEN
 40
0.0
  9
$DIMTSZ
 40
0.0
  9
$DIMTOL
 70
     0
  9
$DIMLIM
 70
     0
  9
$DIMTIH
 70
     0
  9
$DIMTOH
 70
     0
  9
$DIMSE1
 70
     0
  9
$DIMSE2
 70
     0
  9
$DIMTAD
 70
     3
  9
$DIMZIN
 70
     9
  9
$DIMBLK
  1
OPEN
  9
$DIMASO
 70
     1
  9
$DIMSHO
 70
     1
  9
$DIMPOST
  1

  9
$DIMAPOST
  1

  9
$DIMALT
 70
     0
  9
$DIMALTD
 70
     2
  9
$DIMALTF
 40
25.399999999999999
  9
$DIMLFAC
 40
1.0
  9
$DIMTOFL
 70
     1
  9
$DIMTVP
 40
0.0
  9
$DIMTIX
 70
     1
  9
$DIMSOXD
 70
     0
  9
$DIMSAH
 70
     0
  9
$DIMBLK1
  1

  9
$DIMBLK2
  1

  9
$DIMSTYLE
  2
BIGT
  9
$DIMCLRD
 70
   256
  9
$DIMCLRE
 70
   256
  9
$DIMCLRT
 70
    40
  9
$DIMTFAC
 40
1.0
  9
$DIMGAP
 40
1.0
  9
$LUNITS
 70
     2
  9
$LUPREC
 70
     3
  9
$SKETCHINC
 40
1.0
  9
$FILLETRAD
 40
0.0
  9
$AUNITS
 70
     0
  9
$AUPREC
 70
     3
  9
$MENU
  1
.
  9
$ELEVATION
 40
0.0
  9
$PELEVATION
 40
0.0
  9
$THICKNESS
 40
0.0
  9
$LIMCHECK
 70
     0
  9
$BLIPMODE
 70
     0
  9
$CHAMFERA
 40
0.25
  9
$CHAMFERB
 40
0.25
  9
$SKPOLY
 70
     0
  9
$TDCREATE
 40
2455735.6346095842
  9
$TDUPDATE
 40
2455736.5321125458
  9
$TDINDWG
 40
0.0133753472
  9
$TDUSRTIMER
 40
0.0133753472
  9
$USRTIMER
 70
     1
  9
$ANGBASE
 50
0.0
  9
$ANGDIR
 70
     0
  9
$PDMODE
 70
     1
  9
$PDSIZE
 40
0.0
  9
$PLINEWID
 40
0.0
  9
$COORDS
 70
     2
  9
$SPLFRAME
 70
     0
  9
$SPLINETYPE
 70
     6
  9
$SPLINESEGS
 70
     4
  9
$ATTDIA
 70
     1
  9
$ATTREQ
 70
     1
  9
$HANDLING
 70
     1
  9
$HANDSEED
  5
1E8F
  9
$SURFTAB1
 70
     6
  9
$SURFTAB2
 70
     6
  9
$SURFTYPE
 70
     6
  9
$SURFU
 70
     6
  9
$SURFV
 70
     6
  9
$UCSNAME
  2

  9
$UCSORG
 10
0.0
 20
0.0
 30
0.0
  9
$UCSXDIR
 10
1.0
 20
0.0
 30
0.0
  9
$UCSYDIR
 10
0.0
 20
1.0
 30
0.0
  9
$PUCSNAME
  2

  9
$PUCSORG
 10
0.0
 20
0.0
 30
0.0
  9
$PUCSXDIR
 10
1.0
 20
0.0
 30
0.0
  9
$PUCSYDIR
 10
0.0
 20
1.0
 30
0.0
  9
$USERI1
 70
     1
  9
$USERI2
 70
     0
  9
$USERI3
 70
     0
  9
$USERI4
 70
     0
  9
$USERI5
 70
     0
  9
$USERR1
 40
0.0
  9
$USERR2
 40
0.0
  9
$USERR3
 40
0.0
  9
$USERR4
 40
0.0
  9
$USERR5
 40
0.0
  9
$WORLDVIEW
 70
     1
  9
$SHADEDGE
 70
     3
  9
$SHADEDIF
 70
    70
  9
$TILEMODE
 70
     1
  9
$MAXACTVP
 70
    16
  9
$PLIMCHECK
 70
     0
  9
$PEXTMIN
 10
1.0000000000000000E+020
 20
1.0000000000000000E+020
 30
1.0000000000000000E+020
  9
$PEXTMAX
 10
-1.0000000000000000E+020
 20
-1.0000000000000000E+020
 30
-1.0000000000000000E+020
  9
$PLIMMIN
 10
0.0
 20
0.0
  9
$PLIMMAX
 10
420.0
 20
297.0
  9
$UNITMODE
 70
     0
  9
$VISRETAIN
 70
     1
  9
$PLINEGEN
 70
     0
  9
$PSLTSCALE
 70
     1
  0
ENDSEC
  0
SECTION
  2
TABLES
  0
TABLE
  2
VPORT
 70
     3
  0
VPORT
  2
*ACTIVE
 70
     0
 10
0.0
 20
0.0
 11
1.0
 21
1.0
 12
-60.912746080851832
 22
18.277841724940771
 13
0.0
 23
0.0
 14
7.0
 24
7.0
 15
7.0
 25
7.0
 16
0.0
 26
0.0
 36
1.0
 17
0.0
 27
0.0
 37
0.0
 40
98.869722870599347
 41
1.6846625766871159
 42
50.0
 43
0.0
 44
0.0
 50
0.0
 51
0.0
 71
     0
 72
  2000
 73
     1
 74
     0
 75
     0
 76
     1
 77
     0
 78
     0
  0
ENDTAB
  0
TABLE
  2
LTYPE
 70
    13
  0
LTYPE
  2
CONTINUOUS
 70
     0
  3
Solid line
 72
    65
 73
     0
 40
0.0
  0
LTYPE
  2
CENTER2
 70
     0
  3
___ _ ___ _ ___ _ ___ _ ___ _ ___ _ ___ _ ___ _
 72
    65
 73
     4
 40
1.125
 49
0.75
 49
-0.125
 49
0.125
 49
-0.125
  0
LTYPE
  2
HIDDEN2
 70
     0
  3
_ _ _ _ _ _ _ _ _ _ _ _ _ _ _ _ _ _ _ _ _ _ _ _
 72
    65
 73
     2
 40
0.1875
 49
0.125
 49
-0.0625
  0
LTYPE
  2
PHANTOM2
 70
     0
  3
___ _ _ ___ _ _ ___ _ _ ___ _ _ ___ _ _ ___ _ _
 72
    65
 73
     6
 40
1.25
 49
0.625
 49
-0.125
 49
0.125
 49
-0.125
 49
0.125
 49
-0.125
  0
LTYPE
  2
CENTER
 70
     0
  3
____ _ ____ _ ____ _ ____ _ ____ _ ____ _ ____ 
 72
    65
 73
     4
 40
2.0
 49
1.25
 49
-0.25
 49
0.25
 49
-0.25
  0
LTYPE
  2
AM_ISO02W050
 70
     0
  3
__ __ __ __ __ __ __ __ __ __ __ __ __ __ __
 72
    65
 73
     2
 40
7.5
 49
6.0
 49
-1.5
  0
LTYPE
  2
AMCONSTR
 70
     0
  3
_______________________
 72
    65
 73
     2
 40
9999.0
 49
9999.0
 49
0.0
  0
LTYPE
  2
ACISOWELD
 70
     0
  3
_ _ _ _ _
 72
    65
 73
     2
 40
2.0
 49
2.0
 49
-1.0
  0
LTYPE
  2
ACISOTGB
 70
     0
  3
__ . . __ . .
 72
    65
 73
     6
 40
9.0
 49
4.0
 49
-1.0
 49
1.0
 49
-1.0
 49
1.0
 49
-1.0
  0
LTYPE
  2
ACISOTGL
 70
     0
  3
_ _ _ _ _
 72
    65
 73
     2
 40
3.0
 49
2.0
 49
-1.0
  0
LTYPE
  2
ACJISTGB
 70
     0
  3
__ . . __ . .
 72
    65
 73
     6
 40
9.0
 49
4.0
 49
-1.0
 49
1.0
 49
-1.0
 49
1.0
 49
-1.0
  0
LTYPE
  2
ACJISTGL
 70
     0
  3
_ _ _ _ _
 72
    65
 73
     2
 40
3.0
 49
2.0
 49
-1.0
  0
LTYPE
  2
HIDDEN
 70
     0
  3
Hidden __ __ __ __ __ __ __ __ __ __ __ __ __ _
 72
    65
 73
     2
 40
9.5249999999999986
 49
6.3499999999999988
 49
-3.1749999999999989
  0
ENDTAB
  0
TABLE
  2
LAYER
 70
     9
  0
LAYER
  2
0
 70
     0
 62
     7
  6
CONTINUOUS
  0
LAYER
  2
DEFPOINTS
 70
     0
 62
     7
  6
CONTINUOUS
  0
LAYER
  2
245
 70
     0
 62
     2
  6
CENTER2
  0
LAYER
  2
240
 70
     0
 62
     4
  6
CONTINUOUS
  0
LAYER
  2
241
 70
     0
 62
   211
  6
CONTINUOUS
  0
LAYER
  2
242
 70
     0
 62
     3
  6
CONTINUOUS
  0
LAYER
  2
243
 70
     0
 62
   211
  6
HIDDEN2
  0
LAYER
  2
247
 70
     0
 62
    60
  6
CONTINUOUS
  0
LAYER
  2
250
 70
     0
 62
     3
  6
CONTINUOUS
  0
ENDTAB
  0
TABLE
  2
STYLE
 70
     6
  0
STYLE
  2
STANDARD
 70
     0
 40
0.0
 41
1.0
 50
0.0
 71
     0
 42
3.0
  3
romans.shx
  4
extfont.shx
  0
STYLE
  2
ACISOTS
 70
     0
 40
1.0
 41
1.0
 50
0.0
 71
     0
 42
3.0
  3
amgdt.shx
  4
extfont.shx
  0
STYLE
  2
ACISOGDT
 70
     0
 40
0.0
 41
1.0
 50
0.0
 71
     0
 42
3.0
  3
amgdt.shx
  4
extfont.shx
  0
STYLE
  2
ACJISTS
 70
     0
 40
1.0
 41
1.0
 50
0.0
 71
     0
 42
3.0
  3
amgdt.shx
  4
extfont.shx
  0
STYLE
  2
ACJISGDT
 70
     0
 40
0.0
 41
1.0
 50
0.0
 71
     0
 42
3.0
  3
amgdt.shx
  4
extfont.shx
  0
STYLE
  2
YOKO
 70
     0
 40
0.0
 41
1.0
 50
0.0
 71
     0
 42
3.0
  3
romans.shx
  4
extfont.shx
  0
ENDTAB
  0
TABLE
  2
VIEW
 70
     0
  0
ENDTAB
  0
TABLE
  2
UCS
 70
     0
  0
ENDTAB
  0
TABLE
  2
APPID
 70
    32
  0
APPID
  2
ACAD
 70
     0
  0
APPID
  2
GLOBAL
 70
     0
  0
APPID
  2
DETAIL
 70
     0
  0
APPID
  2
GRPNAME
 70
     0
  0
APPID
  2
GPARA
 70
     0
  0
APPID
  2
MCAD_NO_VIS
 70
     0
  0
APPID
  2
ACAD_TEMP_GRAPHIC
 70
     0
  0
APPID
  2
ACATTRIBSERVICES
 70
     0
  0
APPID
  2
GENIUS_GENSCREG_15
 70
     0
  0
APPID
  2
GENIUS_GENODEF_13
 70
     0
  0
APPID
  2
GENIUS_GENOBJ-N-SDF_13
 70
     0
  0
APPID
  2
GENIUS_GENREC_14
 70
     0
  0
APPID
  2
GENIUS_GENOBJ-N-REC_13
 70
     0
  0
APPID
  2
GENIUS_GENDIMSH_14
 70
     0
  0
APPID
  2
GENIUS_GENOBJ-N-DIM_13
 70
     0
  0
APPID
  2
GENIUS_GENDIM_13
 70
     0
  0
APPID
  2
GENIUS_GENDTOL_13
 70
     0
  0
APPID
  2
GENIUS_GENOLIS_13
 70
     0
  0
APPID
  2
GENIUS_GENOENT_13
 70
     0
  0
APPID
  2
GENIUS_GENOBJ-F-FEM_13
 70
     0
  0
APPID
  2
GENIUS_GENOREF_13
 70
     0
  0
APPID
  2
GENIUS_GEFFEM_13
 70
     0
  0
APPID
  2
GENIUS_GEFFEMP_13
 70
     0
  0
APPID
  2
AD_DRAW
 70
     0
  0
APPID
  2
DESIGNERASSEMBLIES
 70
     0
  0
APPID
  2
ACADM_DIM_EDIT
 70
     0
  0
APPID
  2
AMDT_DM_ADJ
 70
     0
  0
APPID
  2
ITEMNAME
 70
     0
  0
APPID
  2
GRADE_0
 70
     0
  0
APPID
  2
HATCH_TYPE
 70
     0
  0
APPID
  2
HATCH_DISPLAY
 70
     0
  0
APPID
  2
HATCH_DISTANCE
 70
     0
  0
ENDTAB
  0
TABLE
  2
DIMSTYLE
 70
    23
  0
DIMSTYLE
  2
BIGT
 70
     0
  3

  4

  5
OPEN
  6

  7

 40
1.0
 41
2.2299999999999991
 42
0.5
 43
7.0
 44
1.0
 45
0.0
 46
0.0
 47
0.0
 48
0.01
140
2.7999999999999989
141
0.0
142
0.0
143
25.399999999999999
144
1.0
145
0.0
146
1.0
147
1.0
 71
     0
 72
     0
 73
     0
 74
     0
 75
     0
 76
     0
 77
     3
 78
     9
170
     0
171
     2
172
     1
173
     0
174
     1
175
     0
176
   256
177
   256
178
    40
  0
DIMSTYLE
  2
AM_ISO
 70
     0
  3

  4
"
  5

  6

  7

 40
1.0
 41
2.5
 42
1.0
 43
10.0
 44
1.0
 45
0.0
 46
0.0
 47
0.1
 48
0.1
140
3.5
141
0.0
142
0.0
143
0.0393701
144
1.0
145
0.0
146
0.71
147
1.5
 71
     0
 72
     0
 73
     0
 74
     0
 75
     0
 76
     0
 77
     1
 78
     8
170
     0
171
     2
172
     1
173
     0
174
     0
175
     0
176
   256
177
   256
178
     2
  0
DIMSTYLE
  2
AM_ISO$3
 70
     0
  3

  4
"
  5

  6

  7

 40
1.0
 41
2.5
 42
1.0
 43
10.0
 44
1.0
 45
0.0
 46
0.0
 47
0.1
 48
0.1
140
3.5
141
0.0
142
0.0
143
0.0393701
144
1.0
145
0.0
146
0.71
147
1.5
 71
     0
 72
     0
 73
     0
 74
     1
 75
     0
 76
     0
 77
     1
 78
     8
170
     0
171
     2
172
     0
173
     0
174
     0
175
     0
176
   256
177
   256
178
     2
  0
DIMSTYLE
  2
AM_ISO$4
 70
     0
  3

  4
"
  5

  6

  7

 40
1.0
 41
2.5
 42
1.0
 43
10.0
 44
1.0
 45
0.0
 46
0.0
 47
0.1
 48
0.1
140
3.5
141
0.0
142
0.0
143
0.0393701
144
1.0
145
0.0
146
0.71
147
1.5
 71
     0
 72
     0
 73
     0
 74
     1
 75
     0
 76
     0
 77
     1
 78
     8
170
     0
171
     2
172
     0
173
     0
174
     0
175
     0
176
   256
177
   256
178
     2
  0
DIMSTYLE
  2
AM_ISO$6
 70
     0
  3

  4
"
  5

  6

  7

 40
1.0
 41
2.5
 42
1.0
 43
10.0
 44
1.0
 45
0.0
 46
0.0
 47
0.1
 48
0.1
140
3.5
141
0.0
142
0.0
143
0.0393701
144
1.0
145
0.0
146
0.71
147
1.5
 71
     0
 72
     0
 73
     0
 74
     0
 75
     0
 76
     0
 77
     0
 78
     8
170
     0
171
     2
172
     1
173
     0
174
     0
175
     0
176
   256
177
   256
178
     2
  0
DIMSTYLE
  2
AM_ISO$7
 70
     0
  3

  4
"
  5

  6

  7

 40
1.0
 41
2.5
 42
1.0
 43
10.0
 44
1.0
 45
0.0
 46
0.0
 47
0.1
 48
0.1
140
5.0
141
0.0
142
0.0
143
0.0393701
144
1.0
145
0.0
146
0.71
147
1.5
 71
     0
 72
     0
 73
     0
 74
     0
 75
     0
 76
     0
 77
     1
 78
     8
170
     0
171
     2
172
     1
173
     0
174
     0
175
     0
176
   256
177
   256
178
     2
  0
DIMSTYLE
  2
AM_ISO$SF
 70
     0
  3

  4
"
  5

  6

  7

 40
1.0
 41
2.5
 42
1.0
 43
10.0
 44
1.0
 45
0.0
 46
0.0
 47
0.1
 48
0.1
140
3.5
141
0.0
142
0.0
143
0.0393701
144
1.0
145
0.0
146
0.71
147
1.5
 71
     0
 72
     0
 73
     0
 74
     0
 75
     1
 76
     1
 77
     1
 78
     8
170
     0
171
     2
172
     1
173
     0
174
     0
175
     0
176
   256
177
   256
178
     2
  0
DIMSTYLE
  2
AM_ISO$SH
 70
     0
  3

  4
"
  5

  6
GENAXEH
  7

 40
1.0
 41
2.5
 42
1.0
 43
10.0
 44
1.0
 45
0.0
 46
0.0
 47
0.1
 48
0.1
140
3.5
141
0.0
142
0.0
143
0.0393701
144
2.0
145
0.0
146
0.71
147
1.5
 71
     0
 72
     0
 73
     0
 74
     0
 75
     1
 76
     1
 77
     1
 78
     8
170
     0
171
     2
172
     1
173
     1
174
     0
175
     0
176
   256
177
   256
178
     2
  0
DIMSTYLE
  2
BIGT$2
 70
     0
  3

  4

  5
OPEN
  6

  7

 40
1.0
 41
2.2299999999999991
 42
0.5
 43
7.0
 44
1.0
 45
0.0
 46
0.0
 47
0.0
 48
0.01
140
2.7999999999999989
141
0.0
142
0.0
143
25.399999999999999
144
1.0
145
0.0
146
1.0
147
1.0
 71
     0
 72
     0
 73
     0
 74
     0
 75
     0
 76
     0
 77
     3
 78
     9
170
     0
171
     2
172
     1
173
     0
174
     0
175
     0
176
   256
177
   256
178
    40
  0
DIMSTYLE
  2
BIGT$3
 70
     0
  3

  4

  5
OPEN
  6

  7

 40
1.0
 41
2.2299999999999991
 42
0.5
 43
2.5
 44
1.0
 45
0.0
 46
0.0
 47
0.0
 48
0.01
140
2.7999999999999989
141
0.0
142
0.0
143
25.399999999999999
144
1.0
145
0.0
146
1.0
147
1.0
 71
     0
 72
     0
 73
     0
 74
     0
 75
     0
 76
     0
 77
     3
 78
     9
170
     0
171
     2
172
     1
173
     0
174
     0
175
     0
176
   256
177
   256
178
    40
  0
DIMSTYLE
  2
BIGT$7
 70
     0
  3

  4

  5
OPEN
  6

  7

 40
0.0
 41
2.2299999999999991
 42
0.5
 43
7.0
 44
1.0
 45
0.0
 46
0.0
 47
0.0
 48
0.01
140
2.7999999999999989
141
0.0
142
0.0
143
25.399999999999999
144
1.0
145
0.0
146
1.0
147
1.0
 71
     0
 72
     0
 73
     0
 74
     0
 75
     0
 76
     0
 77
     3
 78
     9
170
     0
171
     2
172
     0
173
     0
174
     0
175
     0
176
   256
177
   256
178
    40
  0
DIMSTYLE
  2
BIGT$6
 70
     0
  3

  4

  5
OPEN
  6

  7

 40
1.0
 41
2.2299999999999991
 42
0.5
 43
2.5
 44
1.0
 45
0.0
 46
0.0
 47
0.0
 48
0.01
140
2.7999999999999989
141
0.0
142
0.0
143
25.399999999999999
144
1.0
145
0.0
146
1.0
147
1.0
 71
     0
 72
     0
 73
     0
 74
     0
 75
     0
 76
     0
 77
     3
 78
     9
170
     0
171
     2
172
     1
173
     0
174
     0
175
     0
176
   256
177
   256
178
    40
  0
DIMSTYLE
  2
BIGT$0
 70
     0
  3

  4

  5
OPEN
  6

  7

 40
1.0
 41
2.2299999999999991
 42
0.5
 43
7.0
 44
1.0
 45
0.0
 46
0.0
 47
0.0
 48
0.01
140
2.7999999999999989
141
0.0
142
0.0
143
25.399999999999999
144
1.0
145
0.0
146
1.0
147
1.0
 71
     0
 72
     0
 73
     0
 74
     0
 75
     0
 76
     0
 77
     3
 78
     9
170
     0
171
     2
172
     1
173
     0
174
     0
175
     0
176
   256
177
   256
178
    40
  0
DIMSTYLE
  2
BIGT$4
 70
     0
  3

  4

  5
OPEN
  6

  7

 40
1.0
 41
2.2299999999999991
 42
0.5
 43
2.5
 44
1.0
 45
0.0
 46
0.0
 47
0.0
 48
0.01
140
2.7999999999999989
141
0.0
142
0.0
143
25.399999999999999
144
1.0
145
0.0
146
1.0
147
1.0
 71
     0
 72
     0
 73
     0
 74
     0
 75
     0
 76
     0
 77
     3
 78
     9
170
     0
171
     2
172
     1
173
     0
174
     0
175
     0
176
   256
177
   256
178
    40
  0
DIMSTYLE
  2
BIGT$SH
 70
     0
  3

  4

  5
OPEN
  6

  7

 40
1.0
 41
2.2299999999999991
 42
0.5
 43
7.0
 44
1.0
 45
0.0
 46
0.0
 47
0.0
 48
0.0
140
2.7999999999999989
141
0.0
142
0.0
143
25.399999999999999
144
1.0
145
0.0
146
1.0
147
1.0
 71
     0
 72
     0
 73
     0
 74
     0
 75
     0
 76
     0
 77
     3
 78
     9
170
     0
171
     2
172
     1
173
     0
174
     0
175
     0
176
   256
177
   256
178
    40
  0
DIMSTYLE
  2
BIGT$SF
 70
     0
  3

  4

  5
OPEN
  6

  7

 40
1.0
 41
2.2299999999999991
 42
0.5
 43
7.0
 44
1.0
 45
0.0
 46
0.0
 47
0.0
 48
0.0
140
2.7999999999999989
141
0.0
142
0.0
143
25.399999999999999
144
1.0
145
0.0
146
1.0
147
1.0
 71
     0
 72
     0
 73
     0
 74
     0
 75
     0
 76
     0
 77
     3
 78
     9
170
     0
171
     2
172
     1
173
     0
174
     0
175
     0
176
   256
177
   256
178
    40
  0
DIMSTYLE
  2
TECHNICAL_OSAKA
 70
     0
  3

  4
"
  5
OPEN30
  6

  7

 40
1.0
 41
2.5
 42
1.0
 43
10.0
 44
1.0
 45
0.0
 46
0.0
 47
0.1
 48
0.1
140
2.7999999999999989
141
0.0
142
0.0
143
0.0393701
144
1.0
145
0.0
146
0.71
147
1.5
 71
     0
 72
     0
 73
     0
 74
     0
 75
     0
 76
     0
 77
     3
 78
     8
170
     0
171
     2
172
     1
173
     0
174
     0
175
     0
176
   256
177
   256
178
    40
  0
DIMSTYLE
  2
TECHNICAL_OSAKA$3
 70
     0
  3

  4
"
  5
OPEN30
  6

  7

 40
1.0
 41
2.5
 42
1.0
 43
10.0
 44
1.0
 45
0.0
 46
0.0
 47
0.1
 48
0.1
140
2.7999999999999989
141
0.0
142
0.0
143
0.0393701
144
1.0
145
0.0
146
0.71
147
1.5
 71
     0
 72
     0
 73
     0
 74
     1
 75
     0
 76
     0
 77
     3
 78
     8
170
     0
171
     2
172
     0
173
     0
174
     0
175
     0
176
   256
177
   256
178
    40
  0
DIMSTYLE
  2
TECHNICAL_OSAKA$4
 70
     0
  3

  4
"
  5
OPEN30
  6

  7

 40
1.0
 41
2.5
 42
1.0
 43
10.0
 44
1.0
 45
0.0
 46
0.0
 47
0.1
 48
0.1
140
2.7999999999999989
141
0.0
142
0.0
143
0.0393701
144
1.0
145
0.0
146
0.71
147
1.5
 71
     0
 72
     0
 73
     0
 74
     1
 75
     0
 76
     0
 77
     3
 78
     8
170
     0
171
     2
172
     0
173
     0
174
     0
175
     0
176
   256
177
   256
178
    40
  0
DIMSTYLE
  2
TECHNICAL_OSAKA$6
 70
     0
  3

  4
"
  5
OPEN30
  6

  7

 40
1.0
 41
2.5
 42
1.0
 43
10.0
 44
1.0
 45
0.0
 46
0.0
 47
0.1
 48
0.1
140
2.7999999999999989
141
0.0
142
0.0
143
0.0393701
144
1.0
145
0.0
146
0.71
147
1.5
 71
     0
 72
     0
 73
     0
 74
     0
 75
     0
 76
     0
 77
     0
 78
     8
170
     0
171
     2
172
     1
173
     0
174
     0
175
     0
176
   256
177
   256
178
    40
  0
DIMSTYLE
  2
TECHNICAL_OSAKA$7
 70
     0
  3

  4
"
  5
OPEN30
  6

  7

 40
1.0
 41
2.5
 42
1.0
 43
10.0
 44
1.0
 45
0.0
 46
0.0
 47
0.1
 48
0.1
140
2.7999999999999989
141
0.0
142
0.0
143
0.0393701
144
1.0
145
0.0
146
0.71
147
1.5
 71
     0
 72
     0
 73
     0
 74
     0
 75
     0
 76
     0
 77
     3
 78
     8
170
     0
171
     2
172
     1
173
     0
174
     0
175
     0
176
   256
177
   256
178
    40
  0
DIMSTYLE
  2
TECHNICAL_OSAKA$SF
 70
     0
  3

  4
"
  5
OPEN30
  6
OPEN30
  7
OPEN30
 40
1.0
 41
2.5
 42
1.0
 43
10.0
 44
1.0
 45
0.0
 46
0.0
 47
0.1
 48
0.1
140
3.5
141
0.0
142
0.0
143
0.0393701
144
1.0
145
0.0
146
0.71
147
1.5
 71
     0
 72
     0
 73
     0
 74
     0
 75
     1
 76
     1
 77
     3
 78
     8
170
     0
171
     2
172
     1
173
     0
174
     0
175
     0
176
   256
177
   256
178
    40
  0
DIMSTYLE
  2
TECHNICAL_OSAKA$SH
 70
     0
  3

  4
"
  5
OPEN30
  6
GENAXEH
  7
OPEN30
 40
1.0
 41
2.5
 42
1.0
 43
10.0
 44
1.0
 45
0.0
 46
0.0
 47
0.1
 48
0.1
140
3.5
141
0.0
142
0.0
143
0.0393701
144
2.0
145
0.0
146
0.71
147
1.5
 71
     0
 72
     0
 73
     0
 74
     0
 75
     1
 76
     1
 77
     3
 78
     8
170
     0
171
     2
172
     1
173
     1
174
     0
175
     0
176
   256
177
   256
178
    40
  0
ENDTAB
  0
ENDSEC
  0
SECTION
  2
BLOCKS
  0
BLOCK
  8
0
  2
$MODEL_SPACE
 70
     0
 10
0.0
 20
0.0
 30
0.0
  3
$MODEL_SPACE
  1

  0
ENDBLK
  5
1C
  8
0
  0
BLOCK
 67
     1
  8
0
  2
$PAPER_SPACE
 70
     0
 10
0.0
 20
0.0
 30
0.0
  3
$PAPER_SPACE
  1

  0
ENDBLK
  5
19
 67
     1
  8
0
  0
BLOCK
  8
0
  2
_OPEN
 70
     0
 10
0.0
 20
0.0
 30
0.0
  3
_OPEN
  1

  0
LINE
  5
1C5F
  8
0
  6
BYBLOCK
 62
     0
 10
-1.0
 20
0.1666666666666666
 30
0.0
 11
0.0
 21
0.0
 31
0.0
  0
LINE
  5
1C60
  8
0
  6
BYBLOCK
 62
     0
 10
-1.0
 20
-0.1666666666666666
 30
0.0
 11
0.0
 21
0.0
 31
0.0
  0
LINE
  5
1C61
  8
0
  6
BYBLOCK
 62
     0
 10
0.0
 20
0.0
 30
0.0
 11
-1.0
 21
0.0
 31
0.0
  0
ENDBLK
  5
1C62
  8
0
  0
BLOCK
  8
0
  2
GENAXEH
 70
     0
 10
0.0
 20
0.0
 30
0.0
  3
GENAXEH
  1

  0
LINE
  5
1C8A
  8
0
 10
-1.0
 20
0.0
 30
0.0
 11
1.0
 21
0.0
 31
0.0
  0
ENDBLK
  5
1C8B
  8
0
  0
BLOCK
  8
0
  2
_OPEN30
 70
     0
 10
0.0
 20
0.0
 30
0.0
  3
_OPEN30
  1

  0
LINE
  5
1CAF
  8
0
  6
BYBLOCK
 62
     0
 10
-1.0
 20
0.26794919
 30
0.0
 11
0.0
 21
0.0
 31
0.0
  0
LINE
  5
1CB0
  8
0
  6
BYBLOCK
 62
     0
 10
0.0
 20
0.0
 30
0.0
 11
-1.0
 21
-0.26794919
 31
0.0
  0
LINE
  5
1CB1
  8
0
  6
BYBLOCK
 62
     0
 10
0.0
 20
0.0
 30
0.0
 11
-1.0
 21
0.0
 31
0.0
  0
ENDBLK
  5
1CB2
  8
0
  0
ENDSEC
  0
SECTION
  2
ENTITIES
  0
TEXT
  5
18D9
  8
241
 10
-133.0
 20
42.0
 30
0.0
 40
4.0
  1
ST20-BFM16/26-56
  7
YOKO
  0
LINE
  5
18DF
  8
250
 10
-0.0000000000000113
 20
13.29038105676687
 30
0.0
 11
-0.0000000000000108
 21
22.0
 31
0.0
  0
LINE
  5
18E0
  8
250
 10
-55.999999999999943
 20
8.8499999999999677
 30
0.0
 11
-55.999999999999943
 21
22.0
 31
0.0
  0
LINE
  5
18E1
  8
250
 10
-2.2300000000000102
 20
21.0
 30
0.0
 11
-53.769999999999953
 21
21.0
 31
0.0
  0
LINE
  5
18E5
  8
250
 10
10.000000000000339
 20
13.09999999999979
 30
0.0
 11
10.000000000000339
 21
22.0
 31
0.0
  0
LINE
  5
18E6
  8
250
 10
0.0000000000000522
 20
13.100000000000041
 30
0.0
 11
0.0000000000000527
 21
22.0
 31
0.0
  0
LINE
  5
18E7
  8
250
 10
7.7700000000003397
 20
21.0
 30
0.0
 11
2.2300000000000519
 21
21.0
 31
0.0
  0
LINE
  5
18EB
  8
250
 10
-131.99999999999989
 20
9.5
 30
0.0
 11
-131.99999999999989
 21
29.0
 31
0.0
  0
LINE
  5
18EC
  8
250
 10
10.000000000000339
 20
13.099999999998831
 30
0.0
 11
10.000000000000339
 21
29.0
 31
0.0
  0
LINE
  5
18ED
  8
250
 10
-129.7699999999999
 20
28.0
 30
0.0
 11
7.7700000000003424
 21
28.0
 31
0.0
  0
LINE
  5
18F1
  8
250
 10
5.3000000000000114
 20
12.999999999999959
 30
0.0
 11
22.0
 21
12.99999999999995
 31
0.0
  0
LINE
  5
18F2
  8
250
 10
21.0
 20
10.76999999999995
 30
0.0
 11
21.0
 21
-4.5333333333333359
 31
0.0
  0
LINE
  5
18F5
  8
250
 10
-131.49999999999989
 20
10.0
 30
0.0
 11
-140.99999999999989
 21
10.0
 31
0.0
  0
LINE
  5
18F6
  8
250
 10
-131.49999999999989
 20
-10.0
 30
0.0
 11
-140.99999999999989
 21
-9.9999999999999964
 31
0.0
  0
LINE
  5
18F7
  8
250
 10
-139.99999999999989
 20
7.7700000000000022
 30
0.0
 11
-139.99999999999989
 21
-7.769999999999996
 31
0.0
  0
TEXT
  5
18FB
  8
250
 10
19.999999999999989
 20
-3.7999999999999989
 30
0.0
 40
2.7999999999999989
  1
\U+220526
 50
90.0
  0
LINE
  5
18FC
  8
250
 10
20.62833333333333
 20
10.76999999999995
 30
0.0
 11
21.0
 21
12.99999999999995
 31
0.0
  0
LINE
  5
18FD
  8
250
 10
21.37166666666667
 20
10.76999999999995
 30
0.0
 11
21.0
 21
12.99999999999995
 31
0.0
  0
LINE
  5
18FE
  8
250
 10
21.0
 20
12.99999999999995
 30
0.0
 11
21.0
 21
10.76999999999995
 31
0.0
  0
TEXT
  5
18FF
  8
250
 10
-30.66666666666665
 20
22.0
 30
0.0
 40
2.7999999999999989
  1
56
  0
LINE
  5
1900
  8
250
 10
-53.769999999999953
 20
20.62833333333333
 30
0.0
 11
-55.999999999999943
 21
21.0
 31
0.0
  0
LINE
  5
1901
  8
250
 10
-53.769999999999953
 20
21.37166666666667
 30
0.0
 11
-55.999999999999943
 21
21.0
 31
0.0
  0
LINE
  5
1902
  8
250
 10
-55.999999999999943
 20
21.0
 30
0.0
 11
-53.769999999999953
 21
21.0
 31
0.0
  0
LINE
  5
1903
  8
250
 10
-2.2300000000000102
 20
21.37166666666667
 30
0.0
 11
-0.0000000000000109
 21
21.0
 31
0.0
  0
LINE
  5
1904
  8
250
 10
-2.2300000000000102
 20
20.62833333333333
 30
0.0
 11
-0.0000000000000109
 21
21.0
 31
0.0
  0
LINE
  5
1905
  8
250
 10
-0.0000000000000109
 20
21.0
 30
0.0
 11
-2.2300000000000102
 21
21.0
 31
0.0
  0
TEXT
  5
1906
  8
250
 10
2.13333333333353
 20
22.0
 30
0.0
 40
2.7999999999999989
  1
10
  0
LINE
  5
1907
  8
250
 10
2.2300000000000519
 20
20.62833333333333
 30
0.0
 11
0.0000000000000527
 21
21.0
 31
0.0
  0
LINE
  5
1908
  8
250
 10
2.2300000000000519
 20
21.37166666666667
 30
0.0
 11
0.0000000000000527
 21
21.0
 31
0.0
  0
LINE
  5
1909
  8
250
 10
0.0000000000000527
 20
21.0
 30
0.0
 11
2.2300000000000519
 21
21.0
 31
0.0
  0
LINE
  5
190A
  8
250
 10
7.7700000000003397
 20
21.37166666666667
 30
0.0
 11
10.000000000000339
 21
21.0
 31
0.0
  0
LINE
  5
190B
  8
250
 10
7.7700000000003397
 20
20.62833333333333
 30
0.0
 11
10.000000000000339
 21
21.0
 31
0.0
  0
LINE
  5
190C
  8
250
 10
10.000000000000339
 20
21.0
 30
0.0
 11
7.7700000000003397
 21
21.0
 31
0.0
  0
TEXT
  5
190D
  8
250
 10
-65.199999999999804
 20
29.0
 30
0.0
 40
2.7999999999999989
  1
142
  0
LINE
  5
190E
  8
250
 10
7.7700000000003424
 20
28.371666666666659
 30
0.0
 11
10.000000000000339
 21
28.0
 31
0.0
  0
LINE
  5
190F
  8
250
 10
7.7700000000003424
 20
27.62833333333333
 30
0.0
 11
10.000000000000339
 21
28.0
 31
0.0
  0
LINE
  5
1910
  8
250
 10
10.000000000000339
 20
28.0
 30
0.0
 11
7.7700000000003424
 21
28.0
 31
0.0
  0
LINE
  5
1911
  8
250
 10
-129.7699999999999
 20
27.62833333333333
 30
0.0
 11
-131.99999999999989
 21
28.0
 31
0.0
  0
LINE
  5
1912
  8
250
 10
-129.7699999999999
 20
28.371666666666659
 30
0.0
 11
-131.99999999999989
 21
28.0
 31
0.0
  0
LINE
  5
1913
  8
250
 10
-131.99999999999989
 20
28.0
 30
0.0
 11
-129.7699999999999
 21
28.0
 31
0.0
  0
TEXT
  5
1914
  8
250
 10
-140.99999999999989
 20
-3.800000000000018
 30
0.0
 40
2.7999999999999989
  1
\U+220520
 50
90.0
  0
LINE
  5
1915
  8
250
 10
-139.6283333333333
 20
-7.7699999999999969
 30
0.0
 11
-139.99999999999989
 21
-9.9999999999999982
 31
0.0
  0
LINE
  5
1916
  8
250
 10
-140.37166666666661
 20
-7.7699999999999969
 30
0.0
 11
-139.99999999999989
 21
-9.9999999999999982
 31
0.0
  0
LINE
  5
1917
  8
250
 10
-139.99999999999989
 20
-9.9999999999999982
 30
0.0
 11
-139.99999999999989
 21
-7.7699999999999969
 31
0.0
  0
LINE
  5
1918
  8
250
 10
-140.37166666666661
 20
7.7700000000000014
 30
0.0
 11
-139.99999999999989
 21
10.0
 31
0.0
  0
LINE
  5
1919
  8
250
 10
-139.6283333333333
 20
7.7700000000000014
 30
0.0
 11
-139.99999999999989
 21
10.0
 31
0.0
  0
LINE
  5
191A
  8
250
 10
-139.99999999999989
 20
10.0
 30
0.0
 11
-139.99999999999989
 21
7.7700000000000014
 31
0.0
  0
LINE
  5
1AF5
  8
243
 10
-130.99999999999989
 20
-3.9999999999999432
 30
0.0
 11
-61.999999999999453
 21
-3.9999999999999432
 31
0.0
  0
LINE
  5
1AF6
  8
243
 10
-130.99999999999989
 20
4.0
 30
0.0
 11
-62.000000000000142
 21
4.0
 31
0.0
  0
LINE
  5
1AF7
  8
245
 10
-133.99999999999989
 20
0.0
 30
0.0
 11
12.00000000000062
 21
0.0
 31
0.0
  0
LINE
  5
1AF8
  8
240
 10
-130.99999999999989
 20
-10.0
 30
0.0
 11
-62.414213562372879
 21
-9.9999999999999716
 31
0.0
  0
LINE
  5
1AF9
  8
240
 10
-130.99999999999989
 20
10.0
 30
0.0
 11
-62.414213562372453
 21
10.00000000000005
 31
0.0
  0
LINE
  5
1AFA
  8
240
 10
-131.99999999999989
 20
9.0
 30
0.0
 11
-131.99999999999989
 21
0.0
 31
0.0
  0
ARC
  5
1AFB
  8
243
 10
-130.99999999999989
 20
-4.9999999999999432
 30
0.0
 40
1.0
 50
90.0
 51
180.0
  0
LINE
  5
1AFC
  8
240
 10
-131.99999999999989
 20
-9.0
 30
0.0
 11
-131.99999999999989
 21
0.0
 31
0.0
  0
ARC
  5
1AFD
  8
240
 10
-130.99999999999989
 20
-9.0
 30
0.0
 40
1.0
 50
180.0
 51
270.0
  0
ARC
  5
1AFE
  8
243
 10
-130.99999999999989
 20
5.0
 30
0.0
 40
1.0
 50
180.0
 51
270.0
  0
ARC
  5
1AFF
  8
240
 10
-130.99999999999989
 20
9.0
 30
0.0
 40
1.0
 50
90.0
 51
180.0
  0
POLYLINE
  8
241
  5
1CC9
  66
     1
 10
0.000000
 20
0.000000
 30
0.000000
  70
     8
  0
VERTEX
  8
241
  5
1CCA
 10
-0.500000
 20
8.35000
 30
0.000000
  70
    32
  0
VERTEX
  8
241
  5
1CCB
 10
-0.623003
 20
8.27561
 30
0.000000
  70
    32
  0
VERTEX
  8
241
  5
1CCC
 10
-0.745970
 20
8.20123
 30
0.000000
  70
    32
  0
VERTEX
  8
241
  5
1CCD
 10
-0.868862
 20
8.12685
 30
0.000000
  70
    32
  0
VERTEX
  8
241
  5
1CCE
 10
-0.991642
 20
8.05249
 30
0.000000
  70
    32
  0
VERTEX
  8
241
  5
1CCF
 10
-1.11427
 20
7.97814
 30
0.000000
  70
    32
  0
VERTEX
  8
241
  5
1CD0
 10
-1.23672
 20
7.90380
 30
0.000000
  70
    32
  0
VERTEX
  8
241
  5
1CD1
 10
-1.35894
 20
7.82950
 30
0.000000
  70
    32
  0
VERTEX
  8
241
  5
1CD2
 10
-1.48091
 20
7.75521
 30
0.000000
  70
    32
  0
VERTEX
  8
241
  5
1CD3
 10
-1.60257
 20
7.68096
 30
0.000000
  70
    32
  0
VERTEX
  8
241
  5
1CD4
 10
-1.72390
 20
7.60674
 30
0.000000
  70
    32
  0
VERTEX
  8
241
  5
1CD5
 10
-1.84486
 20
7.53256
 30
0.000000
  70
    32
  0
VERTEX
  8
241
  5
1CD6
 10
-1.96542
 20
7.45843
 30
0.000000
  70
    32
  0
VERTEX
  8
241
  5
1CD7
 10
-2.08552
 20
7.38433
 30
0.000000
  70
    32
  0
VERTEX
  8
241
  5
1CD8
 10
-2.20514
 20
7.31029
 30
0.000000
  70
    32
  0
VERTEX
  8
241
  5
1CD9
 10
-2.32425
 20
7.23630
 30
0.000000
  70
    32
  0
VERTEX
  8
241
  5
1CDA
 10
-2.44279
 20
7.16237
 30
0.000000
  70
    32
  0
VERTEX
  8
241
  5
1CDB
 10
-2.56074
 20
7.08850
 30
0.000000
  70
    32
  0
VERTEX
  8
241
  5
1CDC
 10
-2.67806
 20
7.01469
 30
0.000000
  70
    32
  0
VERTEX
  8
241
  5
1CDD
 10
-2.79471
 20
6.94095
 30
0.000000
  70
    32
  0
VERTEX
  8
241
  5
1CDE
 10
-2.91065
 20
6.86728
 30
0.000000
  70
    32
  0
VERTEX
  8
241
  5
1CDF
 10
-3.02586
 20
6.79369
 30
0.000000
  70
    32
  0
VERTEX
  8
241
  5
1CE0
 10
-3.14028
 20
6.72017
 30
0.000000
  70
    32
  0
VERTEX
  8
241
  5
1CE1
 10
-3.25388
 20
6.64675
 30
0.000000
  70
    32
  0
VERTEX
  8
241
  5
1CE2
 10
-3.36663
 20
6.57340
 30
0.000000
  70
    32
  0
VERTEX
  8
241
  5
1CE3
 10
-3.47849
 20
6.50015
 30
0.000000
  70
    32
  0
VERTEX
  8
241
  5
1CE4
 10
-3.58941
 20
6.42700
 30
0.000000
  70
    32
  0
VERTEX
  8
241
  5
1CE5
 10
-3.69938
 20
6.35394
 30
0.000000
  70
    32
  0
VERTEX
  8
241
  5
1CE6
 10
-3.80833
 20
6.28098
 30
0.000000
  70
    32
  0
VERTEX
  8
241
  5
1CE7
 10
-3.91625
 20
6.20814
 30
0.000000
  70
    32
  0
VERTEX
  8
241
  5
1CE8
 10
-4.02309
 20
6.13540
 30
0.000000
  70
    32
  0
VERTEX
  8
241
  5
1CE9
 10
-4.12882
 20
6.06277
 30
0.000000
  70
    32
  0
VERTEX
  8
241
  5
1CEA
 10
-4.23340
 20
5.99026
 30
0.000000
  70
    32
  0
VERTEX
  8
241
  5
1CEB
 10
-4.33678
 20
5.91788
 30
0.000000
  70
    32
  0
VERTEX
  8
241
  5
1CEC
 10
-4.43894
 20
5.84561
 30
0.000000
  70
    32
  0
VERTEX
  8
241
  5
1CED
 10
-4.53984
 20
5.77348
 30
0.000000
  70
    32
  0
VERTEX
  8
241
  5
1CEE
 10
-4.63943
 20
5.70148
 30
0.000000
  70
    32
  0
VERTEX
  8
241
  5
1CEF
 10
-4.73769
 20
5.62962
 30
0.000000
  70
    32
  0
VERTEX
  8
241
  5
1CF0
 10
-4.83458
 20
5.55790
 30
0.000000
  70
    32
  0
VERTEX
  8
241
  5
1CF1
 10
-4.93005
 20
5.48632
 30
0.000000
  70
    32
  0
VERTEX
  8
241
  5
1CF2
 10
-5.02407
 20
5.41488
 30
0.000000
  70
    32
  0
VERTEX
  8
241
  5
1CF3
 10
-5.11661
 20
5.34360
 30
0.000000
  70
    32
  0
VERTEX
  8
241
  5
1CF4
 10
-5.20762
 20
5.27248
 30
0.000000
  70
    32
  0
VERTEX
  8
241
  5
1CF5
 10
-5.29707
 20
5.20152
 30
0.000000
  70
    32
  0
VERTEX
  8
241
  5
1CF6
 10
-5.38493
 20
5.13071
 30
0.000000
  70
    32
  0
VERTEX
  8
241
  5
1CF7
 10
-5.47115
 20
5.06008
 30
0.000000
  70
    32
  0
VERTEX
  8
241
  5
1CF8
 10
-5.55570
 20
4.98961
 30
0.000000
  70
    32
  0
VERTEX
  8
241
  5
1CF9
 10
-5.63854
 20
4.91932
 30
0.000000
  70
    32
  0
VERTEX
  8
241
  5
1CFA
 10
-5.71963
 20
4.84921
 30
0.000000
  70
    32
  0
VERTEX
  8
241
  5
1CFB
 10
-5.79894
 20
4.77928
 30
0.000000
  70
    32
  0
VERTEX
  8
241
  5
1CFC
 10
-5.87643
 20
4.70954
 30
0.000000
  70
    32
  0
VERTEX
  8
241
  5
1CFD
 10
-5.95206
 20
4.63998
 30
0.000000
  70
    32
  0
VERTEX
  8
241
  5
1CFE
 10
-6.02580
 20
4.57062
 30
0.000000
  70
    32
  0
VERTEX
  8
241
  5
1CFF
 10
-6.09760
 20
4.50146
 30
0.000000
  70
    32
  0
VERTEX
  8
241
  5
1D00
 10
-6.16744
 20
4.43249
 30
0.000000
  70
    32
  0
VERTEX
  8
241
  5
1D01
 10
-6.23527
 20
4.36373
 30
0.000000
  70
    32
  0
VERTEX
  8
241
  5
1D02
 10
-6.30105
 20
4.29518
 30
0.000000
  70
    32
  0
VERTEX
  8
241
  5
1D03
 10
-6.36476
 20
4.22684
 30
0.000000
  70
    32
  0
VERTEX
  8
241
  5
1D04
 10
-6.42634
 20
4.15872
 30
0.000000
  70
    32
  0
VERTEX
  8
241
  5
1D05
 10
-6.48578
 20
4.09082
 30
0.000000
  70
    32
  0
VERTEX
  8
241
  5
1D06
 10
-6.54302
 20
4.02314
 30
0.000000
  70
    32
  0
VERTEX
  8
241
  5
1D07
 10
-6.59803
 20
3.95569
 30
0.000000
  70
    32
  0
VERTEX
  8
241
  5
1D08
 10
-6.65077
 20
3.88847
 30
0.000000
  70
    32
  0
VERTEX
  8
241
  5
1D09
 10
-6.70121
 20
3.82149
 30
0.000000
  70
    32
  0
VERTEX
  8
241
  5
1D0A
 10
-6.74931
 20
3.75474
 30
0.000000
  70
    32
  0
VERTEX
  8
241
  5
1D0B
 10
-6.79503
 20
3.68824
 30
0.000000
  70
    32
  0
VERTEX
  8
241
  5
1D0C
 10
-6.83834
 20
3.62198
 30
0.000000
  70
    32
  0
VERTEX
  8
241
  5
1D0D
 10
-6.87920
 20
3.55597
 30
0.000000
  70
    32
  0
VERTEX
  8
241
  5
1D0E
 10
-6.91756
 20
3.49022
 30
0.000000
  70
    32
  0
VERTEX
  8
241
  5
1D0F
 10
-6.95340
 20
3.42472
 30
0.000000
  70
    32
  0
VERTEX
  8
241
  5
1D10
 10
-6.98668
 20
3.35949
 30
0.000000
  70
    32
  0
VERTEX
  8
241
  5
1D11
 10
-7.01735
 20
3.29452
 30
0.000000
  70
    32
  0
VERTEX
  8
241
  5
1D12
 10
-7.04539
 20
3.22982
 30
0.000000
  70
    32
  0
VERTEX
  8
241
  5
1D13
 10
-7.07075
 20
3.16540
 30
0.000000
  70
    32
  0
VERTEX
  8
241
  5
1D14
 10
-7.09340
 20
3.10125
 30
0.000000
  70
    32
  0
VERTEX
  8
241
  5
1D15
 10
-7.11330
 20
3.03738
 30
0.000000
  70
    32
  0
VERTEX
  8
241
  5
1D16
 10
-7.13041
 20
2.97379
 30
0.000000
  70
    32
  0
VERTEX
  8
241
  5
1D17
 10
-7.14470
 20
2.91050
 30
0.000000
  70
    32
  0
VERTEX
  8
241
  5
1D18
 10
-7.15613
 20
2.84749
 30
0.000000
  70
    32
  0
VERTEX
  8
241
  5
1D19
 10
-7.16466
 20
2.78478
 30
0.000000
  70
    32
  0
VERTEX
  8
241
  5
1D1A
 10
-7.17025
 20
2.72237
 30
0.000000
  70
    32
  0
VERTEX
  8
241
  5
1D1B
 10
-7.17288
 20
2.66027
 30
0.000000
  70
    32
  0
VERTEX
  8
241
  5
1D1C
 10
-7.17249
 20
2.59847
 30
0.000000
  70
    32
  0
VERTEX
  8
241
  5
1D1D
 10
-7.16906
 20
2.53698
 30
0.000000
  70
    32
  0
VERTEX
  8
241
  5
1D1E
 10
-7.16254
 20
2.47581
 30
0.000000
  70
    32
  0
VERTEX
  8
241
  5
1D1F
 10
-7.15290
 20
2.41495
 30
0.000000
  70
    32
  0
VERTEX
  8
241
  5
1D20
 10
-7.14011
 20
2.35442
 30
0.000000
  70
    32
  0
VERTEX
  8
241
  5
1D21
 10
-7.12417
 20
2.29421
 30
0.000000
  70
    32
  0
VERTEX
  8
241
  5
1D22
 10
-7.10512
 20
2.23431
 30
0.000000
  70
    32
  0
VERTEX
  8
241
  5
1D23
 10
-7.08302
 20
2.17473
 30
0.000000
  70
    32
  0
VERTEX
  8
241
  5
1D24
 10
-7.05789
 20
2.11545
 30
0.000000
  70
    32
  0
VERTEX
  8
241
  5
1D25
 10
-7.02980
 20
2.05648
 30
0.000000
  70
    32
  0
VERTEX
  8
241
  5
1D26
 10
-6.99876
 20
1.99781
 30
0.000000
  70
    32
  0
VERTEX
  8
241
  5
1D27
 10
-6.96485
 20
1.93943
 30
0.000000
  70
    32
  0
VERTEX
  8
241
  5
1D28
 10
-6.92808
 20
1.88134
 30
0.000000
  70
    32
  0
VERTEX
  8
241
  5
1D29
 10
-6.88851
 20
1.82354
 30
0.000000
  70
    32
  0
VERTEX
  8
241
  5
1D2A
 10
-6.84619
 20
1.76602
 30
0.000000
  70
    32
  0
VERTEX
  8
241
  5
1D2B
 10
-6.80114
 20
1.70878
 30
0.000000
  70
    32
  0
VERTEX
  8
241
  5
1D2C
 10
-6.75343
 20
1.65181
 30
0.000000
  70
    32
  0
VERTEX
  8
241
  5
1D2D
 10
-6.70308
 20
1.59510
 30
0.000000
  70
    32
  0
VERTEX
  8
241
  5
1D2E
 10
-6.65015
 20
1.53867
 30
0.000000
  70
    32
  0
VERTEX
  8
241
  5
1D2F
 10
-6.59467
 20
1.48249
 30
0.000000
  70
    32
  0
VERTEX
  8
241
  5
1D30
 10
-6.53670
 20
1.42656
 30
0.000000
  70
    32
  0
VERTEX
  8
241
  5
1D31
 10
-6.47626
 20
1.37089
 30
0.000000
  70
    32
  0
VERTEX
  8
241
  5
1D32
 10
-6.41341
 20
1.31547
 30
0.000000
  70
    32
  0
VERTEX
  8
241
  5
1D33
 10
-6.34819
 20
1.26028
 30
0.000000
  70
    32
  0
VERTEX
  8
241
  5
1D34
 10
-6.28064
 20
1.20533
 30
0.000000
  70
    32
  0
VERTEX
  8
241
  5
1D35
 10
-6.21081
 20
1.15062
 30
0.000000
  70
    32
  0
VERTEX
  8
241
  5
1D36
 10
-6.13873
 20
1.09614
 30
0.000000
  70
    32
  0
VERTEX
  8
241
  5
1D37
 10
-6.06446
 20
1.04187
 30
0.000000
  70
    32
  0
VERTEX
  8
241
  5
1D38
 10
-5.98803
 20
0.987834
 30
0.000000
  70
    32
  0
VERTEX
  8
241
  5
1D39
 10
-5.90948
 20
0.934009
 30
0.000000
  70
    32
  0
VERTEX
  8
241
  5
1D3A
 10
-5.82887
 20
0.880395
 30
0.000000
  70
    32
  0
VERTEX
  8
241
  5
1D3B
 10
-5.74623
 20
0.826988
 30
0.000000
  70
    32
  0
VERTEX
  8
241
  5
1D3C
 10
-5.66161
 20
0.773783
 30
0.000000
  70
    32
  0
VERTEX
  8
241
  5
1D3D
 10
-5.57505
 20
0.720776
 30
0.000000
  70
    32
  0
VERTEX
  8
241
  5
1D3E
 10
-5.48659
 20
0.667962
 30
0.000000
  70
    32
  0
VERTEX
  8
241
  5
1D3F
 10
-5.39627
 20
0.615338
 30
0.000000
  70
    32
  0
VERTEX
  8
241
  5
1D40
 10
-5.30415
 20
0.562898
 30
0.000000
  70
    32
  0
VERTEX
  8
241
  5
1D41
 10
-5.21026
 20
0.510639
 30
0.000000
  70
    32
  0
VERTEX
  8
241
  5
1D42
 10
-5.11464
 20
0.458556
 30
0.000000
  70
    32
  0
VERTEX
  8
241
  5
1D43
 10
-5.01734
 20
0.406644
 30
0.000000
  70
    32
  0
VERTEX
  8
241
  5
1D44
 10
-4.91841
 20
0.354900
 30
0.000000
  70
    32
  0
VERTEX
  8
241
  5
1D45
 10
-4.81787
 20
0.303318
 30
0.000000
  70
    32
  0
VERTEX
  8
241
  5
1D46
 10
-4.71579
 20
0.251895
 30
0.000000
  70
    32
  0
VERTEX
  8
241
  5
1D47
 10
-4.61220
 20
0.200625
 30
0.000000
  70
    32
  0
VERTEX
  8
241
  5
1D48
 10
-4.50714
 20
0.149505
 30
0.000000
  70
    32
  0
VERTEX
  8
241
  5
1D49
 10
-4.40066
 20
0.0985305
 30
0.000000
  70
    32
  0
VERTEX
  8
241
  5
1D4A
 10
-4.29279
 20
0.0476965
 30
0.000000
  70
    32
  0
VERTEX
  8
241
  5
1D4B
 10
-4.18360
 20
-0.00300109
 30
0.000000
  70
    32
  0
VERTEX
  8
241
  5
1D4C
 10
-4.07310
 20
-0.0535667
 30
0.000000
  70
    32
  0
VERTEX
  8
241
  5
1D4D
 10
-3.96136
 20
-0.104005
 30
0.000000
  70
    32
  0
VERTEX
  8
241
  5
1D4E
 10
-3.84841
 20
-0.154320
 30
0.000000
  70
    32
  0
VERTEX
  8
241
  5
1D4F
 10
-3.73430
 20
-0.204516
 30
0.000000
  70
    32
  0
VERTEX
  8
241
  5
1D50
 10
-3.61907
 20
-0.254598
 30
0.000000
  70
    32
  0
VERTEX
  8
241
  5
1D51
 10
-3.50275
 20
-0.304569
 30
0.000000
  70
    32
  0
VERTEX
  8
241
  5
1D52
 10
-3.38541
 20
-0.354436
 30
0.000000
  70
    32
  0
VERTEX
  8
241
  5
1D53
 10
-3.26707
 20
-0.404201
 30
0.000000
  70
    32
  0
VERTEX
  8
241
  5
1D54
 10
-3.14778
 20
-0.453869
 30
0.000000
  70
    32
  0
VERTEX
  8
241
  5
1D55
 10
-3.02759
 20
-0.503445
 30
0.000000
  70
    32
  0
VERTEX
  8
241
  5
1D56
 10
-2.90653
 20
-0.552933
 30
0.000000
  70
    32
  0
VERTEX
  8
241
  5
1D57
 10
-2.78466
 20
-0.602337
 30
0.000000
  70
    32
  0
VERTEX
  8
241
  5
1D58
 10
-2.66201
 20
-0.651662
 30
0.000000
  70
    32
  0
VERTEX
  8
241
  5
1D59
 10
-2.53863
 20
-0.700913
 30
0.000000
  70
    32
  0
VERTEX
  8
241
  5
1D5A
 10
-2.41455
 20
-0.750093
 30
0.000000
  70
    32
  0
VERTEX
  8
241
  5
1D5B
 10
-2.28984
 20
-0.799207
 30
0.000000
  70
    32
  0
VERTEX
  8
241
  5
1D5C
 10
-2.16451
 20
-0.848259
 30
0.000000
  70
    32
  0
VERTEX
  8
241
  5
1D5D
 10
-2.03863
 20
-0.897254
 30
0.000000
  70
    32
  0
VERTEX
  8
241
  5
1D5E
 10
-1.91223
 20
-0.946197
 30
0.000000
  70
    32
  0
VERTEX
  8
241
  5
1D5F
 10
-1.78535
 20
-0.995091
 30
0.000000
  70
    32
  0
VERTEX
  8
241
  5
1D60
 10
-1.65805
 20
-1.04394
 30
0.000000
  70
    32
  0
VERTEX
  8
241
  5
1D61
 10
-1.53035
 20
-1.09275
 30
0.000000
  70
    32
  0
VERTEX
  8
241
  5
1D62
 10
-1.40231
 20
-1.14153
 30
0.000000
  70
    32
  0
VERTEX
  8
241
  5
1D63
 10
-1.27397
 20
-1.19027
 30
0.000000
  70
    32
  0
VERTEX
  8
241
  5
1D64
 10
-1.14537
 20
-1.23899
 30
0.000000
  70
    32
  0
VERTEX
  8
241
  5
1D65
 10
-1.01656
 20
-1.28769
 30
0.000000
  70
    32
  0
VERTEX
  8
241
  5
1D66
 10
-0.887567
 20
-1.33636
 30
0.000000
  70
    32
  0
VERTEX
  8
241
  5
1D67
 10
-0.758450
 20
-1.38503
 30
0.000000
  70
    32
  0
VERTEX
  8
241
  5
1D68
 10
-0.629247
 20
-1.43369
 30
0.000000
  70
    32
  0
VERTEX
  8
241
  5
1D69
 10
-0.500000
 20
-1.48234
 30
0.000000
  70
    32
  0
SEQEND
  8
241
  5
1D6A
  0
POLYLINE
  5
1B01
  8
241
 10
0.2841903155964189
 20
7.7415587603451161
 30
0.0
 66
     1
 70
     8
  0
VERTEX
  8
241
  5
1D6B
 10
0.284190
 20
7.74156
 30
0.000000
  70
    32
  0
VERTEX
  8
241
  5
1D6C
 10
0.290480
 20
7.67239
 30
0.000000
  70
    32
  0
VERTEX
  8
241
  5
1D6D
 10
0.297291
 20
7.60359
 30
0.000000
  70
    32
  0
VERTEX
  8
241
  5
1D6E
 10
0.304620
 20
7.53519
 30
0.000000
  70
    32
  0
VERTEX
  8
241
  5
1D6F
 10
0.312465
 20
7.46723
 30
0.000000
  70
    32
  0
VERTEX
  8
241
  5
1D70
 10
0.320821
 20
7.39973
 30
0.000000
  70
    32
  0
VERTEX
  8
241
  5
1D71
 10
0.329685
 20
7.33272
 30
0.000000
  70
    32
  0
VERTEX
  8
241
  5
1D72
 10
0.339054
 20
7.26623
 30
0.000000
  70
    32
  0
VERTEX
  8
241
  5
1D73
 10
0.348924
 20
7.20029
 30
0.000000
  70
    32
  0
VERTEX
  8
241
  5
1D74
 10
0.359289
 20
7.13492
 30
0.000000
  70
    32
  0
VERTEX
  8
241
  5
1D75
 10
0.370146
 20
7.07016
 30
0.000000
  70
    32
  0
VERTEX
  8
241
  5
1D76
 10
0.381490
 20
7.00604
 30
0.000000
  70
    32
  0
VERTEX
  8
241
  5
1D77
 10
0.393316
 20
6.94257
 30
0.000000
  70
    32
  0
VERTEX
  8
241
  5
1D78
 10
0.405619
 20
6.87980
 30
0.000000
  70
    32
  0
VERTEX
  8
241
  5
1D79
 10
0.418394
 20
6.81773
 30
0.000000
  70
    32
  0
VERTEX
  8
241
  5
1D7A
 10
0.431635
 20
6.75641
 30
0.000000
  70
    32
  0
VERTEX
  8
241
  5
1D7B
 10
0.445337
 20
6.69586
 30
0.000000
  70
    32
  0
VERTEX
  8
241
  5
1D7C
 10
0.459492
 20
6.63611
 30
0.000000
  70
    32
  0
VERTEX
  8
241
  5
1D7D
 10
0.474097
 20
6.57717
 30
0.000000
  70
    32
  0
VERTEX
  8
241
  5
1D7E
 10
0.489143
 20
6.51908
 30
0.000000
  70
    32
  0
VERTEX
  8
241
  5
1D7F
 10
0.504626
 20
6.46186
 30
0.000000
  70
    32
  0
VERTEX
  8
241
  5
1D80
 10
0.520537
 20
6.40554
 30
0.000000
  70
    32
  0
VERTEX
  8
241
  5
1D81
 10
0.536870
 20
6.35013
 30
0.000000
  70
    32
  0
VERTEX
  8
241
  5
1D82
 10
0.553619
 20
6.29567
 30
0.000000
  70
    32
  0
VERTEX
  8
241
  5
1D83
 10
0.570775
 20
6.24218
 30
0.000000
  70
    32
  0
VERTEX
  8
241
  5
1D84
 10
0.588332
 20
6.18967
 30
0.000000
  70
    32
  0
VERTEX
  8
241
  5
1D85
 10
0.606282
 20
6.13818
 30
0.000000
  70
    32
  0
VERTEX
  8
241
  5
1D86
 10
0.624617
 20
6.08772
 30
0.000000
  70
    32
  0
VERTEX
  8
241
  5
1D87
 10
0.643329
 20
6.03832
 30
0.000000
  70
    32
  0
VERTEX
  8
241
  5
1D88
 10
0.662411
 20
5.99000
 30
0.000000
  70
    32
  0
VERTEX
  8
241
  5
1D89
 10
0.681853
 20
5.94278
 30
0.000000
  70
    32
  0
VERTEX
  8
241
  5
1D8A
 10
0.701648
 20
5.89667
 30
0.000000
  70
    32
  0
VERTEX
  8
241
  5
1D8B
 10
0.721788
 20
5.85171
 30
0.000000
  70
    32
  0
VERTEX
  8
241
  5
1D8C
 10
0.742262
 20
5.80790
 30
0.000000
  70
    32
  0
VERTEX
  8
241
  5
1D8D
 10
0.763063
 20
5.76527
 30
0.000000
  70
    32
  0
VERTEX
  8
241
  5
1D8E
 10
0.784182
 20
5.72384
 30
0.000000
  70
    32
  0
VERTEX
  8
241
  5
1D8F
 10
0.805610
 20
5.68362
 30
0.000000
  70
    32
  0
VERTEX
  8
241
  5
1D90
 10
0.827336
 20
5.64463
 30
0.000000
  70
    32
  0
VERTEX
  8
241
  5
1D91
 10
0.849353
 20
5.60689
 30
0.000000
  70
    32
  0
VERTEX
  8
241
  5
1D92
 10
0.871650
 20
5.57041
 30
0.000000
  70
    32
  0
VERTEX
  8
241
  5
1D93
 10
0.894218
 20
5.53521
 30
0.000000
  70
    32
  0
VERTEX
  8
241
  5
1D94
 10
0.917046
 20
5.50131
 30
0.000000
  70
    32
  0
VERTEX
  8
241
  5
1D95
 10
0.940127
 20
5.46871
 30
0.000000
  70
    32
  0
VERTEX
  8
241
  5
1D96
 10
0.963448
 20
5.43744
 30
0.000000
  70
    32
  0
VERTEX
  8
241
  5
1D97
 10
0.987001
 20
5.40751
 30
0.000000
  70
    32
  0
VERTEX
  8
241
  5
1D98
 10
1.01077
 20
5.37892
 30
0.000000
  70
    32
  0
VERTEX
  8
241
  5
1D99
 10
1.03476
 20
5.35170
 30
0.000000
  70
    32
  0
VERTEX
  8
241
  5
1D9A
 10
1.05894
 20
5.32585
 30
0.000000
  70
    32
  0
VERTEX
  8
241
  5
1D9B
 10
1.08332
 20
5.30139
 30
0.000000
  70
    32
  0
VERTEX
  8
241
  5
1D9C
 10
1.10787
 20
5.27832
 30
0.000000
  70
    32
  0
VERTEX
  8
241
  5
1D9D
 10
1.13260
 20
5.25666
 30
0.000000
  70
    32
  0
VERTEX
  8
241
  5
1D9E
 10
1.15748
 20
5.23641
 30
0.000000
  70
    32
  0
VERTEX
  8
241
  5
1D9F
 10
1.18251
 20
5.21758
 30
0.000000
  70
    32
  0
VERTEX
  8
241
  5
1DA0
 10
1.20768
 20
5.20019
 30
0.000000
  70
    32
  0
VERTEX
  8
241
  5
1DA1
 10
1.23297
 20
5.18424
 30
0.000000
  70
    32
  0
VERTEX
  8
241
  5
1DA2
 10
1.25838
 20
5.16973
 30
0.000000
  70
    32
  0
VERTEX
  8
241
  5
1DA3
 10
1.28389
 20
5.15668
 30
0.000000
  70
    32
  0
VERTEX
  8
241
  5
1DA4
 10
1.30949
 20
5.14508
 30
0.000000
  70
    32
  0
VERTEX
  8
241
  5
1DA5
 10
1.33518
 20
5.13494
 30
0.000000
  70
    32
  0
VERTEX
  8
241
  5
1DA6
 10
1.36094
 20
5.12628
 30
0.000000
  70
    32
  0
VERTEX
  8
241
  5
1DA7
 10
1.38676
 20
5.11908
 30
0.000000
  70
    32
  0
VERTEX
  8
241
  5
1DA8
 10
1.41262
 20
5.11336
 30
0.000000
  70
    32
  0
VERTEX
  8
241
  5
1DA9
 10
1.43853
 20
5.10911
 30
0.000000
  70
    32
  0
VERTEX
  8
241
  5
1DAA
 10
1.46446
 20
5.10635
 30
0.000000
  70
    32
  0
VERTEX
  8
241
  5
1DAB
 10
1.49041
 20
5.10506
 30
0.000000
  70
    32
  0
VERTEX
  8
241
  5
1DAC
 10
1.51636
 20
5.10525
 30
0.000000
  70
    32
  0
VERTEX
  8
241
  5
1DAD
 10
1.54230
 20
5.10693
 30
0.000000
  70
    32
  0
VERTEX
  8
241
  5
1DAE
 10
1.56823
 20
5.11008
 30
0.000000
  70
    32
  0
VERTEX
  8
241
  5
1DAF
 10
1.59412
 20
5.11471
 30
0.000000
  70
    32
  0
VERTEX
  8
241
  5
1DB0
 10
1.61998
 20
5.12082
 30
0.000000
  70
    32
  0
VERTEX
  8
241
  5
1DB1
 10
1.64578
 20
5.12840
 30
0.000000
  70
    32
  0
VERTEX
  8
241
  5
1DB2
 10
1.67152
 20
5.13744
 30
0.000000
  70
    32
  0
VERTEX
  8
241
  5
1DB3
 10
1.69719
 20
5.14796
 30
0.000000
  70
    32
  0
VERTEX
  8
241
  5
1DB4
 10
1.72277
 20
5.15994
 30
0.000000
  70
    32
  0
VERTEX
  8
241
  5
1DB5
 10
1.74826
 20
5.17337
 30
0.000000
  70
    32
  0
VERTEX
  8
241
  5
1DB6
 10
1.77363
 20
5.18826
 30
0.000000
  70
    32
  0
VERTEX
  8
241
  5
1DB7
 10
1.79890
 20
5.20459
 30
0.000000
  70
    32
  0
VERTEX
  8
241
  5
1DB8
 10
1.82403
 20
5.22235
 30
0.000000
  70
    32
  0
VERTEX
  8
241
  5
1DB9
 10
1.84902
 20
5.24155
 30
0.000000
  70
    32
  0
VERTEX
  8
241
  5
1DBA
 10
1.87386
 20
5.26217
 30
0.000000
  70
    32
  0
VERTEX
  8
241
  5
1DBB
 10
1.89854
 20
5.28420
 30
0.000000
  70
    32
  0
VERTEX
  8
241
  5
1DBC
 10
1.92305
 20
5.30763
 30
0.000000
  70
    32
  0
VERTEX
  8
241
  5
1DBD
 10
1.94738
 20
5.33245
 30
0.000000
  70
    32
  0
VERTEX
  8
241
  5
1DBE
 10
1.97151
 20
5.35866
 30
0.000000
  70
    32
  0
VERTEX
  8
241
  5
1DBF
 10
1.99544
 20
5.38624
 30
0.000000
  70
    32
  0
VERTEX
  8
241
  5
1DC0
 10
2.01916
 20
5.41518
 30
0.000000
  70
    32
  0
VERTEX
  8
241
  5
1DC1
 10
2.04265
 20
5.44546
 30
0.000000
  70
    32
  0
VERTEX
  8
241
  5
1DC2
 10
2.06591
 20
5.47708
 30
0.000000
  70
    32
  0
VERTEX
  8
241
  5
1DC3
 10
2.08893
 20
5.51002
 30
0.000000
  70
    32
  0
VERTEX
  8
241
  5
1DC4
 10
2.11169
 20
5.54426
 30
0.000000
  70
    32
  0
VERTEX
  8
241
  5
1DC5
 10
2.13419
 20
5.57979
 30
0.000000
  70
    32
  0
VERTEX
  8
241
  5
1DC6
 10
2.15641
 20
5.61660
 30
0.000000
  70
    32
  0
VERTEX
  8
241
  5
1DC7
 10
2.17836
 20
5.65467
 30
0.000000
  70
    32
  0
VERTEX
  8
241
  5
1DC8
 10
2.20000
 20
5.69398
 30
0.000000
  70
    32
  0
VERTEX
  8
241
  5
1DC9
 10
2.22135
 20
5.73452
 30
0.000000
  70
    32
  0
VERTEX
  8
241
  5
1DCA
 10
2.24239
 20
5.77627
 30
0.000000
  70
    32
  0
VERTEX
  8
241
  5
1DCB
 10
2.26311
 20
5.81921
 30
0.000000
  70
    32
  0
VERTEX
  8
241
  5
1DCC
 10
2.28349
 20
5.86332
 30
0.000000
  70
    32
  0
VERTEX
  8
241
  5
1DCD
 10
2.30354
 20
5.90858
 30
0.000000
  70
    32
  0
VERTEX
  8
241
  5
1DCE
 10
2.32325
 20
5.95498
 30
0.000000
  70
    32
  0
VERTEX
  8
241
  5
1DCF
 10
2.34260
 20
6.00249
 30
0.000000
  70
    32
  0
VERTEX
  8
241
  5
1DD0
 10
2.36158
 20
6.05110
 30
0.000000
  70
    32
  0
VERTEX
  8
241
  5
1DD1
 10
2.38020
 20
6.10077
 30
0.000000
  70
    32
  0
VERTEX
  8
241
  5
1DD2
 10
2.39843
 20
6.15150
 30
0.000000
  70
    32
  0
VERTEX
  8
241
  5
1DD3
 10
2.41628
 20
6.20326
 30
0.000000
  70
    32
  0
VERTEX
  8
241
  5
1DD4
 10
2.43374
 20
6.25603
 30
0.000000
  70
    32
  0
VERTEX
  8
241
  5
1DD5
 10
2.45079
 20
6.30977
 30
0.000000
  70
    32
  0
VERTEX
  8
241
  5
1DD6
 10
2.46743
 20
6.36448
 30
0.000000
  70
    32
  0
VERTEX
  8
241
  5
1DD7
 10
2.48365
 20
6.42013
 30
0.000000
  70
    32
  0
VERTEX
  8
241
  5
1DD8
 10
2.49945
 20
6.47669
 30
0.000000
  70
    32
  0
VERTEX
  8
241
  5
1DD9
 10
2.51482
 20
6.53414
 30
0.000000
  70
    32
  0
VERTEX
  8
241
  5
1DDA
 10
2.52975
 20
6.59245
 30
0.000000
  70
    32
  0
VERTEX
  8
241
  5
1DDB
 10
2.54424
 20
6.65160
 30
0.000000
  70
    32
  0
VERTEX
  8
241
  5
1DDC
 10
2.55828
 20
6.71157
 30
0.000000
  70
    32
  0
VERTEX
  8
241
  5
1DDD
 10
2.57186
 20
6.77232
 30
0.000000
  70
    32
  0
VERTEX
  8
241
  5
1DDE
 10
2.58498
 20
6.83384
 30
0.000000
  70
    32
  0
VERTEX
  8
241
  5
1DDF
 10
2.59763
 20
6.89609
 30
0.000000
  70
    32
  0
VERTEX
  8
241
  5
1DE0
 10
2.60981
 20
6.95905
 30
0.000000
  70
    32
  0
VERTEX
  8
241
  5
1DE1
 10
2.62151
 20
7.02269
 30
0.000000
  70
    32
  0
VERTEX
  8
241
  5
1DE2
 10
2.63273
 20
7.08698
 30
0.000000
  70
    32
  0
VERTEX
  8
241
  5
1DE3
 10
2.64346
 20
7.15190
 30
0.000000
  70
    32
  0
VERTEX
  8
241
  5
1DE4
 10
2.65370
 20
7.21742
 30
0.000000
  70
    32
  0
VERTEX
  8
241
  5
1DE5
 10
2.66344
 20
7.28351
 30
0.000000
  70
    32
  0
VERTEX
  8
241
  5
1DE6
 10
2.67267
 20
7.35013
 30
0.000000
  70
    32
  0
VERTEX
  8
241
  5
1DE7
 10
2.68141
 20
7.41727
 30
0.000000
  70
    32
  0
VERTEX
  8
241
  5
1DE8
 10
2.68963
 20
7.48490
 30
0.000000
  70
    32
  0
VERTEX
  8
241
  5
1DE9
 10
2.69734
 20
7.55298
 30
0.000000
  70
    32
  0
VERTEX
  8
241
  5
1DEA
 10
2.70453
 20
7.62148
 30
0.000000
  70
    32
  0
VERTEX
  8
241
  5
1DEB
 10
2.71121
 20
7.69038
 30
0.000000
  70
    32
  0
SEQEND
  8
241
  5
1DEC
  0
LINE
  5
1B02
  8
243
 10
2.7500000000002549
 20
7.6903810567673361
 30
0.0
 11
2.749999999999992
 21
-1.50000000000003
 31
0.0
  0
LINE
  5
1B03
  8
243
 10
0.2500000000002558
 20
7.7536313570070368
 30
0.0
 11
0.2500000000002558
 21
1.5
 31
0.0
  0
LINE
  5
1B04
  8
245
 10
1.5000000000001981
 20
0.9380278245619138
 30
0.0
 11
1.5000000000002269
 21
8.4058901159619097
 31
0.0
  0
LINE
  5
1B05
  8
240
 10
9.9999999999996305
 20
-3.4000000000000048
 30
0.0
 11
10.000000000000339
 21
12.599999999998831
 31
0.0
  0
LINE
  5
1B06
  8
241
 10
-61.999999999999943
 20
4.3588989435409067
 30
0.0
 11
-61.999999999999943
 21
9.910179721124706
 31
0.0
  0
LINE
  5
1B07
  8
241
 10
-60.349999999998509
 20
8.4398202788754304
 30
0.0
 11
-60.349999999998509
 21
-8.4398202788754588
 31
0.0
  0
LINE
  5
1B08
  8
241
 10
-56.999999999999879
 20
2.3904915880263502
 30
0.0
 11
-7.1481200490601386
 21
2.3904915880263502
 31
0.0
  0
LINE
  5
1B09
  8
240
 10
9.6999999999996191
 20
-3.7000000000000171
 30
0.0
 11
-56.999999999999879
 21
-3.7000000000000171
 31
0.0
  0
LINE
  5
1B0A
  8
243
 10
-60.556624327025389
 20
-1.5
 30
0.0
 11
2.749999999999992
 21
-1.5000000000000291
 31
0.0
  0
LINE
  5
1B0B
  8
243
 10
-60.556624327025609
 20
1.5
 30
0.0
 11
0.2500000000002558
 21
1.5
 31
0.0
  0
LINE
  5
1B0C
  8
241
 10
-67.000000000000227
 20
4.3588989435409067
 30
0.0
 11
-61.999999999999943
 21
4.3588989435409067
 31
0.0
  0
LINE
  5
1B0D
  8
241
 10
-67.000000000000199
 20
-4.3588989435409067
 30
0.0
 11
-61.999999999999922
 21
-4.3588989435409067
 31
0.0
  0
LINE
  5
1B0E
  8
242
 10
-61.999999999999943
 20
4.3588989435409351
 30
0.0
 11
-67.000000000000199
 21
-4.3588989435409067
 31
0.0
  0
LINE
  5
1B0F
  8
242
 10
-67.000000000000227
 20
4.3588989435409067
 30
0.0
 11
-61.999999999999922
 21
-4.3588989435409067
 31
0.0
  0
LINE
  5
1B10
  8
241
 10
-67.000000000000227
 20
-4.3588989435409067
 30
0.0
 11
-67.000000000000256
 21
4.3588989435409067
 31
0.0
  0
LINE
  5
1B11
  8
241
 10
-59.999999999999893
 20
-0.6095084119736498
 30
0.0
 11
-59.999999999999893
 21
-6.7000000000000171
 31
0.0
  0
ARC
  5
1B12
  8
240
 10
-56.999999999999879
 20
-6.7000000000000171
 30
0.0
 40
3.0
 50
90.0
 51
180.0
  0
LINE
  5
1B13
  8
241
 10
-61.999999999999922
 20
-4.3588989435409067
 30
0.0
 11
-61.999999999999943
 21
-9.9101797211243632
 31
0.0
  0
ARC
  5
1B14
  8
240
 10
-59.93578643762558
 20
-9.3499999999999641
 30
0.0
 40
1.0
 50
93.68169924897326
 51
134.99999999998161
  0
LINE
  5
1B15
  8
240
 10
-61.707106781185992
 20
-9.7071067811861838
 30
0.0
 11
-60.642893218813498
 21
-8.6428932188127021
 31
0.0
  0
LINE
  5
1B16
  8
240
 10
-59.999999999999893
 20
-8.3520638204738304
 30
0.0
 11
-59.999999999999893
 21
-6.7000000000000171
 31
0.0
  0
ARC
  5
1B17
  8
241
 10
-56.999999999999879
 20
-0.6095084119736498
 30
0.0
 40
3.0
 50
90.0
 51
180.0
  0
LINE
  5
1B18
  8
243
 10
-60.556624327025418
 20
-1.500000000000028
 30
0.0
 11
-60.556624327025652
 21
1.5
 31
0.0
  0
LINE
  5
1B19
  8
243
 10
-61.999999999999382
 20
-3.9999999999999432
 30
0.0
 11
-62.000000000000092
 21
4.0
 31
0.0
  0
POLYLINE
  8
241
  5
1DED
  66
     1
 10
0.000000
 20
0.000000
 30
0.000000
  70
     8
  0
VERTEX
  8
241
  5
1DEE
 10
-62.0000
 20
4.35890
 30
0.000000
  70
    32
  0
VERTEX
  8
241
  5
1DEF
 10
-61.9811
 20
4.30407
 30
0.000000
  70
    32
  0
VERTEX
  8
241
  5
1DF0
 10
-61.9623
 20
4.24924
 30
0.000000
  70
    32
  0
VERTEX
  8
241
  5
1DF1
 10
-61.9434
 20
4.19441
 30
0.000000
  70
    32
  0
VERTEX
  8
241
  5
1DF2
 10
-61.9246
 20
4.13958
 30
0.000000
  70
    32
  0
VERTEX
  8
241
  5
1DF3
 10
-61.9058
 20
4.08475
 30
0.000000
  70
    32
  0
VERTEX
  8
241
  5
1DF4
 10
-61.8870
 20
4.02993
 30
0.000000
  70
    32
  0
VERTEX
  8
241
  5
1DF5
 10
-61.8683
 20
3.97510
 30
0.000000
  70
    32
  0
VERTEX
  8
241
  5
1DF6
 10
-61.8496
 20
3.92027
 30
0.000000
  70
    32
  0
VERTEX
  8
241
  5
1DF7
 10
-61.8309
 20
3.86544
 30
0.000000
  70
    32
  0
VERTEX
  8
241
  5
1DF8
 10
-61.8123
 20
3.81061
 30
0.000000
  70
    32
  0
VERTEX
  8
241
  5
1DF9
 10
-61.7938
 20
3.75578
 30
0.000000
  70
    32
  0
VERTEX
  8
241
  5
1DFA
 10
-61.7753
 20
3.70095
 30
0.000000
  70
    32
  0
VERTEX
  8
241
  5
1DFB
 10
-61.7569
 20
3.64612
 30
0.000000
  70
    32
  0
VERTEX
  8
241
  5
1DFC
 10
-61.7386
 20
3.59129
 30
0.000000
  70
    32
  0
VERTEX
  8
241
  5
1DFD
 10
-61.7203
 20
3.53647
 30
0.000000
  70
    32
  0
VERTEX
  8
241
  5
1DFE
 10
-61.7022
 20
3.48164
 30
0.000000
  70
    32
  0
VERTEX
  8
241
  5
1DFF
 10
-61.6841
 20
3.42681
 30
0.000000
  70
    32
  0
VERTEX
  8
241
  5
1E00
 10
-61.6662
 20
3.37198
 30
0.000000
  70
    32
  0
VERTEX
  8
241
  5
1E01
 10
-61.6483
 20
3.31715
 30
0.000000
  70
    32
  0
VERTEX
  8
241
  5
1E02
 10
-61.6306
 20
3.26232
 30
0.000000
  70
    32
  0
VERTEX
  8
241
  5
1E03
 10
-61.6130
 20
3.20749
 30
0.000000
  70
    32
  0
VERTEX
  8
241
  5
1E04
 10
-61.5955
 20
3.15266
 30
0.000000
  70
    32
  0
VERTEX
  8
241
  5
1E05
 10
-61.5781
 20
3.09783
 30
0.000000
  70
    32
  0
VERTEX
  8
241
  5
1E06
 10
-61.5609
 20
3.04300
 30
0.000000
  70
    32
  0
VERTEX
  8
241
  5
1E07
 10
-61.5439
 20
2.98818
 30
0.000000
  70
    32
  0
VERTEX
  8
241
  5
1E08
 10
-61.5269
 20
2.93335
 30
0.000000
  70
    32
  0
VERTEX
  8
241
  5
1E09
 10
-61.5102
 20
2.87852
 30
0.000000
  70
    32
  0
VERTEX
  8
241
  5
1E0A
 10
-61.4935
 20
2.82369
 30
0.000000
  70
    32
  0
VERTEX
  8
241
  5
1E0B
 10
-61.4771
 20
2.76886
 30
0.000000
  70
    32
  0
VERTEX
  8
241
  5
1E0C
 10
-61.4608
 20
2.71403
 30
0.000000
  70
    32
  0
VERTEX
  8
241
  5
1E0D
 10
-61.4447
 20
2.65920
 30
0.000000
  70
    32
  0
VERTEX
  8
241
  5
1E0E
 10
-61.4288
 20
2.60437
 30
0.000000
  70
    32
  0
VERTEX
  8
241
  5
1E0F
 10
-61.4131
 20
2.54954
 30
0.000000
  70
    32
  0
VERTEX
  8
241
  5
1E10
 10
-61.3976
 20
2.49472
 30
0.000000
  70
    32
  0
VERTEX
  8
241
  5
1E11
 10
-61.3823
 20
2.43989
 30
0.000000
  70
    32
  0
VERTEX
  8
241
  5
1E12
 10
-61.3672
 20
2.38506
 30
0.000000
  70
    32
  0
VERTEX
  8
241
  5
1E13
 10
-61.3523
 20
2.33023
 30
0.000000
  70
    32
  0
VERTEX
  8
241
  5
1E14
 10
-61.3376
 20
2.27540
 30
0.000000
  70
    32
  0
VERTEX
  8
241
  5
1E15
 10
-61.3232
 20
2.22057
 30
0.000000
  70
    32
  0
VERTEX
  8
241
  5
1E16
 10
-61.3090
 20
2.16574
 30
0.000000
  70
    32
  0
VERTEX
  8
241
  5
1E17
 10
-61.2950
 20
2.11091
 30
0.000000
  70
    32
  0
VERTEX
  8
241
  5
1E18
 10
-61.2813
 20
2.05608
 30
0.000000
  70
    32
  0
VERTEX
  8
241
  5
1E19
 10
-61.2678
 20
2.00126
 30
0.000000
  70
    32
  0
VERTEX
  8
241
  5
1E1A
 10
-61.2546
 20
1.94643
 30
0.000000
  70
    32
  0
VERTEX
  8
241
  5
1E1B
 10
-61.2416
 20
1.89160
 30
0.000000
  70
    32
  0
VERTEX
  8
241
  5
1E1C
 10
-61.2289
 20
1.83677
 30
0.000000
  70
    32
  0
VERTEX
  8
241
  5
1E1D
 10
-61.2165
 20
1.78194
 30
0.000000
  70
    32
  0
VERTEX
  8
241
  5
1E1E
 10
-61.2044
 20
1.72711
 30
0.000000
  70
    32
  0
VERTEX
  8
241
  5
1E1F
 10
-61.1925
 20
1.67228
 30
0.000000
  70
    32
  0
VERTEX
  8
241
  5
1E20
 10
-61.1810
 20
1.61745
 30
0.000000
  70
    32
  0
VERTEX
  8
241
  5
1E21
 10
-61.1697
 20
1.56262
 30
0.000000
  70
    32
  0
VERTEX
  8
241
  5
1E22
 10
-61.1588
 20
1.50780
 30
0.000000
  70
    32
  0
VERTEX
  8
241
  5
1E23
 10
-61.1481
 20
1.45297
 30
0.000000
  70
    32
  0
VERTEX
  8
241
  5
1E24
 10
-61.1378
 20
1.39814
 30
0.000000
  70
    32
  0
VERTEX
  8
241
  5
1E25
 10
-61.1278
 20
1.34331
 30
0.000000
  70
    32
  0
VERTEX
  8
241
  5
1E26
 10
-61.1182
 20
1.28848
 30
0.000000
  70
    32
  0
VERTEX
  8
241
  5
1E27
 10
-61.1088
 20
1.23365
 30
0.000000
  70
    32
  0
VERTEX
  8
241
  5
1E28
 10
-61.0998
 20
1.17882
 30
0.000000
  70
    32
  0
VERTEX
  8
241
  5
1E29
 10
-61.0912
 20
1.12399
 30
0.000000
  70
    32
  0
VERTEX
  8
241
  5
1E2A
 10
-61.0829
 20
1.06916
 30
0.000000
  70
    32
  0
VERTEX
  8
241
  5
1E2B
 10
-61.0749
 20
1.01433
 30
0.000000
  70
    32
  0
VERTEX
  8
241
  5
1E2C
 10
-61.0673
 20
0.959506
 30
0.000000
  70
    32
  0
VERTEX
  8
241
  5
1E2D
 10
-61.0601
 20
0.904677
 30
0.000000
  70
    32
  0
VERTEX
  8
241
  5
1E2E
 10
-61.0533
 20
0.849848
 30
0.000000
  70
    32
  0
VERTEX
  8
241
  5
1E2F
 10
-61.0469
 20
0.795019
 30
0.000000
  70
    32
  0
VERTEX
  8
241
  5
1E30
 10
-61.0408
 20
0.740190
 30
0.000000
  70
    32
  0
VERTEX
  8
241
  5
1E31
 10
-61.0351
 20
0.685361
 30
0.000000
  70
    32
  0
VERTEX
  8
241
  5
1E32
 10
-61.0299
 20
0.630533
 30
0.000000
  70
    32
  0
VERTEX
  8
241
  5
1E33
 10
-61.0250
 20
0.575704
 30
0.000000
  70
    32
  0
VERTEX
  8
241
  5
1E34
 10
-61.0206
 20
0.520875
 30
0.000000
  70
    32
  0
VERTEX
  8
241
  5
1E35
 10
-61.0165
 20
0.466046
 30
0.000000
  70
    32
  0
VERTEX
  8
241
  5
1E36
 10
-61.0129
 20
0.411217
 30
0.000000
  70
    32
  0
VERTEX
  8
241
  5
1E37
 10
-61.0098
 20
0.356388
 30
0.000000
  70
    32
  0
VERTEX
  8
241
  5
1E38
 10
-61.0070
 20
0.301559
 30
0.000000
  70
    32
  0
VERTEX
  8
241
  5
1E39
 10
-61.0047
 20
0.246730
 30
0.000000
  70
    32
  0
VERTEX
  8
241
  5
1E3A
 10
-61.0029
 20
0.191901
 30
0.000000
  70
    32
  0
VERTEX
  8
241
  5
1E3B
 10
-61.0015
 20
0.137072
 30
0.000000
  70
    32
  0
VERTEX
  8
241
  5
1E3C
 10
-61.0005
 20
0.0822434
 30
0.000000
  70
    32
  0
VERTEX
  8
241
  5
1E3D
 10
-61.0001
 20
0.0274145
 30
0.000000
  70
    32
  0
VERTEX
  8
241
  5
1E3E
 10
-61.0001
 20
-0.0274145
 30
0.000000
  70
    32
  0
VERTEX
  8
241
  5
1E3F
 10
-61.0005
 20
-0.0822434
 30
0.000000
  70
    32
  0
VERTEX
  8
241
  5
1E40
 10
-61.0015
 20
-0.137072
 30
0.000000
  70
    32
  0
VERTEX
  8
241
  5
1E41
 10
-61.0029
 20
-0.191901
 30
0.000000
  70
    32
  0
VERTEX
  8
241
  5
1E42
 10
-61.0047
 20
-0.246730
 30
0.000000
  70
    32
  0
VERTEX
  8
241
  5
1E43
 10
-61.0070
 20
-0.301559
 30
0.000000
  70
    32
  0
VERTEX
  8
241
  5
1E44
 10
-61.0098
 20
-0.356388
 30
0.000000
  70
    32
  0
VERTEX
  8
241
  5
1E45
 10
-61.0129
 20
-0.411217
 30
0.000000
  70
    32
  0
VERTEX
  8
241
  5
1E46
 10
-61.0165
 20
-0.466046
 30
0.000000
  70
    32
  0
VERTEX
  8
241
  5
1E47
 10
-61.0206
 20
-0.520875
 30
0.000000
  70
    32
  0
VERTEX
  8
241
  5
1E48
 10
-61.0250
 20
-0.575704
 30
0.000000
  70
    32
  0
VERTEX
  8
241
  5
1E49
 10
-61.0299
 20
-0.630533
 30
0.000000
  70
    32
  0
VERTEX
  8
241
  5
1E4A
 10
-61.0351
 20
-0.685361
 30
0.000000
  70
    32
  0
VERTEX
  8
241
  5
1E4B
 10
-61.0408
 20
-0.740190
 30
0.000000
  70
    32
  0
VERTEX
  8
241
  5
1E4C
 10
-61.0469
 20
-0.795019
 30
0.000000
  70
    32
  0
VERTEX
  8
241
  5
1E4D
 10
-61.0533
 20
-0.849848
 30
0.000000
  70
    32
  0
VERTEX
  8
241
  5
1E4E
 10
-61.0601
 20
-0.904677
 30
0.000000
  70
    32
  0
VERTEX
  8
241
  5
1E4F
 10
-61.0673
 20
-0.959506
 30
0.000000
  70
    32
  0
VERTEX
  8
241
  5
1E50
 10
-61.0749
 20
-1.01433
 30
0.000000
  70
    32
  0
VERTEX
  8
241
  5
1E51
 10
-61.0829
 20
-1.06916
 30
0.000000
  70
    32
  0
VERTEX
  8
241
  5
1E52
 10
-61.0912
 20
-1.12399
 30
0.000000
  70
    32
  0
VERTEX
  8
241
  5
1E53
 10
-61.0998
 20
-1.17882
 30
0.000000
  70
    32
  0
VERTEX
  8
241
  5
1E54
 10
-61.1088
 20
-1.23365
 30
0.000000
  70
    32
  0
VERTEX
  8
241
  5
1E55
 10
-61.1182
 20
-1.28848
 30
0.000000
  70
    32
  0
VERTEX
  8
241
  5
1E56
 10
-61.1278
 20
-1.34331
 30
0.000000
  70
    32
  0
VERTEX
  8
241
  5
1E57
 10
-61.1378
 20
-1.39814
 30
0.000000
  70
    32
  0
VERTEX
  8
241
  5
1E58
 10
-61.1481
 20
-1.45297
 30
0.000000
  70
    32
  0
VERTEX
  8
241
  5
1E59
 10
-61.1588
 20
-1.50780
 30
0.000000
  70
    32
  0
VERTEX
  8
241
  5
1E5A
 10
-61.1697
 20
-1.56262
 30
0.000000
  70
    32
  0
VERTEX
  8
241
  5
1E5B
 10
-61.1810
 20
-1.61745
 30
0.000000
  70
    32
  0
VERTEX
  8
241
  5
1E5C
 10
-61.1925
 20
-1.67228
 30
0.000000
  70
    32
  0
VERTEX
  8
241
  5
1E5D
 10
-61.2044
 20
-1.72711
 30
0.000000
  70
    32
  0
VERTEX
  8
241
  5
1E5E
 10
-61.2165
 20
-1.78194
 30
0.000000
  70
    32
  0
VERTEX
  8
241
  5
1E5F
 10
-61.2289
 20
-1.83677
 30
0.000000
  70
    32
  0
VERTEX
  8
241
  5
1E60
 10
-61.2416
 20
-1.89160
 30
0.000000
  70
    32
  0
VERTEX
  8
241
  5
1E61
 10
-61.2546
 20
-1.94643
 30
0.000000
  70
    32
  0
VERTEX
  8
241
  5
1E62
 10
-61.2678
 20
-2.00126
 30
0.000000
  70
    32
  0
VERTEX
  8
241
  5
1E63
 10
-61.2813
 20
-2.05608
 30
0.000000
  70
    32
  0
VERTEX
  8
241
  5
1E64
 10
-61.2950
 20
-2.11091
 30
0.000000
  70
    32
  0
VERTEX
  8
241
  5
1E65
 10
-61.3090
 20
-2.16574
 30
0.000000
  70
    32
  0
VERTEX
  8
241
  5
1E66
 10
-61.3232
 20
-2.22057
 30
0.000000
  70
    32
  0
VERTEX
  8
241
  5
1E67
 10
-61.3376
 20
-2.27540
 30
0.000000
  70
    32
  0
VERTEX
  8
241
  5
1E68
 10
-61.3523
 20
-2.33023
 30
0.000000
  70
    32
  0
VERTEX
  8
241
  5
1E69
 10
-61.3672
 20
-2.38506
 30
0.000000
  70
    32
  0
VERTEX
  8
241
  5
1E6A
 10
-61.3823
 20
-2.43989
 30
0.000000
  70
    32
  0
VERTEX
  8
241
  5
1E6B
 10
-61.3976
 20
-2.49472
 30
0.000000
  70
    32
  0
VERTEX
  8
241
  5
1E6C
 10
-61.4131
 20
-2.54954
 30
0.000000
  70
    32
  0
VERTEX
  8
241
  5
1E6D
 10
-61.4288
 20
-2.60437
 30
0.000000
  70
    32
  0
VERTEX
  8
241
  5
1E6E
 10
-61.4447
 20
-2.65920
 30
0.000000
  70
    32
  0
VERTEX
  8
241
  5
1E6F
 10
-61.4608
 20
-2.71403
 30
0.000000
  70
    32
  0
VERTEX
  8
241
  5
1E70
 10
-61.4771
 20
-2.76886
 30
0.000000
  70
    32
  0
VERTEX
  8
241
  5
1E71
 10
-61.4935
 20
-2.82369
 30
0.000000
  70
    32
  0
VERTEX
  8
241
  5
1E72
 10
-61.5102
 20
-2.87852
 30
0.000000
  70
    32
  0
VERTEX
  8
241
  5
1E73
 10
-61.5269
 20
-2.93335
 30
0.000000
  70
    32
  0
VERTEX
  8
241
  5
1E74
 10
-61.5439
 20
-2.98818
 30
0.000000
  70
    32
  0
VERTEX
  8
241
  5
1E75
 10
-61.5609
 20
-3.04300
 30
0.000000
  70
    32
  0
VERTEX
  8
241
  5
1E76
 10
-61.5781
 20
-3.09783
 30
0.000000
  70
    32
  0
VERTEX
  8
241
  5
1E77
 10
-61.5955
 20
-3.15266
 30
0.000000
  70
    32
  0
VERTEX
  8
241
  5
1E78
 10
-61.6130
 20
-3.20749
 30
0.000000
  70
    32
  0
VERTEX
  8
241
  5
1E79
 10
-61.6306
 20
-3.26232
 30
0.000000
  70
    32
  0
VERTEX
  8
241
  5
1E7A
 10
-61.6483
 20
-3.31715
 30
0.000000
  70
    32
  0
VERTEX
  8
241
  5
1E7B
 10
-61.6662
 20
-3.37198
 30
0.000000
  70
    32
  0
VERTEX
  8
241
  5
1E7C
 10
-61.6841
 20
-3.42681
 30
0.000000
  70
    32
  0
VERTEX
  8
241
  5
1E7D
 10
-61.7022
 20
-3.48164
 30
0.000000
  70
    32
  0
VERTEX
  8
241
  5
1E7E
 10
-61.7203
 20
-3.53647
 30
0.000000
  70
    32
  0
VERTEX
  8
241
  5
1E7F
 10
-61.7386
 20
-3.59129
 30
0.000000
  70
    32
  0
VERTEX
  8
241
  5
1E80
 10
-61.7569
 20
-3.64612
 30
0.000000
  70
    32
  0
VERTEX
  8
241
  5
1E81
 10
-61.7753
 20
-3.70095
 30
0.000000
  70
    32
  0
VERTEX
  8
241
  5
1E82
 10
-61.7938
 20
-3.75578
 30
0.000000
  70
    32
  0
VERTEX
  8
241
  5
1E83
 10
-61.8123
 20
-3.81061
 30
0.000000
  70
    32
  0
VERTEX
  8
241
  5
1E84
 10
-61.8309
 20
-3.86544
 30
0.000000
  70
    32
  0
VERTEX
  8
241
  5
1E85
 10
-61.8496
 20
-3.92027
 30
0.000000
  70
    32
  0
VERTEX
  8
241
  5
1E86
 10
-61.8683
 20
-3.97510
 30
0.000000
  70
    32
  0
VERTEX
  8
241
  5
1E87
 10
-61.8870
 20
-4.02993
 30
0.000000
  70
    32
  0
VERTEX
  8
241
  5
1E88
 10
-61.9058
 20
-4.08475
 30
0.000000
  70
    32
  0
VERTEX
  8
241
  5
1E89
 10
-61.9246
 20
-4.13958
 30
0.000000
  70
    32
  0
VERTEX
  8
241
  5
1E8A
 10
-61.9434
 20
-4.19441
 30
0.000000
  70
    32
  0
VERTEX
  8
241
  5
1E8B
 10
-61.9623
 20
-4.24924
 30
0.000000
  70
    32
  0
VERTEX
  8
241
  5
1E8C
 10
-61.9811
 20
-4.30407
 30
0.000000
  70
    32
  0
VERTEX
  8
241
  5
1E8D
 10
-62.0000
 20
-4.35890
 30
0.000000
  70
    32
  0
SEQEND
  8
241
  5
1E8E
  0
LINE
  5
1B1B
  8
243
 10
-61.999999999999403
 20
-4.0000000000001421
 30
0.0
 11
-60.556624327025439
 21
-1.4999999999999141
 31
0.0
  0
LINE
  5
1B1C
  8
243
 10
-61.999999999999403
 20
4.0000000000001421
 30
0.0
 11
-60.556624327025439
 21
1.500000000000852
 31
0.0
  0
LINE
  5
1B1D
  8
241
 10
-0.5000000000003979
 20
-1.4823381318670099
 30
0.0
 11
9.9999999999996874
 21
-1.4823381318670099
 31
0.0
  0
LINE
  5
1B1E
  8
240
 10
9.9999999999996305
 20
-3.4000000000000048
 30
0.0
 11
9.6999999999996191
 21
-3.7000000000000171
 31
0.0
  0
LINE
  5
1B1F
  8
240
 10
-59.93578643762558
 20
8.3499999999999641
 30
0.0
 11
-0.2500000000001137
 21
8.3499999999999943
 31
0.0
  0
ARC
  5
1B20
  8
240
 10
-59.93578643762558
 20
9.3499999999999641
 30
0.0
 40
1.0
 50
225.00000000001839
 51
270.0
  0
LINE
  5
1B21
  8
240
 10
-60.642893218811899
 20
8.6428932188132137
 30
0.0
 11
-61.707106781186091
 21
9.707106781186809
 31
0.0
  0
LINE
  5
1B22
  8
240
 10
9.6999999999999886
 20
12.900000000000089
 30
0.0
 11
4.973205080756979
 21
12.900000000000089
 31
0.0
  0
LINE
  5
1B23
  8
240
 10
9.6999999999999886
 20
12.900000000000089
 30
0.0
 11
10.00000000000005
 21
12.60000000000008
 31
0.0
  0
ARC
  5
1B24
  8
240
 10
0.1999999999999886
 20
12.80000000000023
 30
0.0
 40
0.2
 50
89.999999999996746
 51
180.0
  0
ARC
  5
1B25
  8
241
 10
0.1999999999999886
 20
8.2000000000000917
 30
0.0
 40
0.2
 50
180.0
 51
270.0
  0
ARC
  5
1B26
  8
241
 10
0.5999999999999659
 20
8.6903810567668245
 30
0.0
 40
1.0
 50
199.90007420070259
 51
296.86479600378152
  0
LINE
  5
1B27
  8
245
 10
-0.200000000000017
 20
10.50000000000024
 30
0.0
 11
5.1999999999999877
 21
10.50000000000024
 31
0.0
  0
LINE
  5
1B28
  8
240
 10
-0.0000000000000508
 20
8.4377501000801303
 30
0.0
 11
0.0000000000000568
 21
12.80000000000023
 31
0.0
  0
LINE
  5
1B29
  8
241
 10
5.3000000000000114
 20
9.6903810567673077
 30
0.0
 11
5.2999999999992431
 21
12.902888879047509
 31
0.0
  0
LINE
  5
1B2A
  8
241
 10
5.0000000000000107
 20
8.200000000000081
 30
0.0
 11
4.9999999999995159
 21
12.900000000000089
 31
0.0
  0
LINE
  5
1B2B
  8
245
 10
2.5000000000001128
 20
13.20000000000023
 30
0.0
 11
2.5000000000001128
 21
7.8000000000002556
 31
0.0
  0
ARC
  5
1B2C
  8
241
 10
3.3000000000000109
 20
9.6903810567671922
 30
0.0
 40
2.0
 50
288.9084152006622
 51
302.30764483437582
  0
ARC
  5
1B2D
  8
241
 10
3.3000000000000109
 20
9.6903810567671922
 30
0.0
 40
2.0
 50
328.21166938294579
 51
346.54417158695469
  0
ARC
  5
1B2E
  8
241
 10
3.3000000000000109
 20
9.6903810567671922
 30
0.0
 40
2.0
 50
270.0
 51
288.9084152006638
  0
ARC
  5
1B2F
  8
241
 10
1.700000000000216
 20
9.6903810567671922
 30
0.0
 40
2.0
 50
251.09158479933629
 51
270.0
  0
CIRCLE
  5
1B30
  8
242
 10
2.5000000000001128
 20
10.50000000000027
 30
0.0
 40
1.0
  0
LINE
  5
1B31
  8
241
 10
4.8000000000000114
 20
8.000000000000103
 30
0.0
 11
0.200000000000216
 21
8.000000000000103
 31
0.0
  0
LINE
  5
1B32
  8
241
 10
3.3000000000000109
 20
7.6903810567671931
 30
0.0
 11
1.700000000000216
 21
7.6903810567671931
 31
0.0
  0
ARC
  5
1B33
  8
241
 10
4.8000000000000114
 20
8.2000000000000917
 30
0.0
 40
0.2
 50
270.0
 51
0.0
  0
ARC
  5
1B34
  8
241
 10
3.3000000000000109
 20
9.6903810567671922
 30
0.0
 40
2.0
 50
346.54417158695111
 51
0.0000000000032569
  0
LINE
  5
1B35
  8
240
 10
4.8000000000000114
 20
12.999999999999959
 30
0.0
 11
0.1999999999999886
 21
13.00000000000022
 31
0.0
  0
ARC
  5
1B36
  8
241
 10
4.8000000000000123
 20
12.80000000000023
 30
0.0
 40
0.1999999999999993
 50
359.99999999999898
 51
29.999999999953531
  0
ARC
  5
1B37
  8
240
 10
4.8000000000000114
 20
12.80000000000023
 30
0.0
 40
0.2
 50
29.999999999957851
 51
90.0
  0
ARC
  5
1B38
  8
240
 10
-0.2500000000001137
 20
8.75
 30
0.0
 40
0.4
 50
270.0
 51
308.68218745350089
  0
ARC
  5
1B39
  8
240
 10
-62.414213562372453
 20
9.0000000000000568
 30
0.0
 40
1.0
 50
45.000000000016122
 51
90.0
  0
ARC
  5
1B3A
  8
240
 10
-62.414213562372879
 20
-8.9999999999999716
 30
0.0
 40
1.0
 50
270.0
 51
315.00000000002763
  0
LINE
  5
1B3B
  8
241
 10
-0.0000000000000491
 20
8.437750100080132
 30
0.0
 11
-0.0000000000000115
 21
8.2000000000000597
 31
0.0
  0
LINE
  5
1B3C
  8
247
 10
-118.16633344518939
 20
8.4778313510528331
 30
0.0
 11
-118.16633344518939
 21
8.4778313510528331
 31
0.0
1001
HATCH_DISTANCE
1040
1.0
1001
HATCH_DISPLAY
1070
     0
1001
HATCH_TYPE
1070
     7
  0
LINE
  5
1B3D
  8
247
 10
-118.25762296545309
 20
8.76733254123838
 30
0.0
 11
-118.16633344518939
 21
8.4778313510528331
 31
0.0
1001
HATCH_DISTANCE
1040
1.0
1001
HATCH_DISPLAY
1070
     0
1001
HATCH_TYPE
1070
     7
  0
LINE
  5
1B3E
  8
247
 10
-118.25762296545309
 20
8.76733254123838
 30
0.0
 11
-118.25762296545309
 21
8.76733254123838
 31
0.0
1001
HATCH_DISTANCE
1040
1.0
1001
HATCH_DISPLAY
1070
     0
1001
HATCH_TYPE
1070
     7
  0
LINE
  5
1B3F
  8
247
 10
-118.16633344518939
 20
8.4778313510528331
 30
0.0
 11
-118.25762296545309
 21
8.76733254123838
 31
0.0
1001
HATCH_DISTANCE
1040
1.0
1001
HATCH_DISPLAY
1070
     0
1001
HATCH_TYPE
1070
     7
  0
LINE
  5
1B40
  8
247
 10
-118.16633344518939
 20
8.4778313510528331
 30
0.0
 11
-118.16633344518939
 21
8.4778313510528331
 31
0.0
  0
LINE
  5
1B41
  8
247
 10
-118.25762296545309
 20
8.76733254123838
 30
0.0
 11
-118.16633344518939
 21
8.4778313510528331
 31
0.0
  0
LINE
  5
1B42
  8
247
 10
-118.25762296545309
 20
8.76733254123838
 30
0.0
 11
-118.25762296545309
 21
8.76733254123838
 31
0.0
  0
LINE
  5
1B43
  8
247
 10
-118.16633344518939
 20
8.4778313510528331
 30
0.0
 11
-118.25762296545309
 21
8.76733254123838
 31
0.0
  0
LINE
  5
1B44
  8
247
 10
-118.16633344518939
 20
8.4778313510528331
 30
0.0
 11
-118.16633344518939
 21
8.4778313510528331
 31
0.0
1001
HATCH_DISTANCE
1040
1.0
1001
HATCH_DISPLAY
1070
     0
1001
HATCH_TYPE
1070
     7
  0
LINE
  5
1B45
  8
247
 10
-118.25762296545309
 20
8.76733254123838
 30
0.0
 11
-118.16633344518939
 21
8.4778313510528331
 31
0.0
1001
HATCH_DISTANCE
1040
1.0
1001
HATCH_DISPLAY
1070
     0
1001
HATCH_TYPE
1070
     7
  0
LINE
  5
1B46
  8
247
 10
-118.25762296545309
 20
8.76733254123838
 30
0.0
 11
-118.25762296545309
 21
8.76733254123838
 31
0.0
1001
HATCH_DISTANCE
1040
1.0
1001
HATCH_DISPLAY
1070
     0
1001
HATCH_TYPE
1070
     7
  0
LINE
  5
1B47
  8
247
 10
-118.16633344518939
 20
8.4778313510528331
 30
0.0
 11
-118.25762296545309
 21
8.76733254123838
 31
0.0
1001
HATCH_DISTANCE
1040
1.0
1001
HATCH_DISPLAY
1070
     0
1001
HATCH_TYPE
1070
     7
  0
LINE
  5
1B48
  8
247
 10
-118.16633344518939
 20
8.4778313510528331
 30
0.0
 11
-118.16633344518939
 21
8.4778313510528331
 31
0.0
  0
LINE
  5
1B49
  8
247
 10
-118.25762296545309
 20
8.76733254123838
 30
0.0
 11
-118.16633344518939
 21
8.4778313510528331
 31
0.0
  0
LINE
  5
1B4A
  8
247
 10
-118.25762296545309
 20
8.76733254123838
 30
0.0
 11
-118.25762296545309
 21
8.76733254123838
 31
0.0
  0
LINE
  5
1B4B
  8
247
 10
-118.16633344518939
 20
8.4778313510528331
 30
0.0
 11
-118.25762296545309
 21
8.76733254123838
 31
0.0
  0
LINE
  5
1B4C
  8
247
 10
-120.2101910196523
 20
8.8199181430450206
 30
0.0
 11
-120.9985516153554
 21
8.8199181430450206
 31
0.0
1001
HATCH_DISTANCE
1040
1.0
1001
HATCH_DISPLAY
1070
     0
1001
HATCH_TYPE
1070
     7
  0
LINE
  5
1B4D
  8
247
 10
-120.9924748026113
 20
6.0917607419601207
 30
0.0
 11
-120.2101910196523
 21
8.8199181430450206
 31
0.0
1001
HATCH_DISTANCE
1040
1.0
1001
HATCH_DISPLAY
1070
     0
1001
HATCH_TYPE
1070
     7
  0
LINE
  5
1B4E
  8
247
 10
-121.6704685770253
 20
6.0917607419601207
 30
0.0
 11
-120.9924748026113
 21
6.0917607419601207
 31
0.0
1001
HATCH_DISTANCE
1040
1.0
1001
HATCH_DISPLAY
1070
     0
1001
HATCH_TYPE
1070
     7
  0
LINE
  5
1B4F
  8
247
 10
-120.9837887369374
 20
8.4864830844512706
 30
0.0
 11
-121.6704685770253
 21
6.0917607419601207
 31
0.0
1001
HATCH_DISTANCE
1040
1.0
1001
HATCH_DISPLAY
1070
     0
1001
HATCH_TYPE
1070
     7
  0
LINE
  5
1B50
  8
247
 10
-121.0941670023183
 20
8.4864830844512706
 30
0.0
 11
-120.9837887369374
 21
8.4864830844512706
 31
0.0
1001
HATCH_DISTANCE
1040
1.0
1001
HATCH_DISPLAY
1070
     0
1001
HATCH_TYPE
1070
     7
  0
LINE
  5
1B51
  8
247
 10
-120.9985516153554
 20
8.8199181430450206
 30
0.0
 11
-121.0941670023183
 21
8.4864830844512706
 31
0.0
1001
HATCH_DISTANCE
1040
1.0
1001
HATCH_DISPLAY
1070
     0
1001
HATCH_TYPE
1070
     7
  0
LINE
  5
1B52
  8
247
 10
-120.2101910196523
 20
8.8199181430450206
 30
0.0
 11
-120.9985516153554
 21
8.8199181430450206
 31
0.0
  0
LINE
  5
1B53
  8
247
 10
-120.9924748026113
 20
6.0917607419601207
 30
0.0
 11
-120.2101910196523
 21
8.8199181430450206
 31
0.0
  0
LINE
  5
1B54
  8
247
 10
-121.6704685770253
 20
6.0917607419601207
 30
0.0
 11
-120.9924748026113
 21
6.0917607419601207
 31
0.0
  0
LINE
  5
1B55
  8
247
 10
-120.9837887369374
 20
8.4864830844512706
 30
0.0
 11
-121.6704685770253
 21
6.0917607419601207
 31
0.0
  0
LINE
  5
1B56
  8
247
 10
-121.0941670023183
 20
8.4864830844512706
 30
0.0
 11
-120.9837887369374
 21
8.4864830844512706
 31
0.0
  0
LINE
  5
1B57
  8
247
 10
-120.9985516153554
 20
8.8199181430450206
 30
0.0
 11
-121.0941670023183
 21
8.4864830844512706
 31
0.0
  0
LINE
  5
1B58
  8
247
 10
-121.01029080925569
 20
6.0917607419601154
 30
0.0
 11
-120.9853123780092
 21
6.1167391732066463
 31
0.0
  0
LINE
  5
1B59
  8
247
 10
-121.3470504137958
 20
6.0917607419601216
 30
0.0
 11
-120.849927646476
 21
6.5888835092798876
 31
0.0
  0
LINE
  5
1B5A
  8
247
 10
-121.6651049524242
 20
6.1104658078717966
 30
0.0
 11
-120.7145429149429
 21
7.0610278453531086
 31
0.0
  0
LINE
  5
1B5B
  8
247
 10
-121.5297183733032
 20
6.5826119915328931
 30
0.0
 11
-120.5791581834098
 21
7.5331721814263508
 31
0.0
  0
LINE
  5
1B5C
  8
247
 10
-121.39433179418219
 20
7.0547581751939736
 30
0.0
 11
-120.4437734518766
 21
8.0053165174995797
 31
0.0
  0
LINE
  5
1B5D
  8
247
 10
-121.2589452150612
 20
7.5269043588550701
 30
0.0
 11
-120.3083887203435
 21
8.4774608535728078
 31
0.0
  0
LINE
  5
1B5E
  8
247
 10
-121.1235586359402
 20
7.9990505425161436
 30
0.0
 11
-120.3026910354114
 21
8.8199181430450082
 31
0.0
  0
LINE
  5
1B5F
  8
247
 10
-120.9881720568192
 20
8.4711967261772472
 30
0.0
 11
-120.63945063995141
 21
8.8199181430450224
 31
0.0
  0
LINE
  5
1B60
  8
247
 10
-121.0075339623824
 20
8.7885944251542014
 30
0.0
 11
-120.9762102444915
 21
8.8199181430450153
 31
0.0
  0
LINE
  5
1B61
  8
247
 10
-117.3389402795756
 20
5.72199601715905
 30
0.0
 11
-116.34538885836589
 21
6.7155474383687874
 31
0.0
  0
LINE
  5
1B62
  8
247
 10
-116.66125886267299
 20
6.7364370386018422
 30
0.0
 11
-116.2632378005828
 21
7.1344581006920222
 31
0.0
  0
LINE
  5
1B63
  8
247
 10
-117.75785094189889
 20
5.6398449593759281
 30
0.0
 11
-117.3598298798087
 21
6.0378660214661082
 31
0.0
  0
LINE
  5
1B64
  8
247
 10
-116.5649389499328
 20
7.1695165558820966
 30
0.0
 11
-116.277012537692
 21
7.457442968122848
 31
0.0
  0
LINE
  5
1B65
  8
247
 10
-118.0973914113268
 20
5.6370640944880881
 30
0.0
 11
-117.79290939708901
 21
5.9415461087259231
 31
0.0
  0
LINE
  5
1B66
  8
247
 10
-116.58885039946659
 20
7.4823647108883691
 30
0.0
 11
-116.3414617558095
 21
7.7297533545455286
 31
0.0
  0
LINE
  5
1B67
  8
247
 10
-118.4341510158669
 20
5.6370640944880961
 30
0.0
 11
-118.1310199201527
 21
5.940195190202294
 31
0.0
  0
LINE
  5
1B68
  8
247
 10
-116.6690301980959
 20
7.738944516799136
 30
0.0
 11
-116.4417708260368
 21
7.9662038888583018
 31
0.0
  0
LINE
  5
1B69
  8
247
 10
-118.77091062040699
 20
5.6370640944880881
 30
0.0
 11
-118.4677795246928
 21
5.9401951902022878
 31
0.0
  0
LINE
  5
1B6A
  8
247
 10
-116.78869258131979
 20
7.9560417381153448
 30
0.0
 11
-116.57133900977109
 21
8.1733953096641017
 31
0.0
  0
LINE
  5
1B6B
  8
247
 10
-119.1076702249471
 20
5.6370640944880961
 30
0.0
 11
-118.80453912923289
 21
5.940195190202294
 31
0.0
  0
LINE
  5
1B6C
  8
247
 10
-116.9414808961905
 20
8.1400130277847822
 30
0.0
 11
-116.727134804608
 21
8.3543591193672722
 31
0.0
  0
LINE
  5
1B6D
  8
247
 10
-119.44442982948721
 20
5.6370640944880961
 30
0.0
 11
-119.141298733773
 21
5.940195190202302
 31
0.0
  0
LINE
  5
1B6E
  8
247
 10
-117.1256625502369
 20
8.2925909782784686
 30
0.0
 11
-116.9082678802429
 21
8.509985648272405
 31
0.0
  0
LINE
  5
1B6F
  8
247
 10
-119.7811894340273
 20
5.6370640944880881
 30
0.0
 11
-119.4780583383131
 21
5.940195190202302
 31
0.0
  0
LINE
  5
1B70
  8
247
 10
-117.3429944098244
 20
8.4120187232310712
 30
0.0
 11
-117.1156408322651
 21
8.6393723007903915
 31
0.0
  0
LINE
  5
1B71
  8
247
 10
-120.1179490385674
 20
5.6370640944881032
 30
0.0
 11
-119.8148179428532
 21
5.94019519020231
 31
0.0
  0
LINE
  5
1B72
  8
247
 10
-117.599874510966
 20
8.4918982266295586
 30
0.0
 11
-117.3523024408106
 21
8.739470296784944
 31
0.0
  0
LINE
  5
1B73
  8
247
 10
-120.4547086431074
 20
5.6370640944880961
 30
0.0
 11
-120.1515775473932
 21
5.940195190202302
 31
0.0
  0
LINE
  5
1B74
  8
247
 10
-117.9132055448036
 20
8.5153267973320581
 30
0.0
 11
-117.624886600126
 21
8.8036457420095857
 31
0.0
  0
LINE
  5
1B75
  8
247
 10
-120.7914682476475
 20
5.6370640944880961
 30
0.0
 11
-120.48833715193329
 21
5.9401951902022878
 31
0.0
  0
LINE
  5
1B76
  8
247
 10
-118.19537207231591
 20
8.5699198743597904
 30
0.0
 11
-117.9482969595401
 21
8.8169949871356366
 31
0.0
  0
LINE
  5
1B77
  8
247
 10
-121.12822785218761
 20
5.6370640944880961
 30
0.0
 11
-120.8250967564734
 21
5.94019519020231
 31
0.0
  0
LINE
  5
1B78
  8
247
 10
-121.4649874567277
 20
5.6370640944880961
 30
0.0
 11
-121.16185636101351
 21
5.940195190202302
 31
0.0
  0
LINE
  5
1B79
  8
247
 10
-121.8017470612678
 20
5.6370640944881032
 30
0.0
 11
-121.4986159655536
 21
5.9401951902023242
 31
0.0
  0
LINE
  5
1B7A
  8
247
 10
-122.1385066658079
 20
5.6370640944880881
 30
0.0
 11
-121.8353755700937
 21
5.94019519020231
 31
0.0
  0
LINE
  5
1B7B
  8
247
 10
-122.475266270348
 20
5.6370640944881103
 30
0.0
 11
-122.17213517463379
 21
5.9401951902023171
 31
0.0
  0
LINE
  5
1B7C
  8
247
 10
-122.81202587488811
 20
5.6370640944880961
 30
0.0
 11
-122.5088947791739
 21
5.940195190202302
 31
0.0
  0
LINE
  5
1B7D
  8
247
 10
-123.1487854794282
 20
5.6370640944881103
 30
0.0
 11
-122.84565438371401
 21
5.9401951902023171
 31
0.0
  0
LINE
  5
1B7E
  8
247
 10
-123.4855450839682
 20
5.6370640944881032
 30
0.0
 11
-123.1824139882541
 21
5.940195190202302
 31
0.0
  0
LINE
  5
1B7F
  8
247
 10
-123.8223046885084
 20
5.6370640944881174
 30
0.0
 11
-123.5191735927942
 21
5.94019519020231
 31
0.0
  0
LINE
  5
1B80
  8
247
 10
-124.15227263330409
 20
5.643855754232475
 30
0.0
 11
-123.8559331973342
 21
5.94019519020231
 31
0.0
  0
LINE
  5
1B81
  8
247
 10
-124.43636179558
 20
5.6965261964966487
 30
0.0
 11
-124.1807096597273
 21
5.9521783323493764
 31
0.0
  0
LINE
  5
1B82
  8
247
 10
-124.68172374895821
 20
5.7879238476585178
 30
0.0
 11
-124.45022361810661
 21
6.019423978510182
 31
0.0
  0
LINE
  5
1B83
  8
247
 10
-124.8964837095496
 20
5.9099234916072731
 30
0.0
 11
-124.6771926812072
 21
6.129214519949663
 31
0.0
  0
LINE
  5
1B84
  8
247
 10
-125.08443498354561
 20
6.0587318221513513
 30
0.0
 11
-124.8698734331952
 21
6.273293372501775
 31
0.0
  0
LINE
  5
1B85
  8
247
 10
-125.2469856679369
 20
6.2329407423001646
 30
0.0
 11
-125.0310395394858
 21
6.4488868707512159
 31
0.0
  0
LINE
  5
1B86
  8
247
 10
-125.38372717426731
 20
6.432958840509805
 30
0.0
 11
-125.15990117397421
 21
6.6567848408029198
 31
0.0
  0
LINE
  5
1B87
  8
247
 10
-123.63665857978781
 20
8.5167870395293903
 30
0.0
 11
-123.3978455006005
 21
8.7556001187167638
 31
0.0
  0
LINE
  5
1B88
  8
247
 10
-125.49227721711
 20
6.6611684022071742
 30
0.0
 11
-125.2516033721257
 21
6.9018422471915306
 31
0.0
  0
LINE
  5
1B89
  8
247
 10
-123.9734181843279
 20
8.5167870395293974
 30
0.0
 11
-123.6702870808123
 21
8.8199181430450224
 31
0.0
  0
LINE
  5
1B8A
  8
247
 10
-125.5672319004172
 20
6.922973323440047
 30
0.0
 11
-125.2933147431701
 21
7.196890480687208
 31
0.0
  0
LINE
  5
1B8B
  8
247
 10
-124.3599135872665
 20
8.4670512411309033
 30
0.0
 11
-124.0070475313133
 21
8.8199172970841175
 31
0.0
  0
LINE
  5
1B8C
  8
247
 10
-125.5968326297461
 20
7.2301321986513676
 30
0.0
 11
-125.2439665737928
 21
7.5829982546045818
 31
0.0
  0
LINE
  5
1B8D
  8
247
 10
-125.5493381173588
 20
7.6143863155786908
 30
0.0
 11
-124.3913016482407
 21
8.7724227846968645
 31
0.0
  0
LINE
  5
1B8E
  8
247
 10
-118.83221738351121
 20
6.2492765404640451
 30
0.0
 11
-118.5480365492988
 21
6.5334573746764937
 31
0.0
  0
LINE
  5
1B8F
  8
247
 10
-119.3218959268245
 20
6.096357601690797
 30
0.0
 11
-118.412650508421
 21
7.0056030200943189
 31
0.0
  0
LINE
  5
1B90
  8
247
 10
-119.17888050427641
 20
6.5761326287790487
 30
0.0
 11
-118.2772644675433
 21
7.4777486655121592
 31
0.0
  0
LINE
  5
1B91
  8
247
 10
-119.63813950211249
 20
6.1168736309429468
 30
0.0
 11
-119.2822586242828
 21
6.4727545087726517
 31
0.0
  0
LINE
  5
1B92
  8
247
 10
-119.02612456496369
 20
7.0656481726318026
 30
0.0
 11
-118.4540521653513
 21
7.6377205722442341
 31
0.0
  0
LINE
  5
1B93
  8
247
 10
-119.8829217472579
 20
6.2088509903376581
 30
0.0
 11
-119.6182350723853
 21
6.4735376652102801
 31
0.0
  0
LINE
  5
1B94
  8
247
 10
-119.093942873407
 20
7.3345894687286233
 30
0.0
 11
-118.79081176989141
 21
7.6377205722442412
 31
0.0
  0
LINE
  5
1B95
  8
247
 10
-120.0801934469753
 20
6.3483388951603166
 30
0.0
 11
-119.7591550456419
 21
6.6693772964936846
 31
0.0
  0
LINE
  5
1B96
  8
247
 10
-118.34775668527929
 20
8.4175352613963881
 30
0.0
 11
-118.3161960096978
 21
8.4490959369779333
 31
0.0
  0
LINE
  5
1B97
  8
247
 10
-120.2360081523093
 20
6.5292837943664628
 30
0.0
 11
-119.68381408261141
 21
7.0814778640642748
 31
0.0
  0
LINE
  5
1B98
  8
247
 10
-118.7688894691333
 20
8.3331620820825094
 30
0.0
 11
-118.39692965655171
 21
8.7051218946641455
 31
0.0
  0
LINE
  5
1B99
  8
247
 10
-120.3478775290844
 20
6.7541740221314646
 30
0.0
 11
-119.5484275815373
 21
7.5536239696784531
 31
0.0
  0
LINE
  5
1B9A
  8
247
 10
-118.9622522672484
 20
8.4765588885074834
 30
0.0
 11
-118.7352697627137
 21
8.7035413930422223
 31
0.0
  0
LINE
  5
1B9B
  8
247
 10
-120.40145095407961
 20
7.0373602016763144
 30
0.0
 11
-119.4130410804633
 21
8.0257700752926269
 31
0.0
  0
LINE
  5
1B9C
  8
247
 10
-120.3537338618968
 20
7.4218368983992056
 30
0.0
 11
-118.9803881321271
 21
8.7951826281688454
 31
0.0
  0
LINE
  5
1B9D
  8
247
 10
-120.241932090528
 20
7.8703982743081431
 30
0.0
 11
-119.29724493844481
 21
8.8150854263913416
 31
0.0
  0
TEXT
  5
1B9E
  8
247
 10
-115.2531580099789
 20
6.0692596380666028
 30
0.0
 40
2.5
  1
ST20-BFM16/26-56
  7
YOKO
 11
-115.2531580099789
 21
6.0692596380666028
 31
0.0
 73
     1
  0
LINE
  5
1B9F
  8
247
 10
-118.31088376867569
 20
8.4322495334258711
 30
0.0
 11
-118.40217328893939
 21
8.721750723611418
 31
0.0
  0
ARC
  5
1BA0
  8
247
 10
-117.8518841348866
 20
7.228491293679788
 30
0.0
 40
1.288299322128293
 50
110.8721834020771
 51
132.54194893738571
  0
ARC
  5
1BA1
  8
247
 10
-119.0410854898671
 20
8.168188559304788
 30
0.0
 40
0.3182875066995621
 50
1.7101213820643839
 51
163.9983983544482
  0
LINE
  5
1BA2
  8
247
 10
-119.7555744730214
 20
6.8312210910430746
 30
0.0
 11
-119.3470432840566
 21
8.2559304111114358
 31
0.0
  0
ARC
  5
1BA3
  8
247
 10
-119.449616678832
 20
6.7434906833282229
 30
0.0
 40
0.3182872831821442
 50
164.0002730571837
 51
344.00027305718362
  0
LINE
  5
1BA4
  8
247
 10
-119.14365888464251
 20
6.655760275613388
 30
0.0
 11
-118.9490063272695
 21
7.3345894687286206
 31
0.0
  0
LINE
  5
1BA5
  8
247
 10
-119.2012798868398
 20
7.3345894687286206
 30
0.0
 11
-118.9490063272695
 21
7.3345894687286206
 31
0.0
  0
LINE
  5
1BA6
  8
247
 10
-119.2012798868398
 20
7.3345894687286206
 30
0.0
 11
-119.11436200964251
 21
7.6377205722442474
 31
0.0
  0
LINE
  5
1BA7
  8
247
 10
-119.11436200964251
 20
7.6377205722442474
 30
0.0
 11
-118.2313931070546
 21
7.6377205722442332
 31
0.0
  0
LINE
  5
1BA8
  8
247
 10
-118.67469144689829
 20
6.0917607419601278
 30
0.0
 11
-118.2313931070546
 21
7.6377205722442332
 31
0.0
  0
LINE
  5
1BA9
  8
247
 10
-118.85250974523819
 20
6.2695675962081756
 30
0.0
 11
-118.67469144689829
 21
6.0917607419601278
 31
0.0
  0
ARC
  5
1BAA
  8
247
 10
-119.4170696817616
 20
7.0769257419219729
 30
0.0
 40
0.9851760864257813
 50
163.99975070172709
 51
304.96387329163082
  0
ARC
  5
1BAB
  8
247
 10
-117.80635953771871
 20
7.0251297824493184
 30
0.0
 40
2.5780792236328121
 50
155.20517736984181
 51
172.79482596205031
  0
ARC
  5
1BAC
  8
247
 10
-119.1997692667226
 20
7.8347535007110372
 30
0.0
 40
0.9851660728454588
 50
53.4440121970555
 51
164.00018438768501
  0
ARC
  5
1BAD
  8
247
 10
-117.8518841348866
 20
7.228491293679788
 30
0.0
 40
1.591427564620969
 50
110.22964506332001
 51
118.57168892371681
  0
LINE
  5
1BAE
  8
247
 10
-123.37940336096079
 20
8.8199181430450277
 30
0.0
 11
-123.4663212381581
 21
8.5167870395294045
 31
0.0
  0
LINE
  5
1BAF
  8
247
 10
-124.0054066263417
 20
8.8199181430450277
 30
0.0
 11
-123.37940336096079
 21
8.8199181430450277
 31
0.0
  0
LINE
  5
1BB0
  8
247
 10
-124.0054066263417
 20
8.5167870395294045
 30
0.0
 11
-123.4663212381581
 21
8.5167870395294045
 31
0.0
  0
ARC
  5
1BB1
  8
247
 10
-124.0054066263417
 20
7.228491293679788
 30
0.0
 40
1.288295745849608
 50
90.0
 51
270.0
  0
ARC
  5
1BB2
  8
247
 10
-124.0054066263417
 20
7.228491293679788
 30
0.0
 40
1.591426849365233
 50
90.0
 51
270.0
  0
LINE
  5
1BB3
  8
247
 10
-124.0054066263417
 20
5.6370640944881103
 30
0.0
 11
-117.8518841348866
 21
5.6370640944880961
 31
0.0
  0
LINE
  5
1BB4
  8
247
 10
-124.0054066263417
 20
5.9401951902023162
 30
0.0
 11
-117.8518841348866
 21
5.9401951902023002
 31
0.0
  0
ARC
  5
1BB5
  8
247
 10
-117.8518841348866
 20
7.228491293679788
 30
0.0
 40
1.591426849365233
 50
270.0
 51
104.7707939660941
  0
ARC
  5
1BB6
  8
247
 10
-117.8518841348866
 20
7.228491293679788
 30
0.0
 40
1.288295745849608
 50
270.0
 51
104.1274364964119
  0
LINE
  5
1BB7
  8
247
 10
-118.16633344518939
 20
8.4778313510528243
 30
0.0
 11
-118.25762296545309
 21
8.7673325412383711
 31
0.0
  0
LINE
  5
1BB8
  8
247
 10
-120.9924748026113
 20
6.0917607419601278
 30
0.0
 11
-120.2101910196523
 21
8.8199181430450277
 31
0.0
  0
LINE
  5
1BB9
  8
247
 10
-123.846345194457
 20
6.0917607419601278
 30
0.0
 11
-123.15097928869559
 21
8.5167870395285217
 31
0.0
  0
LINE
  5
1BBA
  8
247
 10
-122.48238484347959
 20
6.976983939516896
 30
0.0
 11
-121.48840516754819
 21
7.9709636154483263
 31
0.0
  0
LINE
  5
1BBB
  8
247
 10
-123.6326524084364
 20
6.8369951881804081
 30
0.0
 11
-122.5715632041765
 21
7.8980843924402508
 31
0.0
  0
ARC
  5
1BBC
  8
247
 10
-122.57891202795309
 20
8.09240578342588
 30
0.0
 40
0.4546839594841006
 50
261.6626016879294
 51
66.338155095189762
  0
LINE
  5
1BBD
  8
247
 10
-122.5999376932981
 20
7.196190694238493
 30
0.0
 11
-121.5151894856984
 21
8.280938901838212
 31
0.0
  0
ARC
  5
1BBE
  8
247
 10
-122.2407276712636
 20
8.062101828347755
 30
0.0
 40
0.7578227519989014
 50
287.66957754739798
 51
90.236159842671583
  0
LINE
  5
1BBF
  8
247
 10
-123.4972667867594
 20
7.309140414397473
 30
0.0
 11
-122.4361820512066
 21
8.3702251499502296
 31
0.0
  0
LINE
  5
1BC0
  8
247
 10
-122.396428902385
 20
8.5088639588709452
 30
0.0
 11
-122.6448414339
 21
7.6425271148455494
 31
0.0
  0
LINE
  5
1BC1
  8
247
 10
-121.6704685770253
 20
6.0917607419601278
 30
0.0
 11
-120.9837887369374
 21
8.4864830844512795
 31
0.0
  0
LINE
  5
1BC2
  8
247
 10
-120.9985516153554
 20
8.8199181430450277
 30
0.0
 11
-120.2101910196523
 21
8.8199181430450277
 31
0.0
  0
LINE
  5
1BC3
  8
247
 10
-122.3321217650368
 20
8.4742854361200681
 30
0.0
 11
-122.0194942854025
 21
8.7869129157543977
 31
0.0
  0
LINE
  5
1BC4
  8
247
 10
-122.17278847888851
 20
8.2968591177282605
 30
0.0
 11
-121.7948063953455
 21
8.6748412012712901
 31
0.0
  0
LINE
  5
1BC5
  8
247
 10
-123.2217381082751
 20
8.8199181430450277
 30
0.0
 11
-122.2438512310906
 21
8.8199181430449141
 31
0.0
  0
LINE
  5
1BC6
  8
247
 10
-123.22649554340541
 20
8.2534308668316356
 30
0.0
 11
-122.6600082671921
 21
8.8199181430449691
 31
0.0
  0
LINE
  5
1BC7
  8
247
 10
-123.3086559854729
 20
8.5167870395294045
 30
0.0
 11
-123.15097928869559
 21
8.5167870395285217
 31
0.0
  0
LINE
  5
1BC8
  8
247
 10
-123.2217381082751
 20
8.8199181430450277
 30
0.0
 11
-123.3086559854729
 21
8.5167870395294045
 31
0.0
  0
LINE
  5
1BC9
  8
247
 10
-123.2998989752478
 20
8.5167870395293761
 30
0.0
 11
-122.9967678717321
 21
8.8199181430450011
 31
0.0
  0
LINE
  5
1BCA
  8
247
 10
-122.133935677913
 20
7.9989523141637022
 30
0.0
 11
-121.626675040347
 21
8.5062129517296938
 31
0.0
  0
LINE
  5
1BCB
  8
247
 10
-123.36188116508239
 20
7.7812856406145396
 30
0.0
 11
-122.32324866265201
 21
8.8199181430449141
 31
0.0
  0
LINE
  5
1BCC
  8
247
 10
-121.0941670023183
 20
8.4864830844512795
 30
0.0
 11
-120.9837887369374
 21
8.4864830844512795
 31
0.0
  0
LINE
  5
1BCD
  8
247
 10
-121.0941670023183
 20
8.4864830844512795
 30
0.0
 11
-120.9985516153554
 21
8.8199181430450277
 31
0.0
  0
LINE
  5
1BCE
  8
247
 10
-123.0308484364963
 20
6.0917607419601278
 30
0.0
 11
-121.9185914966386
 21
7.2040176818178301
 31
0.0
  0
ARC
  5
1BCF
  8
247
 10
-122.5884106241445
 20
6.849577414285255
 30
0.0
 40
0.7578163146972659
 50
270.0
 51
40.329840654168393
  0
LINE
  5
1BD0
  8
247
 10
-122.69408883195619
 20
6.0917607419601012
 30
0.0
 11
-121.83711011459719
 21
6.9487394593191256
 31
0.0
  0
LINE
  5
1BD1
  8
247
 10
-123.7680380301133
 20
6.3648499619633441
 30
0.0
 11
-122.48545855869089
 21
7.6474294333857946
 31
0.0
  0
ARC
  5
1BD2
  8
247
 10
-122.9265949808339
 20
6.879892813455176
 30
0.0
 40
0.4546969681978227
 50
261.6628542111489
 51
66.338192159110065
  0
LINE
  5
1BD3
  8
247
 10
-122.7441082373407
 20
7.2963636063536637
 30
0.0
 11
-122.9925248555557
 21
6.4300010659120073
 31
0.0
  0
LINE
  5
1BD4
  8
247
 10
-123.7043676455765
 20
6.0917607419601278
 30
0.0
 11
-122.8423352388928
 21
6.9537931486437801
 31
0.0
  0
LINE
  5
1BD5
  8
247
 10
-122.3005116699039
 20
6.1485782994723026
 30
0.0
 11
-121.8874115093316
 21
6.5616784600446598
 31
0.0
  0
LINE
  5
1BD6
  8
247
 10
-123.846345194457
 20
6.0917607419601278
 30
0.0
 11
-122.5884106241445
 21
6.0917607419601278
 31
0.0
  0
LINE
  5
1BD7
  8
247
 10
-123.36760804103641
 20
6.0917607419601278
 30
0.0
 11
-122.97771388466469
 21
6.4816548983317972
 31
0.0
  0
LINE
  5
1BD8
  8
247
 10
-121.6704685770253
 20
6.0917607419601278
 30
0.0
 11
-120.9924748026113
 21
6.0917607419601278
 31
0.0
  0
VIEWPORT
  5
22
 67
     1
  8
0
 10
261.51769911504419
 20
148.5
 30
0.0
 40
523.0353982300885
 41
297.0
 68
     1
 69
     1
1001
ACAD
1000
MVIEW
1002
{
1070
    16
1010
0.0
1020
0.0
1030
0.0
1010
0.0
1020
0.0
1030
1.0
1040
0.0
1040
297.0
1040
261.51769911504419
1040
148.5
1040
50.0
1040
0.0
1040
0.0
1070
     0
1070
   100
1070
     1
1070
     1
1070
     0
1070
     0
1070
     0
1070
     0
1040
0.0
1040
0.0
1040
0.0
1040
1.0
1040
1.0
1040
10.0
1040
10.0
1070
     0
1002
{
1002
}
1002
}
1001
GENIUS_GENODEF_13
1002
{
1000
HIER
1070
     0
1002
}
1002
{
1000
MANEDIT
1070
     0
1002
}
1002
{
1000
NOSEL
1070
     0
1002
}
1002
{
1000
BEHIND
1070
     0
1002
}
1002
{
1000
OTHER
1070
     0
1002
}
1002
{
1000
REACTOR
1002
}
1001
GENIUS_GENOBJ-N-SDF_13
1002
{
1000
OWNER
1000
GEN
1002
}
1001
GENIUS_GENSCREG_15
1000
PF
1040
1.0
1000
DF
1040
1.0
1000
MIN
1011
0.0
1021
-2684992.5005493164
1031
-5.8290068327120361E+303
1021
0.0
1031
0.0
1000
MAX
1011
523.0353982300885
1021
-2684992.5005493164
1031
-5.8290068327120361E+303
1021
297.0
1031
0.0
1000
FLAGS
1070
     2
  0
ENDSEC
  0
EOF
