  0
SECTION
  2
HEADER
  9
$ACADVER
  1
AC1009
  9
$INSBASE
 10
0.0
 20
0.0
 30
0.0
  9
$EXTMIN
 10
-140.8000000000001
 20
-10.20710678118655
 30
0.0
  9
$EXTMAX
 10
22.0
 20
46.436036835154887
 30
0.0
  9
$LIMMIN
 10
0.0
 20
0.0
  9
$LIMMAX
 10
297.0
 20
210.0
  9
$ORTHOMODE
 70
     0
  9
$REGENMODE
 70
     1
  9
$FILLMODE
 70
     1
  9
$QTEXTMODE
 70
     0
  9
$MIRRTEXT
 70
     1
  9
$DRAGMODE
 70
     2
  9
$LTSCALE
 40
10.0
  9
$OSMODE
 70
  3071
  9
$ATTMODE
 70
     1
  9
$TEXTSIZE
 40
3.0
  9
$TRACEWID
 40
1.0
  9
$TEXTSTYLE
  7
YOKO
  9
$CLAYER
  8
240
  9
$CELTYPE
  6
BYLAYER
  9
$CECOLOR
 62
   256
  9
$DIMSCALE
 40
1.0
  9
$DIMASZ
 40
2.2299999999999991
  9
$DIMEXO
 40
0.5
  9
$DIMDLI
 40
7.0
  9
$DIMRND
 40
0.0
  9
$DIMDLE
 40
0.0
  9
$DIMEXE
 40
1.0
  9
$DIMTP
 40
0.0
  9
$DIMTM
 40
0.01
  9
$DIMTXT
 40
2.7999999999999989
  9
$DIMCEN
 40
0.0
  9
$DIMTSZ
 40
0.0
  9
$DIMTOL
 70
     0
  9
$DIMLIM
 70
     0
  9
$DIMTIH
 70
     0
  9
$DIMTOH
 70
     0
  9
$DIMSE1
 70
     0
  9
$DIMSE2
 70
     0
  9
$DIMTAD
 70
     3
  9
$DIMZIN
 70
     9
  9
$DIMBLK
  1
OPEN
  9
$DIMASO
 70
     1
  9
$DIMSHO
 70
     1
  9
$DIMPOST
  1

  9
$DIMAPOST
  1

  9
$DIMALT
 70
     0
  9
$DIMALTD
 70
     2
  9
$DIMALTF
 40
25.399999999999999
  9
$DIMLFAC
 40
1.0
  9
$DIMTOFL
 70
     1
  9
$DIMTVP
 40
0.0
  9
$DIMTIX
 70
     1
  9
$DIMSOXD
 70
     0
  9
$DIMSAH
 70
     0
  9
$DIMBLK1
  1

  9
$DIMBLK2
  1

  9
$DIMSTYLE
  2
BIGT
  9
$DIMCLRD
 70
   256
  9
$DIMCLRE
 70
   256
  9
$DIMCLRT
 70
    40
  9
$DIMTFAC
 40
1.0
  9
$DIMGAP
 40
1.0
  9
$LUNITS
 70
     2
  9
$LUPREC
 70
     3
  9
$SKETCHINC
 40
1.0
  9
$FILLETRAD
 40
0.0
  9
$AUNITS
 70
     0
  9
$AUPREC
 70
     3
  9
$MENU
  1
.
  9
$ELEVATION
 40
0.0
  9
$PELEVATION
 40
0.0
  9
$THICKNESS
 40
0.0
  9
$LIMCHECK
 70
     0
  9
$BLIPMODE
 70
     0
  9
$CHAMFERA
 40
0.25
  9
$CHAMFERB
 40
0.25
  9
$SKPOLY
 70
     0
  9
$TDCREATE
 40
2455735.6716502202
  9
$TDUPDATE
 40
2455736.5384252779
  9
$TDINDWG
 40
0.0127563542
  9
$TDUSRTIMER
 40
0.0127563542
  9
$USRTIMER
 70
     1
  9
$ANGBASE
 50
0.0
  9
$ANGDIR
 70
     0
  9
$PDMODE
 70
     1
  9
$PDSIZE
 40
0.0
  9
$PLINEWID
 40
0.0
  9
$COORDS
 70
     1
  9
$SPLFRAME
 70
     0
  9
$SPLINETYPE
 70
     6
  9
$SPLINESEGS
 70
     4
  9
$ATTDIA
 70
     1
  9
$ATTREQ
 70
     1
  9
$HANDLING
 70
     1
  9
$HANDSEED
  5
1F88
  9
$SURFTAB1
 70
     6
  9
$SURFTAB2
 70
     6
  9
$SURFTYPE
 70
     6
  9
$SURFU
 70
     6
  9
$SURFV
 70
     6
  9
$UCSNAME
  2

  9
$UCSORG
 10
0.0
 20
0.0
 30
0.0
  9
$UCSXDIR
 10
1.0
 20
0.0
 30
0.0
  9
$UCSYDIR
 10
0.0
 20
1.0
 30
0.0
  9
$PUCSNAME
  2

  9
$PUCSORG
 10
0.0
 20
0.0
 30
0.0
  9
$PUCSXDIR
 10
1.0
 20
0.0
 30
0.0
  9
$PUCSYDIR
 10
0.0
 20
1.0
 30
0.0
  9
$USERI1
 70
     1
  9
$USERI2
 70
     0
  9
$USERI3
 70
     0
  9
$USERI4
 70
     0
  9
$USERI5
 70
     0
  9
$USERR1
 40
0.0
  9
$USERR2
 40
0.0
  9
$USERR3
 40
0.0
  9
$USERR4
 40
0.0
  9
$USERR5
 40
0.0
  9
$WORLDVIEW
 70
     1
  9
$SHADEDGE
 70
     3
  9
$SHADEDIF
 70
    70
  9
$TILEMODE
 70
     1
  9
$MAXACTVP
 70
    16
  9
$PLIMCHECK
 70
     0
  9
$PEXTMIN
 10
1.0000000000000000E+020
 20
1.0000000000000000E+020
 30
1.0000000000000000E+020
  9
$PEXTMAX
 10
-1.0000000000000000E+020
 20
-1.0000000000000000E+020
 30
-1.0000000000000000E+020
  9
$PLIMMIN
 10
0.0
 20
0.0
  9
$PLIMMAX
 10
420.0
 20
297.0
  9
$UNITMODE
 70
     0
  9
$VISRETAIN
 70
     1
  9
$PLINEGEN
 70
     0
  9
$PSLTSCALE
 70
     1
  0
ENDSEC
  0
SECTION
  2
TABLES
  0
TABLE
  2
VPORT
 70
     4
  0
VPORT
  2
*ACTIVE
 70
     0
 10
0.0
 20
0.0
 11
1.0
 21
1.0
 12
-59.22787518190097
 22
18.114166647561571
 13
0.0
 23
0.0
 14
7.0
 24
7.0
 15
7.0
 25
7.0
 16
0.0
 26
0.0
 36
1.0
 17
0.0
 27
0.0
 37
0.0
 40
109.5943461250524
 41
1.495287958115183
 42
50.0
 43
0.0
 44
0.0
 50
0.0
 51
0.0
 71
     0
 72
  2000
 73
     1
 74
     0
 75
     0
 76
     1
 77
     0
 78
     0
  0
ENDTAB
  0
TABLE
  2
LTYPE
 70
    13
  0
LTYPE
  2
CONTINUOUS
 70
     0
  3
Solid line
 72
    65
 73
     0
 40
0.0
  0
LTYPE
  2
CENTER2
 70
     0
  3
___ _ ___ _ ___ _ ___ _ ___ _ ___ _ ___ _ ___ _
 72
    65
 73
     4
 40
1.125
 49
0.75
 49
-0.125
 49
0.125
 49
-0.125
  0
LTYPE
  2
HIDDEN2
 70
     0
  3
_ _ _ _ _ _ _ _ _ _ _ _ _ _ _ _ _ _ _ _ _ _ _ _
 72
    65
 73
     2
 40
0.1875
 49
0.125
 49
-0.0625
  0
LTYPE
  2
PHANTOM2
 70
     0
  3
___ _ _ ___ _ _ ___ _ _ ___ _ _ ___ _ _ ___ _ _
 72
    65
 73
     6
 40
1.25
 49
0.625
 49
-0.125
 49
0.125
 49
-0.125
 49
0.125
 49
-0.125
  0
LTYPE
  2
CENTER
 70
     0
  3
____ _ ____ _ ____ _ ____ _ ____ _ ____ _ ____ 
 72
    65
 73
     4
 40
2.0
 49
1.25
 49
-0.25
 49
0.25
 49
-0.25
  0
LTYPE
  2
AM_ISO02W050
 70
     0
  3
__ __ __ __ __ __ __ __ __ __ __ __ __ __ __
 72
    65
 73
     2
 40
7.5
 49
6.0
 49
-1.5
  0
LTYPE
  2
AMCONSTR
 70
     0
  3
_______________________
 72
    65
 73
     2
 40
9999.0
 49
9999.0
 49
0.0
  0
LTYPE
  2
ACISOWELD
 70
     0
  3
_ _ _ _ _
 72
    65
 73
     2
 40
2.0
 49
2.0
 49
-1.0
  0
LTYPE
  2
ACISOTGB
 70
     0
  3
__ . . __ . .
 72
    65
 73
     6
 40
9.0
 49
4.0
 49
-1.0
 49
1.0
 49
-1.0
 49
1.0
 49
-1.0
  0
LTYPE
  2
ACISOTGL
 70
     0
  3
_ _ _ _ _
 72
    65
 73
     2
 40
3.0
 49
2.0
 49
-1.0
  0
LTYPE
  2
ACJISTGB
 70
     0
  3
__ . . __ . .
 72
    65
 73
     6
 40
9.0
 49
4.0
 49
-1.0
 49
1.0
 49
-1.0
 49
1.0
 49
-1.0
  0
LTYPE
  2
ACJISTGL
 70
     0
  3
_ _ _ _ _
 72
    65
 73
     2
 40
3.0
 49
2.0
 49
-1.0
  0
LTYPE
  2
HIDDEN
 70
     0
  3
Hidden __ __ __ __ __ __ __ __ __ __ __ __ __ _
 72
    65
 73
     2
 40
9.5249999999999986
 49
6.3499999999999988
 49
-3.1749999999999989
  0
ENDTAB
  0
TABLE
  2
LAYER
 70
    15
  0
LAYER
  2
0
 70
     0
 62
     7
  6
CONTINUOUS
  0
LAYER
  2
DEFPOINTS
 70
     0
 62
     7
  6
CONTINUOUS
  0
LAYER
  2
245
 70
     0
 62
     2
  6
CENTER2
  0
LAYER
  2
240
 70
     0
 62
     4
  6
CONTINUOUS
  0
LAYER
  2
241
 70
     0
 62
   211
  6
CONTINUOUS
  0
LAYER
  2
242
 70
     0
 62
     3
  6
CONTINUOUS
  0
LAYER
  2
243
 70
     0
 62
   211
  6
HIDDEN2
  0
LAYER
  2
244
 70
     0
 62
     3
  6
HIDDEN2
  0
LAYER
  2
246
 70
     0
 62
     3
  6
PHANTOM2
  0
LAYER
  2
247
 70
     0
 62
    60
  6
CONTINUOUS
  0
LAYER
  2
248
 70
     0
 62
    60
  6
HIDDEN2
  0
LAYER
  2
250
 70
     0
 62
     3
  6
CONTINUOUS
  0
LAYER
  2
251
 70
     0
 62
    40
  6
CONTINUOUS
  0
LAYER
  2
AM_5
 70
     0
 62
     3
  6
CONTINUOUS
  0
LAYER
  2
AM_CL
 70
     0
 62
   254
  6
AMCONSTR
  0
ENDTAB
  0
TABLE
  2
STYLE
 70
     6
  0
STYLE
  2
STANDARD
 70
     0
 40
0.0
 41
1.0
 50
0.0
 71
     0
 42
3.0
  3
romans.shx
  4
extfont.shx
  0
STYLE
  2
ACISOTS
 70
     0
 40
1.0
 41
1.0
 50
0.0
 71
     0
 42
3.0
  3
amgdt.shx
  4
extfont.shx
  0
STYLE
  2
ACISOGDT
 70
     0
 40
0.0
 41
1.0
 50
0.0
 71
     0
 42
3.0
  3
amgdt.shx
  4
extfont.shx
  0
STYLE
  2
ACJISTS
 70
     0
 40
1.0
 41
1.0
 50
0.0
 71
     0
 42
3.0
  3
amgdt.shx
  4
extfont.shx
  0
STYLE
  2
ACJISGDT
 70
     0
 40
0.0
 41
1.0
 50
0.0
 71
     0
 42
3.0
  3
amgdt.shx
  4
extfont.shx
  0
STYLE
  2
YOKO
 70
     0
 40
0.0
 41
1.0
 50
0.0
 71
     0
 42
3.0
  3
romans.shx
  4
extfont.shx
  0
ENDTAB
  0
TABLE
  2
VIEW
 70
     0
  0
ENDTAB
  0
TABLE
  2
UCS
 70
     0
  0
ENDTAB
  0
TABLE
  2
APPID
 70
    32
  0
APPID
  2
ACAD
 70
     0
  0
APPID
  2
GLOBAL
 70
     0
  0
APPID
  2
DETAIL
 70
     0
  0
APPID
  2
GRPNAME
 70
     0
  0
APPID
  2
GPARA
 70
     0
  0
APPID
  2
MCAD_NO_VIS
 70
     0
  0
APPID
  2
ACAD_TEMP_GRAPHIC
 70
     0
  0
APPID
  2
ACATTRIBSERVICES
 70
     0
  0
APPID
  2
GENIUS_GENSCREG_15
 70
     0
  0
APPID
  2
GENIUS_GENODEF_13
 70
     0
  0
APPID
  2
GENIUS_GENOBJ-N-SDF_13
 70
     0
  0
APPID
  2
GENIUS_GENREC_14
 70
     0
  0
APPID
  2
GENIUS_GENOBJ-N-REC_13
 70
     0
  0
APPID
  2
GENIUS_GENDIMSH_14
 70
     0
  0
APPID
  2
GENIUS_GENOBJ-N-DIM_13
 70
     0
  0
APPID
  2
GENIUS_GENDIM_13
 70
     0
  0
APPID
  2
GENIUS_GENDTOL_13
 70
     0
  0
APPID
  2
GENIUS_GENOLIS_13
 70
     0
  0
APPID
  2
GENIUS_GENOENT_13
 70
     0
  0
APPID
  2
GENIUS_GENOBJ-F-FEM_13
 70
     0
  0
APPID
  2
GENIUS_GENOREF_13
 70
     0
  0
APPID
  2
GENIUS_GEFFEM_13
 70
     0
  0
APPID
  2
GENIUS_GEFFEMP_13
 70
     0
  0
APPID
  2
AD_DRAW
 70
     0
  0
APPID
  2
DESIGNERASSEMBLIES
 70
     0
  0
APPID
  2
ACADM_DIM_EDIT
 70
     0
  0
APPID
  2
AMDT_DM_ADJ
 70
     0
  0
APPID
  2
ITEMNAME
 70
     0
  0
APPID
  2
GRADE_0
 70
     0
  0
APPID
  2
HATCH_TYPE
 70
     0
  0
APPID
  2
HATCH_DISPLAY
 70
     0
  0
APPID
  2
HATCH_DISTANCE
 70
     0
  0
ENDTAB
  0
TABLE
  2
DIMSTYLE
 70
    25
  0
DIMSTYLE
  2
BIGT
 70
     0
  3

  4

  5
OPEN
  6

  7

 40
1.0
 41
2.2299999999999991
 42
0.5
 43
7.0
 44
1.0
 45
0.0
 46
0.0
 47
0.0
 48
0.01
140
2.7999999999999989
141
0.0
142
0.0
143
25.399999999999999
144
1.0
145
0.0
146
1.0
147
1.0
 71
     0
 72
     0
 73
     0
 74
     0
 75
     0
 76
     0
 77
     3
 78
     9
170
     0
171
     2
172
     1
173
     0
174
     1
175
     0
176
   256
177
   256
178
    40
  0
DIMSTYLE
  2
AM_ISO
 70
     0
  3

  4
"
  5

  6

  7

 40
1.0
 41
2.5
 42
1.0
 43
10.0
 44
1.0
 45
0.0
 46
0.0
 47
0.1
 48
0.1
140
3.5
141
0.0
142
0.0
143
0.0393701
144
1.0
145
0.0
146
0.71
147
1.5
 71
     0
 72
     0
 73
     0
 74
     0
 75
     0
 76
     0
 77
     1
 78
     8
170
     0
171
     2
172
     1
173
     0
174
     0
175
     0
176
   256
177
   256
178
     2
  0
DIMSTYLE
  2
AM_ISO$3
 70
     0
  3

  4
"
  5

  6

  7

 40
1.0
 41
2.5
 42
1.0
 43
10.0
 44
1.0
 45
0.0
 46
0.0
 47
0.1
 48
0.1
140
3.5
141
0.0
142
0.0
143
0.0393701
144
1.0
145
0.0
146
0.71
147
1.5
 71
     0
 72
     0
 73
     0
 74
     1
 75
     0
 76
     0
 77
     1
 78
     8
170
     0
171
     2
172
     0
173
     0
174
     0
175
     0
176
   256
177
   256
178
     2
  0
DIMSTYLE
  2
AM_ISO$4
 70
     0
  3

  4
"
  5

  6

  7

 40
1.0
 41
2.5
 42
1.0
 43
10.0
 44
1.0
 45
0.0
 46
0.0
 47
0.1
 48
0.1
140
3.5
141
0.0
142
0.0
143
0.0393701
144
1.0
145
0.0
146
0.71
147
1.5
 71
     0
 72
     0
 73
     0
 74
     1
 75
     0
 76
     0
 77
     1
 78
     8
170
     0
171
     2
172
     0
173
     0
174
     0
175
     0
176
   256
177
   256
178
     2
  0
DIMSTYLE
  2
AM_ISO$6
 70
     0
  3

  4
"
  5

  6

  7

 40
1.0
 41
2.5
 42
1.0
 43
10.0
 44
1.0
 45
0.0
 46
0.0
 47
0.1
 48
0.1
140
3.5
141
0.0
142
0.0
143
0.0393701
144
1.0
145
0.0
146
0.71
147
1.5
 71
     0
 72
     0
 73
     0
 74
     0
 75
     0
 76
     0
 77
     0
 78
     8
170
     0
171
     2
172
     1
173
     0
174
     0
175
     0
176
   256
177
   256
178
     2
  0
DIMSTYLE
  2
AM_ISO$7
 70
     0
  3

  4
"
  5

  6

  7

 40
1.0
 41
2.5
 42
1.0
 43
10.0
 44
1.0
 45
0.0
 46
0.0
 47
0.1
 48
0.1
140
5.0
141
0.0
142
0.0
143
0.0393701
144
1.0
145
0.0
146
0.71
147
1.5
 71
     0
 72
     0
 73
     0
 74
     0
 75
     0
 76
     0
 77
     1
 78
     8
170
     0
171
     2
172
     1
173
     0
174
     0
175
     0
176
   256
177
   256
178
     2
  0
DIMSTYLE
  2
AM_ISO$SF
 70
     0
  3

  4
"
  5

  6

  7

 40
1.0
 41
2.5
 42
1.0
 43
10.0
 44
1.0
 45
0.0
 46
0.0
 47
0.1
 48
0.1
140
3.5
141
0.0
142
0.0
143
0.0393701
144
1.0
145
0.0
146
0.71
147
1.5
 71
     0
 72
     0
 73
     0
 74
     0
 75
     1
 76
     1
 77
     1
 78
     8
170
     0
171
     2
172
     1
173
     0
174
     0
175
     0
176
   256
177
   256
178
     2
  0
DIMSTYLE
  2
AM_ISO$SH
 70
     0
  3

  4
"
  5

  6
GENAXEH
  7

 40
1.0
 41
2.5
 42
1.0
 43
10.0
 44
1.0
 45
0.0
 46
0.0
 47
0.1
 48
0.1
140
3.5
141
0.0
142
0.0
143
0.0393701
144
2.0
145
0.0
146
0.71
147
1.5
 71
     0
 72
     0
 73
     0
 74
     0
 75
     1
 76
     1
 77
     1
 78
     8
170
     0
171
     2
172
     1
173
     1
174
     0
175
     0
176
   256
177
   256
178
     2
  0
DIMSTYLE
  2
BIGT$2
 70
     0
  3

  4

  5
OPEN
  6

  7

 40
1.0
 41
2.2299999999999991
 42
0.5
 43
7.0
 44
1.0
 45
0.0
 46
0.0
 47
0.0
 48
0.01
140
2.7999999999999989
141
0.0
142
0.0
143
25.399999999999999
144
1.0
145
0.0
146
1.0
147
1.0
 71
     0
 72
     0
 73
     0
 74
     0
 75
     0
 76
     0
 77
     3
 78
     9
170
     0
171
     2
172
     1
173
     0
174
     0
175
     0
176
   256
177
   256
178
    40
  0
DIMSTYLE
  2
BIGT$3
 70
     0
  3

  4

  5
OPEN
  6

  7

 40
1.0
 41
2.2299999999999991
 42
0.5
 43
2.5
 44
1.0
 45
0.0
 46
0.0
 47
0.0
 48
0.01
140
2.7999999999999989
141
0.0
142
0.0
143
25.399999999999999
144
1.0
145
0.0
146
1.0
147
1.0
 71
     0
 72
     0
 73
     0
 74
     0
 75
     0
 76
     0
 77
     3
 78
     9
170
     0
171
     2
172
     1
173
     0
174
     0
175
     0
176
   256
177
   256
178
    40
  0
DIMSTYLE
  2
BIGT$7
 70
     0
  3

  4

  5
OPEN
  6

  7

 40
0.0
 41
2.2299999999999991
 42
0.5
 43
7.0
 44
1.0
 45
0.0
 46
0.0
 47
0.0
 48
0.01
140
2.7999999999999989
141
0.0
142
0.0
143
25.399999999999999
144
1.0
145
0.0
146
1.0
147
1.0
 71
     0
 72
     0
 73
     0
 74
     0
 75
     0
 76
     0
 77
     3
 78
     9
170
     0
171
     2
172
     0
173
     0
174
     0
175
     0
176
   256
177
   256
178
    40
  0
DIMSTYLE
  2
BIGT$6
 70
     0
  3

  4

  5
OPEN
  6

  7

 40
1.0
 41
2.2299999999999991
 42
0.5
 43
2.5
 44
1.0
 45
0.0
 46
0.0
 47
0.0
 48
0.01
140
2.7999999999999989
141
0.0
142
0.0
143
25.399999999999999
144
1.0
145
0.0
146
1.0
147
1.0
 71
     0
 72
     0
 73
     0
 74
     0
 75
     0
 76
     0
 77
     3
 78
     9
170
     0
171
     2
172
     1
173
     0
174
     0
175
     0
176
   256
177
   256
178
    40
  0
DIMSTYLE
  2
BIGT$0
 70
     0
  3

  4

  5
OPEN
  6

  7

 40
1.0
 41
2.2299999999999991
 42
0.5
 43
7.0
 44
1.0
 45
0.0
 46
0.0
 47
0.0
 48
0.01
140
2.7999999999999989
141
0.0
142
0.0
143
25.399999999999999
144
1.0
145
0.0
146
1.0
147
1.0
 71
     0
 72
     0
 73
     0
 74
     0
 75
     0
 76
     0
 77
     3
 78
     9
170
     0
171
     2
172
     1
173
     0
174
     0
175
     0
176
   256
177
   256
178
    40
  0
DIMSTYLE
  2
BIGT$4
 70
     0
  3

  4

  5
OPEN
  6

  7

 40
1.0
 41
2.2299999999999991
 42
0.5
 43
2.5
 44
1.0
 45
0.0
 46
0.0
 47
0.0
 48
0.01
140
2.7999999999999989
141
0.0
142
0.0
143
25.399999999999999
144
1.0
145
0.0
146
1.0
147
1.0
 71
     0
 72
     0
 73
     0
 74
     0
 75
     0
 76
     0
 77
     3
 78
     9
170
     0
171
     2
172
     1
173
     0
174
     0
175
     0
176
   256
177
   256
178
    40
  0
DIMSTYLE
  2
BIGT$SH
 70
     0
  3

  4

  5
OPEN
  6

  7

 40
1.0
 41
2.2299999999999991
 42
0.5
 43
7.0
 44
1.0
 45
0.0
 46
0.0
 47
0.0
 48
0.0
140
2.7999999999999989
141
0.0
142
0.0
143
25.399999999999999
144
1.0
145
0.0
146
1.0
147
1.0
 71
     0
 72
     0
 73
     0
 74
     0
 75
     0
 76
     0
 77
     3
 78
     9
170
     0
171
     2
172
     1
173
     0
174
     0
175
     0
176
   256
177
   256
178
    40
  0
DIMSTYLE
  2
BIGT$SF
 70
     0
  3

  4

  5
OPEN
  6

  7

 40
1.0
 41
2.2299999999999991
 42
0.5
 43
7.0
 44
1.0
 45
0.0
 46
0.0
 47
0.0
 48
0.0
140
2.7999999999999989
141
0.0
142
0.0
143
25.399999999999999
144
1.0
145
0.0
146
1.0
147
1.0
 71
     0
 72
     0
 73
     0
 74
     0
 75
     0
 76
     0
 77
     3
 78
     9
170
     0
171
     2
172
     1
173
     0
174
     0
175
     0
176
   256
177
   256
178
    40
  0
DIMSTYLE
  2
TECHNICAL_OSAKA
 70
     0
  3

  4
"
  5
OPEN30
  6

  7

 40
1.0
 41
2.5
 42
1.0
 43
10.0
 44
1.0
 45
0.0
 46
0.0
 47
0.1
 48
0.1
140
2.7999999999999989
141
0.0
142
0.0
143
0.0393701
144
1.0
145
0.0
146
0.71
147
1.5
 71
     0
 72
     0
 73
     0
 74
     0
 75
     0
 76
     0
 77
     3
 78
     8
170
     0
171
     2
172
     1
173
     0
174
     0
175
     0
176
   256
177
   256
178
    40
  0
DIMSTYLE
  2
TECHNICAL_OSAKA$3
 70
     0
  3

  4
"
  5
OPEN30
  6

  7

 40
1.0
 41
2.5
 42
1.0
 43
10.0
 44
1.0
 45
0.0
 46
0.0
 47
0.1
 48
0.1
140
2.7999999999999989
141
0.0
142
0.0
143
0.0393701
144
1.0
145
0.0
146
0.71
147
1.5
 71
     0
 72
     0
 73
     0
 74
     1
 75
     0
 76
     0
 77
     3
 78
     8
170
     0
171
     2
172
     0
173
     0
174
     0
175
     0
176
   256
177
   256
178
    40
  0
DIMSTYLE
  2
TECHNICAL_OSAKA$4
 70
     0
  3

  4
"
  5
OPEN30
  6

  7

 40
1.0
 41
2.5
 42
1.0
 43
10.0
 44
1.0
 45
0.0
 46
0.0
 47
0.1
 48
0.1
140
2.7999999999999989
141
0.0
142
0.0
143
0.0393701
144
1.0
145
0.0
146
0.71
147
1.5
 71
     0
 72
     0
 73
     0
 74
     1
 75
     0
 76
     0
 77
     3
 78
     8
170
     0
171
     2
172
     0
173
     0
174
     0
175
     0
176
   256
177
   256
178
    40
  0
DIMSTYLE
  2
TECHNICAL_OSAKA$6
 70
     0
  3

  4
"
  5
OPEN30
  6

  7

 40
1.0
 41
2.5
 42
1.0
 43
10.0
 44
1.0
 45
0.0
 46
0.0
 47
0.1
 48
0.1
140
2.7999999999999989
141
0.0
142
0.0
143
0.0393701
144
1.0
145
0.0
146
0.71
147
1.5
 71
     0
 72
     0
 73
     0
 74
     0
 75
     0
 76
     0
 77
     0
 78
     8
170
     0
171
     2
172
     1
173
     0
174
     0
175
     0
176
   256
177
   256
178
    40
  0
DIMSTYLE
  2
TECHNICAL_OSAKA$7
 70
     0
  3

  4
"
  5
OPEN30
  6

  7

 40
1.0
 41
2.5
 42
1.0
 43
10.0
 44
1.0
 45
0.0
 46
0.0
 47
0.1
 48
0.1
140
2.7999999999999989
141
0.0
142
0.0
143
0.0393701
144
1.0
145
0.0
146
0.71
147
1.5
 71
     0
 72
     0
 73
     0
 74
     0
 75
     0
 76
     0
 77
     3
 78
     8
170
     0
171
     2
172
     1
173
     0
174
     0
175
     0
176
   256
177
   256
178
    40
  0
DIMSTYLE
  2
TECHNICAL_OSAKA$SF
 70
     0
  3

  4
"
  5
OPEN30
  6
OPEN30
  7
OPEN30
 40
1.0
 41
2.5
 42
1.0
 43
10.0
 44
1.0
 45
0.0
 46
0.0
 47
0.1
 48
0.1
140
3.5
141
0.0
142
0.0
143
0.0393701
144
1.0
145
0.0
146
0.71
147
1.5
 71
     0
 72
     0
 73
     0
 74
     0
 75
     1
 76
     1
 77
     3
 78
     8
170
     0
171
     2
172
     1
173
     0
174
     0
175
     0
176
   256
177
   256
178
    40
  0
DIMSTYLE
  2
TECHNICAL_OSAKA$SH
 70
     0
  3

  4
"
  5
OPEN30
  6
GENAXEH
  7
OPEN30
 40
1.0
 41
2.5
 42
1.0
 43
10.0
 44
1.0
 45
0.0
 46
0.0
 47
0.1
 48
0.1
140
3.5
141
0.0
142
0.0
143
0.0393701
144
2.0
145
0.0
146
0.71
147
1.5
 71
     0
 72
     0
 73
     0
 74
     0
 75
     1
 76
     1
 77
     3
 78
     8
170
     0
171
     2
172
     1
173
     1
174
     0
175
     0
176
   256
177
   256
178
    40
  0
DIMSTYLE
  2
GRADE
 70
     0
  3

  4

  5

  6

  7

 40
1.0
 41
2.0
 42
2.0
 43
3.75
 44
2.0
 45
0.0
 46
0.0
 47
0.0
 48
0.0
140
4.0
141
0.0
142
0.0
143
25.399999999999999
144
1.0
145
0.0
146
1.0
147
1.0
 71
     0
 72
     0
 73
     0
 74
     0
 75
     0
 76
     0
 77
     3
 78
     8
170
     0
171
     2
172
     1
173
     1
174
     0
175
     0
176
     0
177
     0
178
     0
  0
DIMSTYLE
  2
ISO1
 70
     0
  3

  4

  5

  6

  7

 40
1.0
 41
10.0
 42
2.5
 43
15.0
 44
5.0
 45
0.0
 46
0.0
 47
0.0
 48
0.0
140
10.0
141
10.0
142
0.0
143
0.0394
144
1.0
145
4.0
146
1.0
147
2.5
 71
     0
 72
     0
 73
     1
 74
     0
 75
     0
 76
     0
 77
     1
 78
     8
170
     0
171
     2
172
     1
173
     0
174
     0
175
     0
176
     0
177
     0
178
     0
  0
ENDTAB
  0
ENDSEC
  0
SECTION
  2
BLOCKS
  0
BLOCK
  8
0
  2
$MODEL_SPACE
 70
     0
 10
0.0
 20
0.0
 30
0.0
  3
$MODEL_SPACE
  1

  0
ENDBLK
  5
1C
  8
0
  0
BLOCK
 67
     1
  8
0
  2
$PAPER_SPACE
 70
     0
 10
0.0
 20
0.0
 30
0.0
  3
$PAPER_SPACE
  1

  0
ENDBLK
  5
19
 67
     1
  8
0
  0
BLOCK
  8
0
  2
_OPEN
 70
     0
 10
0.0
 20
0.0
 30
0.0
  3
_OPEN
  1

  0
LINE
  5
1998
  8
0
  6
BYBLOCK
 62
     0
 10
-1.0
 20
0.1666666666666666
 30
0.0
 11
0.0
 21
0.0
 31
0.0
  0
LINE
  5
1999
  8
0
  6
BYBLOCK
 62
     0
 10
-1.0
 20
-0.1666666666666666
 30
0.0
 11
0.0
 21
0.0
 31
0.0
  0
LINE
  5
199A
  8
0
  6
BYBLOCK
 62
     0
 10
0.0
 20
0.0
 30
0.0
 11
-1.0
 21
0.0
 31
0.0
  0
ENDBLK
  5
199B
  8
0
  0
BLOCK
  8
0
  2
GENAXEH
 70
     0
 10
0.0
 20
0.0
 30
0.0
  3
GENAXEH
  1

  0
LINE
  5
19C3
  8
0
 10
-1.0
 20
0.0
 30
0.0
 11
1.0
 21
0.0
 31
0.0
  0
ENDBLK
  5
19C4
  8
0
  0
BLOCK
  8
0
  2
_OPEN30
 70
     0
 10
0.0
 20
0.0
 30
0.0
  3
_OPEN30
  1

  0
LINE
  5
19E8
  8
0
  6
BYBLOCK
 62
     0
 10
-1.0
 20
0.26794919
 30
0.0
 11
0.0
 21
0.0
 31
0.0
  0
LINE
  5
19E9
  8
0
  6
BYBLOCK
 62
     0
 10
0.0
 20
0.0
 30
0.0
 11
-1.0
 21
-0.26794919
 31
0.0
  0
LINE
  5
19EA
  8
0
  6
BYBLOCK
 62
     0
 10
0.0
 20
0.0
 30
0.0
 11
-1.0
 21
0.0
 31
0.0
  0
ENDBLK
  5
19EB
  8
0
  0
BLOCK
  8
0
  2
FM00_4
 70
     0
 10
0.0
 20
0.0
 30
0.0
  3
FM00_4
  1

  0
POLYLINE
  5
1362
  8
0
  6
CONTINUOUS
 62
     0
 66
     1
 10
0.0
 20
0.0
 30
0.0
 70
     1
  0
VERTEX
  5
1363
  8
0
  6
CONTINUOUS
 62
     0
 10
-2.0
 20
0.0
 30
0.0
  0
VERTEX
  5
1364
  8
0
  6
CONTINUOUS
 62
     0
 10
-1.5
 20
0.8660254037845334
 30
0.0
  0
VERTEX
  5
1365
  8
0
  6
CONTINUOUS
 62
     0
 10
-2.5
 20
0.8660254037845334
 30
0.0
  0
SEQEND
  5
1366
  8
0
  6
CONTINUOUS
 62
     0
  0
POLYLINE
  5
1367
  8
0
  6
CONTINUOUS
 62
     0
 66
     1
 10
0.0
 20
0.0
 30
0.0
 70
     1
  0
VERTEX
  5
1368
  8
0
  6
CONTINUOUS
 62
     0
 10
0.0
 20
0.0
 30
0.0
  0
VERTEX
  5
1369
  8
0
  6
CONTINUOUS
 62
     0
 10
0.5
 20
0.8660254037845334
 30
0.0
  0
VERTEX
  5
136A
  8
0
  6
CONTINUOUS
 62
     0
 10
-0.5
 20
0.8660254037845334
 30
0.0
  0
SEQEND
  5
136B
  8
0
  6
CONTINUOUS
 62
     0
  0
POLYLINE
  5
136C
  8
0
  6
CONTINUOUS
 62
     0
 66
     1
 10
0.0
 20
0.0
 30
0.0
 70
     1
  0
VERTEX
  5
136D
  8
0
  6
CONTINUOUS
 62
     0
 10
-1.0
 20
0.0
 30
0.0
  0
VERTEX
  5
136E
  8
0
  6
CONTINUOUS
 62
     0
 10
-0.5
 20
0.8660254037845334
 30
0.0
  0
VERTEX
  5
136F
  8
0
  6
CONTINUOUS
 62
     0
 10
-1.5
 20
0.8660254037845334
 30
0.0
  0
SEQEND
  5
1370
  8
0
  6
CONTINUOUS
 62
     0
  0
ENDBLK
  5
1371
  8
0
  0
BLOCK
  8
0
  2
A$C424F4427
 70
     0
 10
0.0
 20
0.0
 30
0.0
  3
A$C424F4427
  1

  0
LINE
  5
1829
  8
243
 10
-125.0
 20
4.0
 30
0.0
 11
-56.000000000000277
 21
4.0
 31
0.0
  0
LINE
  5
182A
  8
243
 10
-125.0
 20
-3.9999999999999432
 30
0.0
 11
-55.999999999999552
 21
-3.9999999999999432
 31
0.0
  0
LINE
  5
182B
  8
245
 10
-128.0
 20
0.0
 30
0.0
 11
12.00000000000051
 21
0.0
 31
0.0
  0
LINE
  5
182C
  8
240
 10
-125.0
 20
-10.0
 30
0.0
 11
-56.414213562372908
 21
-9.9999999999999716
 31
0.0
  0
LINE
  5
182D
  8
240
 10
-125.0
 20
10.0
 30
0.0
 11
-56.414213562372652
 21
10.00000000000003
 31
0.0
  0
LINE
  5
182E
  8
240
 10
-126.0
 20
-9.0
 30
0.0
 11
-126.0
 21
0.0
 31
0.0
  0
ARC
  5
182F
  8
240
 10
-125.0
 20
-9.0
 30
0.0
 40
1.0
 50
180.0
 51
270.0
  0
ARC
  5
1830
  8
243
 10
-125.0
 20
-4.9999999999999432
 30
0.0
 40
1.0
 50
90.0
 51
180.0
  0
LINE
  5
1831
  8
240
 10
-126.0
 20
9.0
 30
0.0
 11
-126.0
 21
0.0
 31
0.0
  0
ARC
  5
1832
  8
243
 10
-125.0
 20
5.0
 30
0.0
 40
1.0
 50
180.0
 51
270.0
  0
ARC
  5
1833
  8
240
 10
-125.0
 20
9.0
 30
0.0
 40
1.0
 50
90.0
 51
180.0
  0
LINE
  5
1834
  8
243
 10
-54.556624327025531
 20
-1.500000000000028
 30
0.0
 11
2.7499999999999432
 21
-1.499999999999998
 31
0.0
  0
LINE
  5
1835
  8
243
 10
-54.556624327025759
 20
1.5
 30
0.0
 11
0.2500000000002274
 21
1.499999999999857
 31
0.0
  0
LINE
  5
1836
  8
241
 10
-49.999999999999709
 20
2.1393314283085649
 30
0.0
 11
-6.7844167108128772
 21
2.1393314283085649
 31
0.0
  0
LINE
  5
1837
  8
240
 10
9.6999999999996191
 20
-3.1999999999999882
 30
0.0
 11
-49.999999999999709
 21
-3.1999999999999882
 31
0.0
  0
LINE
  5
1838
  8
240
 10
-52.935786437625552
 20
7.3499999999999943
 30
0.0
 11
-0.2500000000002274
 21
7.3499999999999943
 31
0.0
  0
LINE
  5
1839
  8
241
 10
-61.000000000000341
 20
4.3588989435409067
 30
0.0
 11
-56.00000000000005
 21
4.3588989435409067
 31
0.0
  0
LINE
  5
183A
  8
241
 10
-61.000000000000313
 20
-4.3588989435409067
 30
0.0
 11
-56.000000000000028
 21
-4.3588989435409067
 31
0.0
  0
LINE
  5
183B
  8
242
 10
-61.000000000000341
 20
4.3588989435409067
 30
0.0
 11
-56.000000000000028
 21
-4.3588989435409067
 31
0.0
  0
LINE
  5
183C
  8
242
 10
-56.00000000000005
 20
4.3588989435409351
 30
0.0
 11
-61.000000000000313
 21
-4.3588989435409067
 31
0.0
  0
LINE
  5
183D
  8
241
 10
-61.000000000000341
 20
-4.3588989435409067
 30
0.0
 11
-61.000000000000362
 21
4.3588989435409067
 31
0.0
  0
ARC
  5
183E
  8
241
 10
-49.999999999999709
 20
-0.8606685716914341
 30
0.0
 40
3.0
 50
90.0
 51
180.0
  0
LINE
  5
183F
  8
243
 10
-54.556624327025531
 20
-1.500000000000028
 30
0.0
 11
-54.556624327025759
 21
1.5
 31
0.0
  0
LINE
  5
1840
  8
243
 10
-55.999999999999488
 20
-3.9999999999999432
 30
0.0
 11
-56.000000000000199
 21
4.0
 31
0.0
  0
POLYLINE
  8
241
  5
1BFC
  66
     1
 10
0.000000
 20
0.000000
 30
0.000000
  70
     8
  0
VERTEX
  8
241
  5
1BFD
 10
-56.0000
 20
4.35890
 30
0.000000
  70
    32
  0
VERTEX
  8
241
  5
1BFE
 10
-55.9811
 20
4.30407
 30
0.000000
  70
    32
  0
VERTEX
  8
241
  5
1BFF
 10
-55.9623
 20
4.24924
 30
0.000000
  70
    32
  0
VERTEX
  8
241
  5
1C00
 10
-55.9434
 20
4.19441
 30
0.000000
  70
    32
  0
VERTEX
  8
241
  5
1C01
 10
-55.9246
 20
4.13958
 30
0.000000
  70
    32
  0
VERTEX
  8
241
  5
1C02
 10
-55.9058
 20
4.08475
 30
0.000000
  70
    32
  0
VERTEX
  8
241
  5
1C03
 10
-55.8870
 20
4.02993
 30
0.000000
  70
    32
  0
VERTEX
  8
241
  5
1C04
 10
-55.8683
 20
3.97510
 30
0.000000
  70
    32
  0
VERTEX
  8
241
  5
1C05
 10
-55.8496
 20
3.92027
 30
0.000000
  70
    32
  0
VERTEX
  8
241
  5
1C06
 10
-55.8309
 20
3.86544
 30
0.000000
  70
    32
  0
VERTEX
  8
241
  5
1C07
 10
-55.8123
 20
3.81061
 30
0.000000
  70
    32
  0
VERTEX
  8
241
  5
1C08
 10
-55.7938
 20
3.75578
 30
0.000000
  70
    32
  0
VERTEX
  8
241
  5
1C09
 10
-55.7753
 20
3.70095
 30
0.000000
  70
    32
  0
VERTEX
  8
241
  5
1C0A
 10
-55.7569
 20
3.64612
 30
0.000000
  70
    32
  0
VERTEX
  8
241
  5
1C0B
 10
-55.7386
 20
3.59129
 30
0.000000
  70
    32
  0
VERTEX
  8
241
  5
1C0C
 10
-55.7203
 20
3.53647
 30
0.000000
  70
    32
  0
VERTEX
  8
241
  5
1C0D
 10
-55.7022
 20
3.48164
 30
0.000000
  70
    32
  0
VERTEX
  8
241
  5
1C0E
 10
-55.6841
 20
3.42681
 30
0.000000
  70
    32
  0
VERTEX
  8
241
  5
1C0F
 10
-55.6662
 20
3.37198
 30
0.000000
  70
    32
  0
VERTEX
  8
241
  5
1C10
 10
-55.6483
 20
3.31715
 30
0.000000
  70
    32
  0
VERTEX
  8
241
  5
1C11
 10
-55.6306
 20
3.26232
 30
0.000000
  70
    32
  0
VERTEX
  8
241
  5
1C12
 10
-55.6130
 20
3.20749
 30
0.000000
  70
    32
  0
VERTEX
  8
241
  5
1C13
 10
-55.5955
 20
3.15266
 30
0.000000
  70
    32
  0
VERTEX
  8
241
  5
1C14
 10
-55.5781
 20
3.09783
 30
0.000000
  70
    32
  0
VERTEX
  8
241
  5
1C15
 10
-55.5609
 20
3.04300
 30
0.000000
  70
    32
  0
VERTEX
  8
241
  5
1C16
 10
-55.5439
 20
2.98818
 30
0.000000
  70
    32
  0
VERTEX
  8
241
  5
1C17
 10
-55.5269
 20
2.93335
 30
0.000000
  70
    32
  0
VERTEX
  8
241
  5
1C18
 10
-55.5102
 20
2.87852
 30
0.000000
  70
    32
  0
VERTEX
  8
241
  5
1C19
 10
-55.4935
 20
2.82369
 30
0.000000
  70
    32
  0
VERTEX
  8
241
  5
1C1A
 10
-55.4771
 20
2.76886
 30
0.000000
  70
    32
  0
VERTEX
  8
241
  5
1C1B
 10
-55.4608
 20
2.71403
 30
0.000000
  70
    32
  0
VERTEX
  8
241
  5
1C1C
 10
-55.4447
 20
2.65920
 30
0.000000
  70
    32
  0
VERTEX
  8
241
  5
1C1D
 10
-55.4288
 20
2.60437
 30
0.000000
  70
    32
  0
VERTEX
  8
241
  5
1C1E
 10
-55.4131
 20
2.54954
 30
0.000000
  70
    32
  0
VERTEX
  8
241
  5
1C1F
 10
-55.3976
 20
2.49472
 30
0.000000
  70
    32
  0
VERTEX
  8
241
  5
1C20
 10
-55.3823
 20
2.43989
 30
0.000000
  70
    32
  0
VERTEX
  8
241
  5
1C21
 10
-55.3672
 20
2.38506
 30
0.000000
  70
    32
  0
VERTEX
  8
241
  5
1C22
 10
-55.3523
 20
2.33023
 30
0.000000
  70
    32
  0
VERTEX
  8
241
  5
1C23
 10
-55.3376
 20
2.27540
 30
0.000000
  70
    32
  0
VERTEX
  8
241
  5
1C24
 10
-55.3232
 20
2.22057
 30
0.000000
  70
    32
  0
VERTEX
  8
241
  5
1C25
 10
-55.3090
 20
2.16574
 30
0.000000
  70
    32
  0
VERTEX
  8
241
  5
1C26
 10
-55.2950
 20
2.11091
 30
0.000000
  70
    32
  0
VERTEX
  8
241
  5
1C27
 10
-55.2813
 20
2.05608
 30
0.000000
  70
    32
  0
VERTEX
  8
241
  5
1C28
 10
-55.2678
 20
2.00126
 30
0.000000
  70
    32
  0
VERTEX
  8
241
  5
1C29
 10
-55.2546
 20
1.94643
 30
0.000000
  70
    32
  0
VERTEX
  8
241
  5
1C2A
 10
-55.2416
 20
1.89160
 30
0.000000
  70
    32
  0
VERTEX
  8
241
  5
1C2B
 10
-55.2289
 20
1.83677
 30
0.000000
  70
    32
  0
VERTEX
  8
241
  5
1C2C
 10
-55.2165
 20
1.78194
 30
0.000000
  70
    32
  0
VERTEX
  8
241
  5
1C2D
 10
-55.2044
 20
1.72711
 30
0.000000
  70
    32
  0
VERTEX
  8
241
  5
1C2E
 10
-55.1925
 20
1.67228
 30
0.000000
  70
    32
  0
VERTEX
  8
241
  5
1C2F
 10
-55.1810
 20
1.61745
 30
0.000000
  70
    32
  0
VERTEX
  8
241
  5
1C30
 10
-55.1697
 20
1.56262
 30
0.000000
  70
    32
  0
VERTEX
  8
241
  5
1C31
 10
-55.1588
 20
1.50780
 30
0.000000
  70
    32
  0
VERTEX
  8
241
  5
1C32
 10
-55.1481
 20
1.45297
 30
0.000000
  70
    32
  0
VERTEX
  8
241
  5
1C33
 10
-55.1378
 20
1.39814
 30
0.000000
  70
    32
  0
VERTEX
  8
241
  5
1C34
 10
-55.1278
 20
1.34331
 30
0.000000
  70
    32
  0
VERTEX
  8
241
  5
1C35
 10
-55.1182
 20
1.28848
 30
0.000000
  70
    32
  0
VERTEX
  8
241
  5
1C36
 10
-55.1088
 20
1.23365
 30
0.000000
  70
    32
  0
VERTEX
  8
241
  5
1C37
 10
-55.0998
 20
1.17882
 30
0.000000
  70
    32
  0
VERTEX
  8
241
  5
1C38
 10
-55.0912
 20
1.12399
 30
0.000000
  70
    32
  0
VERTEX
  8
241
  5
1C39
 10
-55.0829
 20
1.06916
 30
0.000000
  70
    32
  0
VERTEX
  8
241
  5
1C3A
 10
-55.0749
 20
1.01433
 30
0.000000
  70
    32
  0
VERTEX
  8
241
  5
1C3B
 10
-55.0673
 20
0.959506
 30
0.000000
  70
    32
  0
VERTEX
  8
241
  5
1C3C
 10
-55.0601
 20
0.904677
 30
0.000000
  70
    32
  0
VERTEX
  8
241
  5
1C3D
 10
-55.0533
 20
0.849848
 30
0.000000
  70
    32
  0
VERTEX
  8
241
  5
1C3E
 10
-55.0469
 20
0.795019
 30
0.000000
  70
    32
  0
VERTEX
  8
241
  5
1C3F
 10
-55.0408
 20
0.740190
 30
0.000000
  70
    32
  0
VERTEX
  8
241
  5
1C40
 10
-55.0351
 20
0.685361
 30
0.000000
  70
    32
  0
VERTEX
  8
241
  5
1C41
 10
-55.0299
 20
0.630533
 30
0.000000
  70
    32
  0
VERTEX
  8
241
  5
1C42
 10
-55.0250
 20
0.575704
 30
0.000000
  70
    32
  0
VERTEX
  8
241
  5
1C43
 10
-55.0206
 20
0.520875
 30
0.000000
  70
    32
  0
VERTEX
  8
241
  5
1C44
 10
-55.0165
 20
0.466046
 30
0.000000
  70
    32
  0
VERTEX
  8
241
  5
1C45
 10
-55.0129
 20
0.411217
 30
0.000000
  70
    32
  0
VERTEX
  8
241
  5
1C46
 10
-55.0098
 20
0.356388
 30
0.000000
  70
    32
  0
VERTEX
  8
241
  5
1C47
 10
-55.0070
 20
0.301559
 30
0.000000
  70
    32
  0
VERTEX
  8
241
  5
1C48
 10
-55.0047
 20
0.246730
 30
0.000000
  70
    32
  0
VERTEX
  8
241
  5
1C49
 10
-55.0029
 20
0.191901
 30
0.000000
  70
    32
  0
VERTEX
  8
241
  5
1C4A
 10
-55.0015
 20
0.137072
 30
0.000000
  70
    32
  0
VERTEX
  8
241
  5
1C4B
 10
-55.0005
 20
0.0822434
 30
0.000000
  70
    32
  0
VERTEX
  8
241
  5
1C4C
 10
-55.0001
 20
0.0274145
 30
0.000000
  70
    32
  0
VERTEX
  8
241
  5
1C4D
 10
-55.0001
 20
-0.0274145
 30
0.000000
  70
    32
  0
VERTEX
  8
241
  5
1C4E
 10
-55.0005
 20
-0.0822434
 30
0.000000
  70
    32
  0
VERTEX
  8
241
  5
1C4F
 10
-55.0015
 20
-0.137072
 30
0.000000
  70
    32
  0
VERTEX
  8
241
  5
1C50
 10
-55.0029
 20
-0.191901
 30
0.000000
  70
    32
  0
VERTEX
  8
241
  5
1C51
 10
-55.0047
 20
-0.246730
 30
0.000000
  70
    32
  0
VERTEX
  8
241
  5
1C52
 10
-55.0070
 20
-0.301559
 30
0.000000
  70
    32
  0
VERTEX
  8
241
  5
1C53
 10
-55.0098
 20
-0.356388
 30
0.000000
  70
    32
  0
VERTEX
  8
241
  5
1C54
 10
-55.0129
 20
-0.411217
 30
0.000000
  70
    32
  0
VERTEX
  8
241
  5
1C55
 10
-55.0165
 20
-0.466046
 30
0.000000
  70
    32
  0
VERTEX
  8
241
  5
1C56
 10
-55.0206
 20
-0.520875
 30
0.000000
  70
    32
  0
VERTEX
  8
241
  5
1C57
 10
-55.0250
 20
-0.575704
 30
0.000000
  70
    32
  0
VERTEX
  8
241
  5
1C58
 10
-55.0299
 20
-0.630533
 30
0.000000
  70
    32
  0
VERTEX
  8
241
  5
1C59
 10
-55.0351
 20
-0.685361
 30
0.000000
  70
    32
  0
VERTEX
  8
241
  5
1C5A
 10
-55.0408
 20
-0.740190
 30
0.000000
  70
    32
  0
VERTEX
  8
241
  5
1C5B
 10
-55.0469
 20
-0.795019
 30
0.000000
  70
    32
  0
VERTEX
  8
241
  5
1C5C
 10
-55.0533
 20
-0.849848
 30
0.000000
  70
    32
  0
VERTEX
  8
241
  5
1C5D
 10
-55.0601
 20
-0.904677
 30
0.000000
  70
    32
  0
VERTEX
  8
241
  5
1C5E
 10
-55.0673
 20
-0.959506
 30
0.000000
  70
    32
  0
VERTEX
  8
241
  5
1C5F
 10
-55.0749
 20
-1.01433
 30
0.000000
  70
    32
  0
VERTEX
  8
241
  5
1C60
 10
-55.0829
 20
-1.06916
 30
0.000000
  70
    32
  0
VERTEX
  8
241
  5
1C61
 10
-55.0912
 20
-1.12399
 30
0.000000
  70
    32
  0
VERTEX
  8
241
  5
1C62
 10
-55.0998
 20
-1.17882
 30
0.000000
  70
    32
  0
VERTEX
  8
241
  5
1C63
 10
-55.1088
 20
-1.23365
 30
0.000000
  70
    32
  0
VERTEX
  8
241
  5
1C64
 10
-55.1182
 20
-1.28848
 30
0.000000
  70
    32
  0
VERTEX
  8
241
  5
1C65
 10
-55.1278
 20
-1.34331
 30
0.000000
  70
    32
  0
VERTEX
  8
241
  5
1C66
 10
-55.1378
 20
-1.39814
 30
0.000000
  70
    32
  0
VERTEX
  8
241
  5
1C67
 10
-55.1481
 20
-1.45297
 30
0.000000
  70
    32
  0
VERTEX
  8
241
  5
1C68
 10
-55.1588
 20
-1.50780
 30
0.000000
  70
    32
  0
VERTEX
  8
241
  5
1C69
 10
-55.1697
 20
-1.56262
 30
0.000000
  70
    32
  0
VERTEX
  8
241
  5
1C6A
 10
-55.1810
 20
-1.61745
 30
0.000000
  70
    32
  0
VERTEX
  8
241
  5
1C6B
 10
-55.1925
 20
-1.67228
 30
0.000000
  70
    32
  0
VERTEX
  8
241
  5
1C6C
 10
-55.2044
 20
-1.72711
 30
0.000000
  70
    32
  0
VERTEX
  8
241
  5
1C6D
 10
-55.2165
 20
-1.78194
 30
0.000000
  70
    32
  0
VERTEX
  8
241
  5
1C6E
 10
-55.2289
 20
-1.83677
 30
0.000000
  70
    32
  0
VERTEX
  8
241
  5
1C6F
 10
-55.2416
 20
-1.89160
 30
0.000000
  70
    32
  0
VERTEX
  8
241
  5
1C70
 10
-55.2546
 20
-1.94643
 30
0.000000
  70
    32
  0
VERTEX
  8
241
  5
1C71
 10
-55.2678
 20
-2.00126
 30
0.000000
  70
    32
  0
VERTEX
  8
241
  5
1C72
 10
-55.2813
 20
-2.05608
 30
0.000000
  70
    32
  0
VERTEX
  8
241
  5
1C73
 10
-55.2950
 20
-2.11091
 30
0.000000
  70
    32
  0
VERTEX
  8
241
  5
1C74
 10
-55.3090
 20
-2.16574
 30
0.000000
  70
    32
  0
VERTEX
  8
241
  5
1C75
 10
-55.3232
 20
-2.22057
 30
0.000000
  70
    32
  0
VERTEX
  8
241
  5
1C76
 10
-55.3376
 20
-2.27540
 30
0.000000
  70
    32
  0
VERTEX
  8
241
  5
1C77
 10
-55.3523
 20
-2.33023
 30
0.000000
  70
    32
  0
VERTEX
  8
241
  5
1C78
 10
-55.3672
 20
-2.38506
 30
0.000000
  70
    32
  0
VERTEX
  8
241
  5
1C79
 10
-55.3823
 20
-2.43989
 30
0.000000
  70
    32
  0
VERTEX
  8
241
  5
1C7A
 10
-55.3976
 20
-2.49472
 30
0.000000
  70
    32
  0
VERTEX
  8
241
  5
1C7B
 10
-55.4131
 20
-2.54954
 30
0.000000
  70
    32
  0
VERTEX
  8
241
  5
1C7C
 10
-55.4288
 20
-2.60437
 30
0.000000
  70
    32
  0
VERTEX
  8
241
  5
1C7D
 10
-55.4447
 20
-2.65920
 30
0.000000
  70
    32
  0
VERTEX
  8
241
  5
1C7E
 10
-55.4608
 20
-2.71403
 30
0.000000
  70
    32
  0
VERTEX
  8
241
  5
1C7F
 10
-55.4771
 20
-2.76886
 30
0.000000
  70
    32
  0
VERTEX
  8
241
  5
1C80
 10
-55.4935
 20
-2.82369
 30
0.000000
  70
    32
  0
VERTEX
  8
241
  5
1C81
 10
-55.5102
 20
-2.87852
 30
0.000000
  70
    32
  0
VERTEX
  8
241
  5
1C82
 10
-55.5269
 20
-2.93335
 30
0.000000
  70
    32
  0
VERTEX
  8
241
  5
1C83
 10
-55.5439
 20
-2.98818
 30
0.000000
  70
    32
  0
VERTEX
  8
241
  5
1C84
 10
-55.5609
 20
-3.04300
 30
0.000000
  70
    32
  0
VERTEX
  8
241
  5
1C85
 10
-55.5781
 20
-3.09783
 30
0.000000
  70
    32
  0
VERTEX
  8
241
  5
1C86
 10
-55.5955
 20
-3.15266
 30
0.000000
  70
    32
  0
VERTEX
  8
241
  5
1C87
 10
-55.6130
 20
-3.20749
 30
0.000000
  70
    32
  0
VERTEX
  8
241
  5
1C88
 10
-55.6306
 20
-3.26232
 30
0.000000
  70
    32
  0
VERTEX
  8
241
  5
1C89
 10
-55.6483
 20
-3.31715
 30
0.000000
  70
    32
  0
VERTEX
  8
241
  5
1C8A
 10
-55.6662
 20
-3.37198
 30
0.000000
  70
    32
  0
VERTEX
  8
241
  5
1C8B
 10
-55.6841
 20
-3.42681
 30
0.000000
  70
    32
  0
VERTEX
  8
241
  5
1C8C
 10
-55.7022
 20
-3.48164
 30
0.000000
  70
    32
  0
VERTEX
  8
241
  5
1C8D
 10
-55.7203
 20
-3.53647
 30
0.000000
  70
    32
  0
VERTEX
  8
241
  5
1C8E
 10
-55.7386
 20
-3.59129
 30
0.000000
  70
    32
  0
VERTEX
  8
241
  5
1C8F
 10
-55.7569
 20
-3.64612
 30
0.000000
  70
    32
  0
VERTEX
  8
241
  5
1C90
 10
-55.7753
 20
-3.70095
 30
0.000000
  70
    32
  0
VERTEX
  8
241
  5
1C91
 10
-55.7938
 20
-3.75578
 30
0.000000
  70
    32
  0
VERTEX
  8
241
  5
1C92
 10
-55.8123
 20
-3.81061
 30
0.000000
  70
    32
  0
VERTEX
  8
241
  5
1C93
 10
-55.8309
 20
-3.86544
 30
0.000000
  70
    32
  0
VERTEX
  8
241
  5
1C94
 10
-55.8496
 20
-3.92027
 30
0.000000
  70
    32
  0
VERTEX
  8
241
  5
1C95
 10
-55.8683
 20
-3.97510
 30
0.000000
  70
    32
  0
VERTEX
  8
241
  5
1C96
 10
-55.8870
 20
-4.02993
 30
0.000000
  70
    32
  0
VERTEX
  8
241
  5
1C97
 10
-55.9058
 20
-4.08475
 30
0.000000
  70
    32
  0
VERTEX
  8
241
  5
1C98
 10
-55.9246
 20
-4.13958
 30
0.000000
  70
    32
  0
VERTEX
  8
241
  5
1C99
 10
-55.9434
 20
-4.19441
 30
0.000000
  70
    32
  0
VERTEX
  8
241
  5
1C9A
 10
-55.9623
 20
-4.24924
 30
0.000000
  70
    32
  0
VERTEX
  8
241
  5
1C9B
 10
-55.9811
 20
-4.30407
 30
0.000000
  70
    32
  0
VERTEX
  8
241
  5
1C9C
 10
-56.0000
 20
-4.35890
 30
0.000000
  70
    32
  0
SEQEND
  8
241
  5
1C9D
  0
LINE
  5
1842
  8
241
 10
-53.349999999998509
 20
7.4398202788754872
 30
0.0
 11
-53.349999999998552
 21
-7.4398202788754872
 31
0.0
  0
ARC
  5
1843
  8
240
 10
-49.999999999999709
 20
-6.1999999999999877
 30
0.0
 40
3.0
 50
90.0
 51
180.0
  0
LINE
  5
1844
  8
240
 10
-52.999999999999659
 20
-7.3520638204738873
 30
0.0
 11
-52.999999999999723
 21
-6.1999999999999877
 31
0.0
  0
LINE
  5
1845
  8
241
 10
-56.000000000000171
 20
-4.3588989435409067
 30
0.0
 11
-56.00000000000005
 21
-9.9101797211243934
 31
0.0
  0
LINE
  5
1846
  8
240
 10
-55.707106781186098
 20
-9.7071067811862406
 30
0.0
 11
-53.642893218813782
 21
-7.6428932188123886
 31
0.0
  0
ARC
  5
1847
  8
240
 10
-52.935786437625552
 20
-8.3499999999999943
 30
0.0
 40
1.0
 50
93.681699248952029
 51
134.9999999999884
  0
LINE
  5
1848
  8
243
 10
-55.999999999999552
 20
-4.0000000000001421
 30
0.0
 11
-54.556624327025588
 21
-1.4999999999999141
 31
0.0
  0
LINE
  5
1849
  8
241
 10
-52.999999999999723
 20
-0.8606685716914341
 30
0.0
 11
-52.999999999999723
 21
-6.1999999999999877
 31
0.0
  0
LINE
  5
184A
  8
241
 10
-55.999999999999943
 20
4.3588989435409067
 30
0.0
 11
-55.999999999999943
 21
9.9101797211247344
 31
0.0
  0
LINE
  5
184B
  8
243
 10
-55.999999999999552
 20
4.0000000000001421
 30
0.0
 11
-54.55662432702556
 21
1.500000000000852
 31
0.0
  0
LINE
  5
184C
  8
240
 10
-53.642893218811963
 20
7.6428932188133274
 30
0.0
 11
-55.707106781186241
 21
9.7071067811867238
 31
0.0
  0
ARC
  5
184D
  8
240
 10
-52.935786437625552
 20
8.3499999999999943
 30
0.0
 40
1.0
 50
225.00000000001151
 51
270.0
  0
LINE
  5
184E
  8
240
 10
10.000000000000171
 20
11.09999999999107
 30
0.0
 11
9.9999999999996305
 21
-2.9000000000000048
 31
0.0
  0
LINE
  5
184F
  8
241
 10
-0.4999999999997727
 20
-1.2050896048301349
 30
0.0
 11
9.9999999999997442
 21
-1.2050896048301349
 31
0.0
  0
POLYLINE
  8
241
  5
1C9E
  66
     1
 10
0.000000
 20
0.000000
 30
0.000000
  70
     8
  0
VERTEX
  8
241
  5
1C9F
 10
-0.500000
 20
7.35000
 30
0.000000
  70
    32
  0
VERTEX
  8
241
  5
1CA0
 10
-0.616410
 20
7.28433
 30
0.000000
  70
    32
  0
VERTEX
  8
241
  5
1CA1
 10
-0.732785
 20
7.21866
 30
0.000000
  70
    32
  0
VERTEX
  8
241
  5
1CA2
 10
-0.849089
 20
7.15299
 30
0.000000
  70
    32
  0
VERTEX
  8
241
  5
1CA3
 10
-0.965288
 20
7.08734
 30
0.000000
  70
    32
  0
VERTEX
  8
241
  5
1CA4
 10
-1.08134
 20
7.02170
 30
0.000000
  70
    32
  0
VERTEX
  8
241
  5
1CA5
 10
-1.19723
 20
6.95608
 30
0.000000
  70
    32
  0
VERTEX
  8
241
  5
1CA6
 10
-1.31289
 20
6.89048
 30
0.000000
  70
    32
  0
VERTEX
  8
241
  5
1CA7
 10
-1.42832
 20
6.82491
 30
0.000000
  70
    32
  0
VERTEX
  8
241
  5
1CA8
 10
-1.54346
 20
6.75937
 30
0.000000
  70
    32
  0
VERTEX
  8
241
  5
1CA9
 10
-1.65828
 20
6.69385
 30
0.000000
  70
    32
  0
VERTEX
  8
241
  5
1CAA
 10
-1.77275
 20
6.62838
 30
0.000000
  70
    32
  0
VERTEX
  8
241
  5
1CAB
 10
-1.88683
 20
6.56294
 30
0.000000
  70
    32
  0
VERTEX
  8
241
  5
1CAC
 10
-2.00049
 20
6.49755
 30
0.000000
  70
    32
  0
VERTEX
  8
241
  5
1CAD
 10
-2.11369
 20
6.43220
 30
0.000000
  70
    32
  0
VERTEX
  8
241
  5
1CAE
 10
-2.22639
 20
6.36691
 30
0.000000
  70
    32
  0
VERTEX
  8
241
  5
1CAF
 10
-2.33857
 20
6.30166
 30
0.000000
  70
    32
  0
VERTEX
  8
241
  5
1CB0
 10
-2.45018
 20
6.23648
 30
0.000000
  70
    32
  0
VERTEX
  8
241
  5
1CB1
 10
-2.56119
 20
6.17136
 30
0.000000
  70
    32
  0
VERTEX
  8
241
  5
1CB2
 10
-2.67157
 20
6.10630
 30
0.000000
  70
    32
  0
VERTEX
  8
241
  5
1CB3
 10
-2.78127
 20
6.04131
 30
0.000000
  70
    32
  0
VERTEX
  8
241
  5
1CB4
 10
-2.89027
 20
5.97639
 30
0.000000
  70
    32
  0
VERTEX
  8
241
  5
1CB5
 10
-2.99853
 20
5.91155
 30
0.000000
  70
    32
  0
VERTEX
  8
241
  5
1CB6
 10
-3.10601
 20
5.84678
 30
0.000000
  70
    32
  0
VERTEX
  8
241
  5
1CB7
 10
-3.21269
 20
5.78210
 30
0.000000
  70
    32
  0
VERTEX
  8
241
  5
1CB8
 10
-3.31851
 20
5.71751
 30
0.000000
  70
    32
  0
VERTEX
  8
241
  5
1CB9
 10
-3.42345
 20
5.65300
 30
0.000000
  70
    32
  0
VERTEX
  8
241
  5
1CBA
 10
-3.52748
 20
5.58859
 30
0.000000
  70
    32
  0
VERTEX
  8
241
  5
1CBB
 10
-3.63055
 20
5.52428
 30
0.000000
  70
    32
  0
VERTEX
  8
241
  5
1CBC
 10
-3.73263
 20
5.46006
 30
0.000000
  70
    32
  0
VERTEX
  8
241
  5
1CBD
 10
-3.83369
 20
5.39595
 30
0.000000
  70
    32
  0
VERTEX
  8
241
  5
1CBE
 10
-3.93370
 20
5.33195
 30
0.000000
  70
    32
  0
VERTEX
  8
241
  5
1CBF
 10
-4.03260
 20
5.26806
 30
0.000000
  70
    32
  0
VERTEX
  8
241
  5
1CC0
 10
-4.13038
 20
5.20429
 30
0.000000
  70
    32
  0
VERTEX
  8
241
  5
1CC1
 10
-4.22700
 20
5.14063
 30
0.000000
  70
    32
  0
VERTEX
  8
241
  5
1CC2
 10
-4.32241
 20
5.07710
 30
0.000000
  70
    32
  0
VERTEX
  8
241
  5
1CC3
 10
-4.41659
 20
5.01369
 30
0.000000
  70
    32
  0
VERTEX
  8
241
  5
1CC4
 10
-4.50950
 20
4.95041
 30
0.000000
  70
    32
  0
VERTEX
  8
241
  5
1CC5
 10
-4.60111
 20
4.88727
 30
0.000000
  70
    32
  0
VERTEX
  8
241
  5
1CC6
 10
-4.69137
 20
4.82426
 30
0.000000
  70
    32
  0
VERTEX
  8
241
  5
1CC7
 10
-4.78026
 20
4.76139
 30
0.000000
  70
    32
  0
VERTEX
  8
241
  5
1CC8
 10
-4.86773
 20
4.69867
 30
0.000000
  70
    32
  0
VERTEX
  8
241
  5
1CC9
 10
-4.95376
 20
4.63609
 30
0.000000
  70
    32
  0
VERTEX
  8
241
  5
1CCA
 10
-5.03831
 20
4.57367
 30
0.000000
  70
    32
  0
VERTEX
  8
241
  5
1CCB
 10
-5.12134
 20
4.51140
 30
0.000000
  70
    32
  0
VERTEX
  8
241
  5
1CCC
 10
-5.20282
 20
4.44929
 30
0.000000
  70
    32
  0
VERTEX
  8
241
  5
1CCD
 10
-5.28271
 20
4.38733
 30
0.000000
  70
    32
  0
VERTEX
  8
241
  5
1CCE
 10
-5.36097
 20
4.32555
 30
0.000000
  70
    32
  0
VERTEX
  8
241
  5
1CCF
 10
-5.43758
 20
4.26393
 30
0.000000
  70
    32
  0
VERTEX
  8
241
  5
1CD0
 10
-5.51249
 20
4.20249
 30
0.000000
  70
    32
  0
VERTEX
  8
241
  5
1CD1
 10
-5.58568
 20
4.14122
 30
0.000000
  70
    32
  0
VERTEX
  8
241
  5
1CD2
 10
-5.65710
 20
4.08014
 30
0.000000
  70
    32
  0
VERTEX
  8
241
  5
1CD3
 10
-5.72672
 20
4.01923
 30
0.000000
  70
    32
  0
VERTEX
  8
241
  5
1CD4
 10
-5.79451
 20
3.95852
 30
0.000000
  70
    32
  0
VERTEX
  8
241
  5
1CD5
 10
-5.86042
 20
3.89799
 30
0.000000
  70
    32
  0
VERTEX
  8
241
  5
1CD6
 10
-5.92443
 20
3.83766
 30
0.000000
  70
    32
  0
VERTEX
  8
241
  5
1CD7
 10
-5.98650
 20
3.77752
 30
0.000000
  70
    32
  0
VERTEX
  8
241
  5
1CD8
 10
-6.04660
 20
3.71759
 30
0.000000
  70
    32
  0
VERTEX
  8
241
  5
1CD9
 10
-6.10468
 20
3.65787
 30
0.000000
  70
    32
  0
VERTEX
  8
241
  5
1CDA
 10
-6.16071
 20
3.59835
 30
0.000000
  70
    32
  0
VERTEX
  8
241
  5
1CDB
 10
-6.21467
 20
3.53904
 30
0.000000
  70
    32
  0
VERTEX
  8
241
  5
1CDC
 10
-6.26650
 20
3.47995
 30
0.000000
  70
    32
  0
VERTEX
  8
241
  5
1CDD
 10
-6.31619
 20
3.42108
 30
0.000000
  70
    32
  0
VERTEX
  8
241
  5
1CDE
 10
-6.36369
 20
3.36243
 30
0.000000
  70
    32
  0
VERTEX
  8
241
  5
1CDF
 10
-6.40896
 20
3.30401
 30
0.000000
  70
    32
  0
VERTEX
  8
241
  5
1CE0
 10
-6.45198
 20
3.24582
 30
0.000000
  70
    32
  0
VERTEX
  8
241
  5
1CE1
 10
-6.49270
 20
3.18786
 30
0.000000
  70
    32
  0
VERTEX
  8
241
  5
1CE2
 10
-6.53109
 20
3.13014
 30
0.000000
  70
    32
  0
VERTEX
  8
241
  5
1CE3
 10
-6.56712
 20
3.07266
 30
0.000000
  70
    32
  0
VERTEX
  8
241
  5
1CE4
 10
-6.60075
 20
3.01543
 30
0.000000
  70
    32
  0
VERTEX
  8
241
  5
1CE5
 10
-6.63194
 20
2.95844
 30
0.000000
  70
    32
  0
VERTEX
  8
241
  5
1CE6
 10
-6.66067
 20
2.90171
 30
0.000000
  70
    32
  0
VERTEX
  8
241
  5
1CE7
 10
-6.68689
 20
2.84523
 30
0.000000
  70
    32
  0
VERTEX
  8
241
  5
1CE8
 10
-6.71057
 20
2.78901
 30
0.000000
  70
    32
  0
VERTEX
  8
241
  5
1CE9
 10
-6.73167
 20
2.73305
 30
0.000000
  70
    32
  0
VERTEX
  8
241
  5
1CEA
 10
-6.75016
 20
2.67736
 30
0.000000
  70
    32
  0
VERTEX
  8
241
  5
1CEB
 10
-6.76601
 20
2.62194
 30
0.000000
  70
    32
  0
VERTEX
  8
241
  5
1CEC
 10
-6.77917
 20
2.56679
 30
0.000000
  70
    32
  0
VERTEX
  8
241
  5
1CED
 10
-6.78962
 20
2.51192
 30
0.000000
  70
    32
  0
VERTEX
  8
241
  5
1CEE
 10
-6.79731
 20
2.45733
 30
0.000000
  70
    32
  0
VERTEX
  8
241
  5
1CEF
 10
-6.80222
 20
2.40303
 30
0.000000
  70
    32
  0
VERTEX
  8
241
  5
1CF0
 10
-6.80430
 20
2.34901
 30
0.000000
  70
    32
  0
VERTEX
  8
241
  5
1CF1
 10
-6.80353
 20
2.29528
 30
0.000000
  70
    32
  0
VERTEX
  8
241
  5
1CF2
 10
-6.79986
 20
2.24185
 30
0.000000
  70
    32
  0
VERTEX
  8
241
  5
1CF3
 10
-6.79326
 20
2.18872
 30
0.000000
  70
    32
  0
VERTEX
  8
241
  5
1CF4
 10
-6.78370
 20
2.13589
 30
0.000000
  70
    32
  0
VERTEX
  8
241
  5
1CF5
 10
-6.77116
 20
2.08336
 30
0.000000
  70
    32
  0
VERTEX
  8
241
  5
1CF6
 10
-6.75566
 20
2.03113
 30
0.000000
  70
    32
  0
VERTEX
  8
241
  5
1CF7
 10
-6.73725
 20
1.97921
 30
0.000000
  70
    32
  0
VERTEX
  8
241
  5
1CF8
 10
-6.71596
 20
1.92757
 30
0.000000
  70
    32
  0
VERTEX
  8
241
  5
1CF9
 10
-6.69184
 20
1.87622
 30
0.000000
  70
    32
  0
VERTEX
  8
241
  5
1CFA
 10
-6.66493
 20
1.82516
 30
0.000000
  70
    32
  0
VERTEX
  8
241
  5
1CFB
 10
-6.63527
 20
1.77438
 30
0.000000
  70
    32
  0
VERTEX
  8
241
  5
1CFC
 10
-6.60290
 20
1.72387
 30
0.000000
  70
    32
  0
VERTEX
  8
241
  5
1CFD
 10
-6.56786
 20
1.67364
 30
0.000000
  70
    32
  0
VERTEX
  8
241
  5
1CFE
 10
-6.53018
 20
1.62368
 30
0.000000
  70
    32
  0
VERTEX
  8
241
  5
1CFF
 10
-6.48992
 20
1.57398
 30
0.000000
  70
    32
  0
VERTEX
  8
241
  5
1D00
 10
-6.44711
 20
1.52454
 30
0.000000
  70
    32
  0
VERTEX
  8
241
  5
1D01
 10
-6.40179
 20
1.47535
 30
0.000000
  70
    32
  0
VERTEX
  8
241
  5
1D02
 10
-6.35400
 20
1.42642
 30
0.000000
  70
    32
  0
VERTEX
  8
241
  5
1D03
 10
-6.30378
 20
1.37773
 30
0.000000
  70
    32
  0
VERTEX
  8
241
  5
1D04
 10
-6.25118
 20
1.32929
 30
0.000000
  70
    32
  0
VERTEX
  8
241
  5
1D05
 10
-6.19623
 20
1.28109
 30
0.000000
  70
    32
  0
VERTEX
  8
241
  5
1D06
 10
-6.13897
 20
1.23312
 30
0.000000
  70
    32
  0
VERTEX
  8
241
  5
1D07
 10
-6.07945
 20
1.18538
 30
0.000000
  70
    32
  0
VERTEX
  8
241
  5
1D08
 10
-6.01770
 20
1.13787
 30
0.000000
  70
    32
  0
VERTEX
  8
241
  5
1D09
 10
-5.95376
 20
1.09058
 30
0.000000
  70
    32
  0
VERTEX
  8
241
  5
1D0A
 10
-5.88769
 20
1.04351
 30
0.000000
  70
    32
  0
VERTEX
  8
241
  5
1D0B
 10
-5.81950
 20
0.996660
 30
0.000000
  70
    32
  0
VERTEX
  8
241
  5
1D0C
 10
-5.74926
 20
0.950016
 30
0.000000
  70
    32
  0
VERTEX
  8
241
  5
1D0D
 10
-5.67699
 20
0.903579
 30
0.000000
  70
    32
  0
VERTEX
  8
241
  5
1D0E
 10
-5.60273
 20
0.857343
 30
0.000000
  70
    32
  0
VERTEX
  8
241
  5
1D0F
 10
-5.52654
 20
0.811306
 30
0.000000
  70
    32
  0
VERTEX
  8
241
  5
1D10
 10
-5.44844
 20
0.765463
 30
0.000000
  70
    32
  0
VERTEX
  8
241
  5
1D11
 10
-5.36848
 20
0.719809
 30
0.000000
  70
    32
  0
VERTEX
  8
241
  5
1D12
 10
-5.28670
 20
0.674341
 30
0.000000
  70
    32
  0
VERTEX
  8
241
  5
1D13
 10
-5.20315
 20
0.629054
 30
0.000000
  70
    32
  0
VERTEX
  8
241
  5
1D14
 10
-5.11785
 20
0.583945
 30
0.000000
  70
    32
  0
VERTEX
  8
241
  5
1D15
 10
-5.03085
 20
0.539009
 30
0.000000
  70
    32
  0
VERTEX
  8
241
  5
1D16
 10
-4.94219
 20
0.494243
 30
0.000000
  70
    32
  0
VERTEX
  8
241
  5
1D17
 10
-4.85191
 20
0.449641
 30
0.000000
  70
    32
  0
VERTEX
  8
241
  5
1D18
 10
-4.76006
 20
0.405200
 30
0.000000
  70
    32
  0
VERTEX
  8
241
  5
1D19
 10
-4.66667
 20
0.360916
 30
0.000000
  70
    32
  0
VERTEX
  8
241
  5
1D1A
 10
-4.57178
 20
0.316785
 30
0.000000
  70
    32
  0
VERTEX
  8
241
  5
1D1B
 10
-4.47543
 20
0.272802
 30
0.000000
  70
    32
  0
VERTEX
  8
241
  5
1D1C
 10
-4.37767
 20
0.228963
 30
0.000000
  70
    32
  0
VERTEX
  8
241
  5
1D1D
 10
-4.27853
 20
0.185265
 30
0.000000
  70
    32
  0
VERTEX
  8
241
  5
1D1E
 10
-4.17806
 20
0.141703
 30
0.000000
  70
    32
  0
VERTEX
  8
241
  5
1D1F
 10
-4.07629
 20
0.0982727
 30
0.000000
  70
    32
  0
VERTEX
  8
241
  5
1D20
 10
-3.97327
 20
0.0549705
 30
0.000000
  70
    32
  0
VERTEX
  8
241
  5
1D21
 10
-3.86903
 20
0.0117921
 30
0.000000
  70
    32
  0
VERTEX
  8
241
  5
1D22
 10
-3.76362
 20
-0.0312667
 30
0.000000
  70
    32
  0
VERTEX
  8
241
  5
1D23
 10
-3.65708
 20
-0.0742100
 30
0.000000
  70
    32
  0
VERTEX
  8
241
  5
1D24
 10
-3.54944
 20
-0.117042
 30
0.000000
  70
    32
  0
VERTEX
  8
241
  5
1D25
 10
-3.44075
 20
-0.159767
 30
0.000000
  70
    32
  0
VERTEX
  8
241
  5
1D26
 10
-3.33106
 20
-0.202388
 30
0.000000
  70
    32
  0
VERTEX
  8
241
  5
1D27
 10
-3.22038
 20
-0.244911
 30
0.000000
  70
    32
  0
VERTEX
  8
241
  5
1D28
 10
-3.10878
 20
-0.287338
 30
0.000000
  70
    32
  0
VERTEX
  8
241
  5
1D29
 10
-2.99629
 20
-0.329675
 30
0.000000
  70
    32
  0
VERTEX
  8
241
  5
1D2A
 10
-2.88295
 20
-0.371925
 30
0.000000
  70
    32
  0
VERTEX
  8
241
  5
1D2B
 10
-2.76880
 20
-0.414093
 30
0.000000
  70
    32
  0
VERTEX
  8
241
  5
1D2C
 10
-2.65388
 20
-0.456182
 30
0.000000
  70
    32
  0
VERTEX
  8
241
  5
1D2D
 10
-2.53823
 20
-0.498197
 30
0.000000
  70
    32
  0
VERTEX
  8
241
  5
1D2E
 10
-2.42190
 20
-0.540142
 30
0.000000
  70
    32
  0
VERTEX
  8
241
  5
1D2F
 10
-2.30492
 20
-0.582021
 30
0.000000
  70
    32
  0
VERTEX
  8
241
  5
1D30
 10
-2.18733
 20
-0.623838
 30
0.000000
  70
    32
  0
VERTEX
  8
241
  5
1D31
 10
-2.06917
 20
-0.665598
 30
0.000000
  70
    32
  0
VERTEX
  8
241
  5
1D32
 10
-1.95049
 20
-0.707303
 30
0.000000
  70
    32
  0
VERTEX
  8
241
  5
1D33
 10
-1.83132
 20
-0.748959
 30
0.000000
  70
    32
  0
VERTEX
  8
241
  5
1D34
 10
-1.71171
 20
-0.790570
 30
0.000000
  70
    32
  0
VERTEX
  8
241
  5
1D35
 10
-1.59169
 20
-0.832140
 30
0.000000
  70
    32
  0
VERTEX
  8
241
  5
1D36
 10
-1.47131
 20
-0.873672
 30
0.000000
  70
    32
  0
VERTEX
  8
241
  5
1D37
 10
-1.35060
 20
-0.915171
 30
0.000000
  70
    32
  0
VERTEX
  8
241
  5
1D38
 10
-1.22961
 20
-0.956642
 30
0.000000
  70
    32
  0
VERTEX
  8
241
  5
1D39
 10
-1.10838
 20
-0.998088
 30
0.000000
  70
    32
  0
VERTEX
  8
241
  5
1D3A
 10
-0.986949
 20
-1.03951
 30
0.000000
  70
    32
  0
VERTEX
  8
241
  5
1D3B
 10
-0.865353
 20
-1.08092
 30
0.000000
  70
    32
  0
VERTEX
  8
241
  5
1D3C
 10
-0.743636
 20
-1.12232
 30
0.000000
  70
    32
  0
VERTEX
  8
241
  5
1D3D
 10
-0.621838
 20
-1.16371
 30
0.000000
  70
    32
  0
VERTEX
  8
241
  5
1D3E
 10
-0.500000
 20
-1.20509
 30
0.000000
  70
    32
  0
SEQEND
  8
241
  5
1D3F
  0
LINE
  5
1851
  8
243
 10
0.2500000000002274
 20
6.2523755933164287
 30
0.0
 11
0.2500000000002274
 21
1.499999999999857
 31
0.0
  0
LINE
  5
1852
  8
243
 10
2.7499999999999432
 20
6.1891252930766711
 30
0.0
 11
2.7499999999999432
 21
-1.499999999999998
 31
0.0
  0
POLYLINE
  5
1853
  8
241
 10
0.2878100539871555
 20
6.2391058360142226
 30
0.0
 66
     1
 70
     8
  0
VERTEX
  8
241
  5
1D40
 10
0.287810
 20
6.23911
 30
0.000000
  70
    32
  0
VERTEX
  8
241
  5
1D41
 10
0.294343
 20
6.17077
 30
0.000000
  70
    32
  0
VERTEX
  8
241
  5
1D42
 10
0.301387
 20
6.10282
 30
0.000000
  70
    32
  0
VERTEX
  8
241
  5
1D43
 10
0.308938
 20
6.03528
 30
0.000000
  70
    32
  0
VERTEX
  8
241
  5
1D44
 10
0.316993
 20
5.96818
 30
0.000000
  70
    32
  0
VERTEX
  8
241
  5
1D45
 10
0.325549
 20
5.90155
 30
0.000000
  70
    32
  0
VERTEX
  8
241
  5
1D46
 10
0.334602
 20
5.83541
 30
0.000000
  70
    32
  0
VERTEX
  8
241
  5
1D47
 10
0.344148
 20
5.76981
 30
0.000000
  70
    32
  0
VERTEX
  8
241
  5
1D48
 10
0.354183
 20
5.70476
 30
0.000000
  70
    32
  0
VERTEX
  8
241
  5
1D49
 10
0.364703
 20
5.64028
 30
0.000000
  70
    32
  0
VERTEX
  8
241
  5
1D4A
 10
0.375704
 20
5.57642
 30
0.000000
  70
    32
  0
VERTEX
  8
241
  5
1D4B
 10
0.387181
 20
5.51319
 30
0.000000
  70
    32
  0
VERTEX
  8
241
  5
1D4C
 10
0.399128
 20
5.45062
 30
0.000000
  70
    32
  0
VERTEX
  8
241
  5
1D4D
 10
0.411542
 20
5.38875
 30
0.000000
  70
    32
  0
VERTEX
  8
241
  5
1D4E
 10
0.424416
 20
5.32758
 30
0.000000
  70
    32
  0
VERTEX
  8
241
  5
1D4F
 10
0.437746
 20
5.26716
 30
0.000000
  70
    32
  0
VERTEX
  8
241
  5
1D50
 10
0.451525
 20
5.20750
 30
0.000000
  70
    32
  0
VERTEX
  8
241
  5
1D51
 10
0.465748
 20
5.14864
 30
0.000000
  70
    32
  0
VERTEX
  8
241
  5
1D52
 10
0.480408
 20
5.09059
 30
0.000000
  70
    32
  0
VERTEX
  8
241
  5
1D53
 10
0.495500
 20
5.03338
 30
0.000000
  70
    32
  0
VERTEX
  8
241
  5
1D54
 10
0.511018
 20
4.97704
 30
0.000000
  70
    32
  0
VERTEX
  8
241
  5
1D55
 10
0.526954
 20
4.92159
 30
0.000000
  70
    32
  0
VERTEX
  8
241
  5
1D56
 10
0.543301
 20
4.86705
 30
0.000000
  70
    32
  0
VERTEX
  8
241
  5
1D57
 10
0.560054
 20
4.81344
 30
0.000000
  70
    32
  0
VERTEX
  8
241
  5
1D58
 10
0.577204
 20
4.76079
 30
0.000000
  70
    32
  0
VERTEX
  8
241
  5
1D59
 10
0.594746
 20
4.70913
 30
0.000000
  70
    32
  0
VERTEX
  8
241
  5
1D5A
 10
0.612670
 20
4.65846
 30
0.000000
  70
    32
  0
VERTEX
  8
241
  5
1D5B
 10
0.630969
 20
4.60882
 30
0.000000
  70
    32
  0
VERTEX
  8
241
  5
1D5C
 10
0.649637
 20
4.56022
 30
0.000000
  70
    32
  0
VERTEX
  8
241
  5
1D5D
 10
0.668665
 20
4.51269
 30
0.000000
  70
    32
  0
VERTEX
  8
241
  5
1D5E
 10
0.688044
 20
4.46625
 30
0.000000
  70
    32
  0
VERTEX
  8
241
  5
1D5F
 10
0.707767
 20
4.42091
 30
0.000000
  70
    32
  0
VERTEX
  8
241
  5
1D60
 10
0.727825
 20
4.37669
 30
0.000000
  70
    32
  0
VERTEX
  8
241
  5
1D61
 10
0.748210
 20
4.33362
 30
0.000000
  70
    32
  0
VERTEX
  8
241
  5
1D62
 10
0.768914
 20
4.29171
 30
0.000000
  70
    32
  0
VERTEX
  8
241
  5
1D63
 10
0.789926
 20
4.25098
 30
0.000000
  70
    32
  0
VERTEX
  8
241
  5
1D64
 10
0.811240
 20
4.21144
 30
0.000000
  70
    32
  0
VERTEX
  8
241
  5
1D65
 10
0.832845
 20
4.17312
 30
0.000000
  70
    32
  0
VERTEX
  8
241
  5
1D66
 10
0.854732
 20
4.13603
 30
0.000000
  70
    32
  0
VERTEX
  8
241
  5
1D67
 10
0.876892
 20
4.10018
 30
0.000000
  70
    32
  0
VERTEX
  8
241
  5
1D68
 10
0.899316
 20
4.06559
 30
0.000000
  70
    32
  0
VERTEX
  8
241
  5
1D69
 10
0.921994
 20
4.03227
 30
0.000000
  70
    32
  0
VERTEX
  8
241
  5
1D6A
 10
0.944917
 20
4.00025
 30
0.000000
  70
    32
  0
VERTEX
  8
241
  5
1D6B
 10
0.968075
 20
3.96953
 30
0.000000
  70
    32
  0
VERTEX
  8
241
  5
1D6C
 10
0.991458
 20
3.94012
 30
0.000000
  70
    32
  0
VERTEX
  8
241
  5
1D6D
 10
1.01506
 20
3.91204
 30
0.000000
  70
    32
  0
VERTEX
  8
241
  5
1D6E
 10
1.03886
 20
3.88530
 30
0.000000
  70
    32
  0
VERTEX
  8
241
  5
1D6F
 10
1.06286
 20
3.85991
 30
0.000000
  70
    32
  0
VERTEX
  8
241
  5
1D70
 10
1.08704
 20
3.83589
 30
0.000000
  70
    32
  0
VERTEX
  8
241
  5
1D71
 10
1.11140
 20
3.81323
 30
0.000000
  70
    32
  0
VERTEX
  8
241
  5
1D72
 10
1.13592
 20
3.79196
 30
0.000000
  70
    32
  0
VERTEX
  8
241
  5
1D73
 10
1.16060
 20
3.77208
 30
0.000000
  70
    32
  0
VERTEX
  8
241
  5
1D74
 10
1.18542
 20
3.75359
 30
0.000000
  70
    32
  0
VERTEX
  8
241
  5
1D75
 10
1.21037
 20
3.73652
 30
0.000000
  70
    32
  0
VERTEX
  8
241
  5
1D76
 10
1.23545
 20
3.72085
 30
0.000000
  70
    32
  0
VERTEX
  8
241
  5
1D77
 10
1.26064
 20
3.70661
 30
0.000000
  70
    32
  0
VERTEX
  8
241
  5
1D78
 10
1.28593
 20
3.69379
 30
0.000000
  70
    32
  0
VERTEX
  8
241
  5
1D79
 10
1.31131
 20
3.68241
 30
0.000000
  70
    32
  0
VERTEX
  8
241
  5
1D7A
 10
1.33677
 20
3.67246
 30
0.000000
  70
    32
  0
VERTEX
  8
241
  5
1D7B
 10
1.36230
 20
3.66396
 30
0.000000
  70
    32
  0
VERTEX
  8
241
  5
1D7C
 10
1.38789
 20
3.65690
 30
0.000000
  70
    32
  0
VERTEX
  8
241
  5
1D7D
 10
1.41352
 20
3.65129
 30
0.000000
  70
    32
  0
VERTEX
  8
241
  5
1D7E
 10
1.43919
 20
3.64712
 30
0.000000
  70
    32
  0
VERTEX
  8
241
  5
1D7F
 10
1.46489
 20
3.64441
 30
0.000000
  70
    32
  0
VERTEX
  8
241
  5
1D80
 10
1.49060
 20
3.64315
 30
0.000000
  70
    32
  0
VERTEX
  8
241
  5
1D81
 10
1.51632
 20
3.64335
 30
0.000000
  70
    32
  0
VERTEX
  8
241
  5
1D82
 10
1.54203
 20
3.64500
 30
0.000000
  70
    32
  0
VERTEX
  8
241
  5
1D83
 10
1.56772
 20
3.64810
 30
0.000000
  70
    32
  0
VERTEX
  8
241
  5
1D84
 10
1.59338
 20
3.65265
 30
0.000000
  70
    32
  0
VERTEX
  8
241
  5
1D85
 10
1.61901
 20
3.65866
 30
0.000000
  70
    32
  0
VERTEX
  8
241
  5
1D86
 10
1.64458
 20
3.66611
 30
0.000000
  70
    32
  0
VERTEX
  8
241
  5
1D87
 10
1.67009
 20
3.67500
 30
0.000000
  70
    32
  0
VERTEX
  8
241
  5
1D88
 10
1.69553
 20
3.68533
 30
0.000000
  70
    32
  0
VERTEX
  8
241
  5
1D89
 10
1.72089
 20
3.69710
 30
0.000000
  70
    32
  0
VERTEX
  8
241
  5
1D8A
 10
1.74615
 20
3.71030
 30
0.000000
  70
    32
  0
VERTEX
  8
241
  5
1D8B
 10
1.77131
 20
3.72493
 30
0.000000
  70
    32
  0
VERTEX
  8
241
  5
1D8C
 10
1.79635
 20
3.74097
 30
0.000000
  70
    32
  0
VERTEX
  8
241
  5
1D8D
 10
1.82127
 20
3.75843
 30
0.000000
  70
    32
  0
VERTEX
  8
241
  5
1D8E
 10
1.84606
 20
3.77729
 30
0.000000
  70
    32
  0
VERTEX
  8
241
  5
1D8F
 10
1.87069
 20
3.79755
 30
0.000000
  70
    32
  0
VERTEX
  8
241
  5
1D90
 10
1.89517
 20
3.81919
 30
0.000000
  70
    32
  0
VERTEX
  8
241
  5
1D91
 10
1.91948
 20
3.84222
 30
0.000000
  70
    32
  0
VERTEX
  8
241
  5
1D92
 10
1.94362
 20
3.86661
 30
0.000000
  70
    32
  0
VERTEX
  8
241
  5
1D93
 10
1.96757
 20
3.89237
 30
0.000000
  70
    32
  0
VERTEX
  8
241
  5
1D94
 10
1.99132
 20
3.91947
 30
0.000000
  70
    32
  0
VERTEX
  8
241
  5
1D95
 10
2.01486
 20
3.94791
 30
0.000000
  70
    32
  0
VERTEX
  8
241
  5
1D96
 10
2.03818
 20
3.97767
 30
0.000000
  70
    32
  0
VERTEX
  8
241
  5
1D97
 10
2.06128
 20
4.00874
 30
0.000000
  70
    32
  0
VERTEX
  8
241
  5
1D98
 10
2.08413
 20
4.04112
 30
0.000000
  70
    32
  0
VERTEX
  8
241
  5
1D99
 10
2.10674
 20
4.07477
 30
0.000000
  70
    32
  0
VERTEX
  8
241
  5
1D9A
 10
2.12910
 20
4.10970
 30
0.000000
  70
    32
  0
VERTEX
  8
241
  5
1D9B
 10
2.15119
 20
4.14589
 30
0.000000
  70
    32
  0
VERTEX
  8
241
  5
1D9C
 10
2.17300
 20
4.18331
 30
0.000000
  70
    32
  0
VERTEX
  8
241
  5
1D9D
 10
2.19453
 20
4.22196
 30
0.000000
  70
    32
  0
VERTEX
  8
241
  5
1D9E
 10
2.21576
 20
4.26182
 30
0.000000
  70
    32
  0
VERTEX
  8
241
  5
1D9F
 10
2.23669
 20
4.30288
 30
0.000000
  70
    32
  0
VERTEX
  8
241
  5
1DA0
 10
2.25731
 20
4.34510
 30
0.000000
  70
    32
  0
VERTEX
  8
241
  5
1DA1
 10
2.27761
 20
4.38848
 30
0.000000
  70
    32
  0
VERTEX
  8
241
  5
1DA2
 10
2.29757
 20
4.43300
 30
0.000000
  70
    32
  0
VERTEX
  8
241
  5
1DA3
 10
2.31721
 20
4.47864
 30
0.000000
  70
    32
  0
VERTEX
  8
241
  5
1DA4
 10
2.33649
 20
4.52538
 30
0.000000
  70
    32
  0
VERTEX
  8
241
  5
1DA5
 10
2.35542
 20
4.57320
 30
0.000000
  70
    32
  0
VERTEX
  8
241
  5
1DA6
 10
2.37399
 20
4.62208
 30
0.000000
  70
    32
  0
VERTEX
  8
241
  5
1DA7
 10
2.39219
 20
4.67200
 30
0.000000
  70
    32
  0
VERTEX
  8
241
  5
1DA8
 10
2.41001
 20
4.72293
 30
0.000000
  70
    32
  0
VERTEX
  8
241
  5
1DA9
 10
2.42745
 20
4.77487
 30
0.000000
  70
    32
  0
VERTEX
  8
241
  5
1DAA
 10
2.44449
 20
4.82777
 30
0.000000
  70
    32
  0
VERTEX
  8
241
  5
1DAB
 10
2.46114
 20
4.88163
 30
0.000000
  70
    32
  0
VERTEX
  8
241
  5
1DAC
 10
2.47738
 20
4.93642
 30
0.000000
  70
    32
  0
VERTEX
  8
241
  5
1DAD
 10
2.49320
 20
4.99212
 30
0.000000
  70
    32
  0
VERTEX
  8
241
  5
1DAE
 10
2.50860
 20
5.04870
 30
0.000000
  70
    32
  0
VERTEX
  8
241
  5
1DAF
 10
2.52358
 20
5.10613
 30
0.000000
  70
    32
  0
VERTEX
  8
241
  5
1DB0
 10
2.53812
 20
5.16440
 30
0.000000
  70
    32
  0
VERTEX
  8
241
  5
1DB1
 10
2.55223
 20
5.22348
 30
0.000000
  70
    32
  0
VERTEX
  8
241
  5
1DB2
 10
2.56589
 20
5.28335
 30
0.000000
  70
    32
  0
VERTEX
  8
241
  5
1DB3
 10
2.57909
 20
5.34397
 30
0.000000
  70
    32
  0
VERTEX
  8
241
  5
1DB4
 10
2.59184
 20
5.40533
 30
0.000000
  70
    32
  0
VERTEX
  8
241
  5
1DB5
 10
2.60413
 20
5.46740
 30
0.000000
  70
    32
  0
VERTEX
  8
241
  5
1DB6
 10
2.61595
 20
5.53014
 30
0.000000
  70
    32
  0
VERTEX
  8
241
  5
1DB7
 10
2.62730
 20
5.59355
 30
0.000000
  70
    32
  0
VERTEX
  8
241
  5
1DB8
 10
2.63818
 20
5.65758
 30
0.000000
  70
    32
  0
VERTEX
  8
241
  5
1DB9
 10
2.64857
 20
5.72221
 30
0.000000
  70
    32
  0
VERTEX
  8
241
  5
1DBA
 10
2.65847
 20
5.78741
 30
0.000000
  70
    32
  0
VERTEX
  8
241
  5
1DBB
 10
2.66788
 20
5.85316
 30
0.000000
  70
    32
  0
VERTEX
  8
241
  5
1DBC
 10
2.67680
 20
5.91943
 30
0.000000
  70
    32
  0
VERTEX
  8
241
  5
1DBD
 10
2.68522
 20
5.98619
 30
0.000000
  70
    32
  0
VERTEX
  8
241
  5
1DBE
 10
2.69314
 20
6.05341
 30
0.000000
  70
    32
  0
VERTEX
  8
241
  5
1DBF
 10
2.70056
 20
6.12107
 30
0.000000
  70
    32
  0
VERTEX
  8
241
  5
1DC0
 10
2.70747
 20
6.18913
 30
0.000000
  70
    32
  0
SEQEND
  8
241
  5
1DC1
  0
LINE
  5
1854
  8
245
 10
1.5000000000001701
 20
0.9380278245619138
 30
0.0
 11
1.5000000000001701
 21
6.9042662789620399
 31
0.0
  0
LINE
  5
1855
  8
240
 10
9.9999999999996305
 20
-2.9000000000000048
 30
0.0
 11
9.6999999999996191
 21
-3.1999999999999882
 31
0.0
  0
LINE
  5
1856
  8
240
 10
9.6999999999998732
 20
11.4
 30
0.0
 11
4.9732050807569141
 21
11.4
 31
0.0
  0
LINE
  5
1857
  8
240
 10
9.6999999999998732
 20
11.4
 30
0.0
 11
9.9999999999999432
 21
11.099999999999991
 31
0.0
  0
LINE
  5
1858
  8
245
 10
-0.2000000000001307
 20
9.0000000000002451
 30
0.0
 11
5.1999999999998741
 21
9.0000000000002451
 31
0.0
  0
LINE
  5
1859
  8
241
 10
3.2999999999998968
 20
6.1891252930766711
 30
0.0
 11
1.7000000000001021
 21
6.1891252930766711
 31
0.0
  0
LINE
  5
185A
  8
241
 10
4.7999999999998977
 20
6.5000000000000906
 30
0.0
 11
0.1999999999998749
 21
6.5000000000000906
 31
0.0
  0
CIRCLE
  5
185B
  8
242
 10
2.4999999999998721
 20
9.0000000000002451
 30
0.0
 40
1.0
  0
LINE
  5
185C
  8
240
 10
4.7999999999998968
 20
11.499999999999959
 30
0.0
 11
0.1999999999998749
 21
11.50000000000021
 31
0.0
  0
LINE
  5
185D
  8
241
 10
-0.0000000000001705
 20
6.7000000000000908
 30
0.0
 11
-0.0000000000001523
 21
7.43775010008014
 31
0.0
  0
LINE
  5
185E
  8
240
 10
-0.0000000000001523
 20
7.43775010008014
 30
0.0
 11
-0.0000000000000568
 21
11.300000000000219
 31
0.0
  0
LINE
  5
185F
  8
245
 10
2.5
 20
11.70000000000023
 30
0.0
 11
2.5
 21
6.3000000000002556
 31
0.0
  0
ARC
  5
1860
  8
241
 10
0.5999999999998522
 20
7.1891252930763008
 30
0.0
 40
1.0
 50
170.74232902698569
 51
296.86479600378152
  0
ARC
  5
1861
  8
241
 10
1.7000000000001021
 20
8.1891252930766711
 30
0.0
 40
2.0
 50
251.09158479933629
 51
270.0
  0
ARC
  5
1862
  8
241
 10
0.1999999999998749
 20
6.7000000000000908
 30
0.0
 40
0.2
 50
180.0
 51
270.0
  0
ARC
  5
1863
  8
240
 10
0.1999999999998749
 20
11.300000000000219
 30
0.0
 40
0.2
 50
89.999999999996746
 51
180.0
  0
LINE
  5
1864
  8
241
 10
4.9999999999991473
 20
6.7000000000000908
 30
0.0
 11
4.9999999999994031
 21
11.4
 31
0.0
  0
LINE
  5
1865
  8
241
 10
5.2999999999998968
 20
8.1891252930767848
 30
0.0
 11
5.2999999999991303
 21
11.401633115356979
 31
0.0
  0
ARC
  5
1866
  8
241
 10
3.2999999999998968
 20
8.1891252930766711
 30
0.0
 40
2.0
 50
270.0
 51
302.37489268918341
  0
ARC
  5
1867
  8
241
 10
3.2999999999998968
 20
8.1891252930766711
 30
0.0
 40
2.0
 50
328.21166938290759
 51
0.0000000000032569
  0
ARC
  5
1868
  8
241
 10
4.7999999999998968
 20
6.7000000000000908
 30
0.0
 40
0.2
 50
270.00000000000023
 51
0.0
  0
ARC
  5
1869
  8
241
 10
4.7999999999998968
 20
11.300000000000219
 30
0.0
 40
0.2
 50
0.0
 51
29.999999999929699
  0
ARC
  5
186A
  8
240
 10
4.7999999999998968
 20
11.300000000000219
 30
0.0
 40
0.2
 50
29.999999999929699
 51
90.0
  0
ARC
  5
186B
  8
240
 10
-0.2500000000002274
 20
7.75
 30
0.0
 40
0.4
 50
270.0
 51
308.6821874535031
  0
ARC
  5
186C
  8
240
 10
-56.414213562372652
 20
9.0000000000000284
 30
0.0
 40
1.0
 50
45.000000000011511
 51
90.0
  0
ARC
  5
186D
  8
240
 10
-56.414213562372908
 20
-8.9999999999999716
 30
0.0
 40
1.0
 50
270.0
 51
315.00000000002188
  0
LINE
  5
186E
  8
247
 10
-111.9992192046514
 20
8.1519634243029273
 30
0.0
 11
-111.9992192046514
 21
8.1519634243029273
 31
0.0
1001
HATCH_DISTANCE
1040
1.0
1001
HATCH_DISPLAY
1070
     0
1001
HATCH_TYPE
1070
     7
  0
LINE
  5
186F
  8
247
 10
-112.0905087249151
 20
8.4414646144884724
 30
0.0
 11
-111.9992192046514
 21
8.1519634243029273
 31
0.0
1001
HATCH_DISTANCE
1040
1.0
1001
HATCH_DISPLAY
1070
     0
1001
HATCH_TYPE
1070
     7
  0
LINE
  5
1870
  8
247
 10
-112.0905087249151
 20
8.4414646144884724
 30
0.0
 11
-112.0905087249151
 21
8.4414646144884724
 31
0.0
1001
HATCH_DISTANCE
1040
1.0
1001
HATCH_DISPLAY
1070
     0
1001
HATCH_TYPE
1070
     7
  0
LINE
  5
1871
  8
247
 10
-111.9992192046514
 20
8.1519634243029273
 30
0.0
 11
-112.0905087249151
 21
8.4414646144884724
 31
0.0
1001
HATCH_DISTANCE
1040
1.0
1001
HATCH_DISPLAY
1070
     0
1001
HATCH_TYPE
1070
     7
  0
LINE
  5
1872
  8
247
 10
-111.9992192046514
 20
8.1519634243029273
 30
0.0
 11
-111.9992192046514
 21
8.1519634243029273
 31
0.0
  0
LINE
  5
1873
  8
247
 10
-112.0905087249151
 20
8.4414646144884724
 30
0.0
 11
-111.9992192046514
 21
8.1519634243029273
 31
0.0
  0
LINE
  5
1874
  8
247
 10
-112.0905087249151
 20
8.4414646144884724
 30
0.0
 11
-112.0905087249151
 21
8.4414646144884724
 31
0.0
  0
LINE
  5
1875
  8
247
 10
-111.9992192046514
 20
8.1519634243029273
 30
0.0
 11
-112.0905087249151
 21
8.4414646144884724
 31
0.0
  0
LINE
  5
1876
  8
247
 10
-111.9992192046514
 20
8.1519634243029273
 30
0.0
 11
-111.9992192046514
 21
8.1519634243029273
 31
0.0
1001
HATCH_DISTANCE
1040
1.0
1001
HATCH_DISPLAY
1070
     0
1001
HATCH_TYPE
1070
     7
  0
LINE
  5
1877
  8
247
 10
-112.0905087249151
 20
8.4414646144884724
 30
0.0
 11
-111.9992192046514
 21
8.1519634243029273
 31
0.0
1001
HATCH_DISTANCE
1040
1.0
1001
HATCH_DISPLAY
1070
     0
1001
HATCH_TYPE
1070
     7
  0
LINE
  5
1878
  8
247
 10
-112.0905087249151
 20
8.4414646144884724
 30
0.0
 11
-112.0905087249151
 21
8.4414646144884724
 31
0.0
1001
HATCH_DISTANCE
1040
1.0
1001
HATCH_DISPLAY
1070
     0
1001
HATCH_TYPE
1070
     7
  0
LINE
  5
1879
  8
247
 10
-111.9992192046514
 20
8.1519634243029273
 30
0.0
 11
-112.0905087249151
 21
8.4414646144884724
 31
0.0
1001
HATCH_DISTANCE
1040
1.0
1001
HATCH_DISPLAY
1070
     0
1001
HATCH_TYPE
1070
     7
  0
LINE
  5
187A
  8
247
 10
-111.9992192046514
 20
8.1519634243029273
 30
0.0
 11
-111.9992192046514
 21
8.1519634243029273
 31
0.0
  0
LINE
  5
187B
  8
247
 10
-112.0905087249151
 20
8.4414646144884724
 30
0.0
 11
-111.9992192046514
 21
8.1519634243029273
 31
0.0
  0
LINE
  5
187C
  8
247
 10
-112.0905087249151
 20
8.4414646144884724
 30
0.0
 11
-112.0905087249151
 21
8.4414646144884724
 31
0.0
  0
LINE
  5
187D
  8
247
 10
-111.9992192046514
 20
8.1519634243029273
 30
0.0
 11
-112.0905087249151
 21
8.4414646144884724
 31
0.0
  0
LINE
  5
187E
  8
247
 10
-114.0430767791143
 20
8.494050216295113
 30
0.0
 11
-114.8314373748174
 21
8.494050216295113
 31
0.0
1001
HATCH_DISTANCE
1040
1.0
1001
HATCH_DISPLAY
1070
     0
1001
HATCH_TYPE
1070
     7
  0
LINE
  5
187F
  8
247
 10
-114.8253605620733
 20
5.765892815210214
 30
0.0
 11
-114.0430767791143
 21
8.494050216295113
 31
0.0
1001
HATCH_DISTANCE
1040
1.0
1001
HATCH_DISPLAY
1070
     0
1001
HATCH_TYPE
1070
     7
  0
LINE
  5
1880
  8
247
 10
-115.50335433648731
 20
5.765892815210214
 30
0.0
 11
-114.8253605620733
 21
5.765892815210214
 31
0.0
1001
HATCH_DISTANCE
1040
1.0
1001
HATCH_DISPLAY
1070
     0
1001
HATCH_TYPE
1070
     7
  0
LINE
  5
1881
  8
247
 10
-114.8166744963994
 20
8.160615157701363
 30
0.0
 11
-115.50335433648731
 21
5.765892815210214
 31
0.0
1001
HATCH_DISTANCE
1040
1.0
1001
HATCH_DISPLAY
1070
     0
1001
HATCH_TYPE
1070
     7
  0
LINE
  5
1882
  8
247
 10
-114.9270527617803
 20
8.160615157701363
 30
0.0
 11
-114.8166744963994
 21
8.160615157701363
 31
0.0
1001
HATCH_DISTANCE
1040
1.0
1001
HATCH_DISPLAY
1070
     0
1001
HATCH_TYPE
1070
     7
  0
LINE
  5
1883
  8
247
 10
-114.8314373748174
 20
8.494050216295113
 30
0.0
 11
-114.9270527617803
 21
8.160615157701363
 31
0.0
1001
HATCH_DISTANCE
1040
1.0
1001
HATCH_DISPLAY
1070
     0
1001
HATCH_TYPE
1070
     7
  0
LINE
  5
1884
  8
247
 10
-114.0430767791143
 20
8.494050216295113
 30
0.0
 11
-114.8314373748174
 21
8.494050216295113
 31
0.0
  0
LINE
  5
1885
  8
247
 10
-114.8253605620733
 20
5.765892815210214
 30
0.0
 11
-114.0430767791143
 21
8.494050216295113
 31
0.0
  0
LINE
  5
1886
  8
247
 10
-115.50335433648731
 20
5.765892815210214
 30
0.0
 11
-114.8253605620733
 21
5.765892815210214
 31
0.0
  0
LINE
  5
1887
  8
247
 10
-114.8166744963994
 20
8.160615157701363
 30
0.0
 11
-115.50335433648731
 21
5.765892815210214
 31
0.0
  0
LINE
  5
1888
  8
247
 10
-114.9270527617803
 20
8.160615157701363
 30
0.0
 11
-114.8166744963994
 21
8.160615157701363
 31
0.0
  0
LINE
  5
1889
  8
247
 10
-114.8314373748174
 20
8.494050216295113
 30
0.0
 11
-114.9270527617803
 21
8.160615157701363
 31
0.0
  0
LINE
  5
188A
  8
247
 10
-114.84317656871769
 20
5.7658928152102069
 30
0.0
 11
-114.8181981374712
 21
5.7908712464567378
 31
0.0
  0
LINE
  5
188B
  8
247
 10
-115.1799361732578
 20
5.765892815210214
 30
0.0
 11
-114.68281340593811
 21
6.26301558252998
 31
0.0
  0
LINE
  5
188C
  8
247
 10
-115.4979907118862
 20
5.784597881121889
 30
0.0
 11
-114.5474286744049
 21
6.735159918603201
 31
0.0
  0
LINE
  5
188D
  8
247
 10
-115.3626041327652
 20
6.2567440647829846
 30
0.0
 11
-114.4120439428718
 21
7.2073042546764441
 31
0.0
  0
LINE
  5
188E
  8
247
 10
-115.22721755364419
 20
6.728890248444066
 30
0.0
 11
-114.2766592113386
 21
7.6794485907496721
 31
0.0
  0
LINE
  5
188F
  8
247
 10
-115.09183097452321
 20
7.2010364321051616
 30
0.0
 11
-114.1412744798055
 21
8.1515929268229002
 31
0.0
  0
LINE
  5
1890
  8
247
 10
-114.9564443954022
 20
7.6731826157662359
 30
0.0
 11
-114.1355767948734
 21
8.4940502162951006
 31
0.0
  0
LINE
  5
1891
  8
247
 10
-114.8210578162812
 20
8.1453287994273396
 30
0.0
 11
-114.47233639941339
 21
8.4940502162951148
 31
0.0
  0
LINE
  5
1892
  8
247
 10
-114.8404197218444
 20
8.4627264984042938
 30
0.0
 11
-114.8090960039536
 21
8.4940502162951077
 31
0.0
  0
LINE
  5
1893
  8
247
 10
-111.1718260390376
 20
5.3961280904091424
 30
0.0
 11
-110.1782746178279
 21
6.3896795116188789
 31
0.0
  0
LINE
  5
1894
  8
247
 10
-110.494144622135
 20
6.4105691118519337
 30
0.0
 11
-110.0961235600448
 21
6.8085901739421137
 31
0.0
  0
LINE
  5
1895
  8
247
 10
-111.5907367013609
 20
5.3139770326260196
 30
0.0
 11
-111.1927156392707
 21
5.7119980947161997
 31
0.0
  0
LINE
  5
1896
  8
247
 10
-110.3978247093948
 20
6.843648629132189
 30
0.0
 11
-110.109898297154
 21
7.1315750413729404
 31
0.0
  0
LINE
  5
1897
  8
247
 10
-111.9302771707888
 20
5.3111961677381814
 30
0.0
 11
-111.62579515655101
 21
5.6156781819760146
 31
0.0
  0
LINE
  5
1898
  8
247
 10
-110.4217361589286
 20
7.1564967841384606
 30
0.0
 11
-110.17434751527151
 21
7.403885427795621
 31
0.0
  0
LINE
  5
1899
  8
247
 10
-112.2670367753289
 20
5.3111961677381876
 30
0.0
 11
-111.9639056796147
 21
5.6143272634523873
 31
0.0
  0
LINE
  5
189A
  8
247
 10
-110.5019159575579
 20
7.4130765900492293
 30
0.0
 11
-110.2746565854988
 21
7.6403359621083951
 31
0.0
  0
LINE
  5
189B
  8
247
 10
-112.603796379869
 20
5.3111961677381814
 30
0.0
 11
-112.3006652841548
 21
5.6143272634523811
 31
0.0
  0
LINE
  5
189C
  8
247
 10
-110.62157834078189
 20
7.630173811365438
 30
0.0
 11
-110.4042247692331
 21
7.847527382914194
 31
0.0
  0
LINE
  5
189D
  8
247
 10
-112.9405559844091
 20
5.3111961677381876
 30
0.0
 11
-112.63742488869489
 21
5.6143272634523873
 31
0.0
  0
LINE
  5
189E
  8
247
 10
-110.7743666556525
 20
7.8141451010348737
 30
0.0
 11
-110.56002056407
 21
8.0284911926173663
 31
0.0
  0
LINE
  5
189F
  8
247
 10
-113.27731558894919
 20
5.3111961677381876
 30
0.0
 11
-112.974184493235
 21
5.6143272634523953
 31
0.0
  0
LINE
  5
18A0
  8
247
 10
-110.9585483096989
 20
7.9667230515285601
 30
0.0
 11
-110.741153639705
 21
8.1841177215224974
 31
0.0
  0
LINE
  5
18A1
  8
247
 10
-113.6140751934893
 20
5.3111961677381814
 30
0.0
 11
-113.31094409777511
 21
5.6143272634523953
 31
0.0
  0
LINE
  5
18A2
  8
247
 10
-111.1758801692864
 20
8.0861507964811636
 30
0.0
 11
-110.9485265917271
 21
8.3135043740404821
 31
0.0
  0
LINE
  5
18A3
  8
247
 10
-113.9508347980294
 20
5.3111961677381947
 30
0.0
 11
-113.6477037023152
 21
5.6143272634524024
 31
0.0
  0
LINE
  5
18A4
  8
247
 10
-111.43276027042801
 20
8.166030299879651
 30
0.0
 11
-111.18518820027261
 21
8.4136023700350364
 31
0.0
  0
LINE
  5
18A5
  8
247
 10
-114.2875944025695
 20
5.3111961677381876
 30
0.0
 11
-113.9844633068552
 21
5.6143272634523953
 31
0.0
  0
LINE
  5
18A6
  8
247
 10
-111.7460913042656
 20
8.1894588705821505
 30
0.0
 11
-111.45777235958801
 21
8.4777778152596781
 31
0.0
  0
LINE
  5
18A7
  8
247
 10
-114.6243540071096
 20
5.3111961677381876
 30
0.0
 11
-114.3212229113954
 21
5.6143272634523811
 31
0.0
  0
LINE
  5
18A8
  8
247
 10
-112.02825783177791
 20
8.2440519476098828
 30
0.0
 11
-111.7811827190021
 21
8.4911270603857272
 31
0.0
  0
LINE
  5
18A9
  8
247
 10
-114.96111361164959
 20
5.3111961677381876
 30
0.0
 11
-114.6579825159354
 21
5.6143272634524024
 31
0.0
  0
LINE
  5
18AA
  8
247
 10
-115.2978732161898
 20
5.3111961677381876
 30
0.0
 11
-114.99474212047549
 21
5.6143272634523953
 31
0.0
  0
LINE
  5
18AB
  8
247
 10
-115.63463282072981
 20
5.3111961677381947
 30
0.0
 11
-115.3315017250156
 21
5.6143272634524157
 31
0.0
  0
LINE
  5
18AC
  8
247
 10
-115.9713924252699
 20
5.3111961677381814
 30
0.0
 11
-115.6682613295557
 21
5.6143272634524024
 31
0.0
  0
LINE
  5
18AD
  8
247
 10
-116.30815202981
 20
5.3111961677382018
 30
0.0
 11
-116.0050209340958
 21
5.6143272634524086
 31
0.0
  0
LINE
  5
18AE
  8
247
 10
-116.64491163435009
 20
5.3111961677381876
 30
0.0
 11
-116.3417805386359
 21
5.6143272634523953
 31
0.0
  0
LINE
  5
18AF
  8
247
 10
-116.9816712388902
 20
5.3111961677382018
 30
0.0
 11
-116.67854014317599
 21
5.6143272634524086
 31
0.0
  0
LINE
  5
18B0
  8
247
 10
-117.31843084343031
 20
5.3111961677381947
 30
0.0
 11
-117.0152997477161
 21
5.6143272634523953
 31
0.0
  0
LINE
  5
18B1
  8
247
 10
-117.6551904479704
 20
5.3111961677382089
 30
0.0
 11
-117.35205935225621
 21
5.6143272634524024
 31
0.0
  0
LINE
  5
18B2
  8
247
 10
-117.9851583927661
 20
5.3179878274825683
 30
0.0
 11
-117.6888189567963
 21
5.6143272634524024
 31
0.0
  0
LINE
  5
18B3
  8
247
 10
-118.269247555042
 20
5.3706582697467411
 30
0.0
 11
-118.0135954191893
 21
5.6263104055994679
 31
0.0
  0
LINE
  5
18B4
  8
247
 10
-118.51460950842019
 20
5.462055920908611
 30
0.0
 11
-118.28310937756861
 21
5.6935560517602752
 31
0.0
  0
LINE
  5
18B5
  8
247
 10
-118.7293694690116
 20
5.5840555648573647
 30
0.0
 11
-118.5100784406692
 21
5.8033465931997554
 31
0.0
  0
LINE
  5
18B6
  8
247
 10
-118.91732074300759
 20
5.7328638954014428
 30
0.0
 11
-118.7027591926572
 21
5.9474254457518683
 31
0.0
  0
LINE
  5
18B7
  8
247
 10
-119.0798714273989
 20
5.907072815550257
 30
0.0
 11
-118.86392529894781
 21
6.1230189440013092
 31
0.0
  0
LINE
  5
18B8
  8
247
 10
-119.21661293372929
 20
6.1070909137598983
 30
0.0
 11
-118.99278693343619
 21
6.330916914053013
 31
0.0
  0
LINE
  5
18B9
  8
247
 10
-117.46954433924979
 20
8.1909191127794827
 30
0.0
 11
-117.2307312600625
 21
8.4297321919668562
 31
0.0
  0
LINE
  5
18BA
  8
247
 10
-119.3251629765721
 20
6.3353004754572657
 30
0.0
 11
-119.0844891315877
 21
6.575974320441623
 31
0.0
  0
LINE
  5
18BB
  8
247
 10
-117.8063039437899
 20
8.1909191127794898
 30
0.0
 11
-117.5031728402743
 21
8.4940502162951148
 31
0.0
  0
LINE
  5
18BC
  8
247
 10
-119.4001176598793
 20
6.5971053966901394
 30
0.0
 11
-119.1262005026321
 21
6.8710225539373013
 31
0.0
  0
LINE
  5
18BD
  8
247
 10
-118.19279934672851
 20
8.1411833143809957
 30
0.0
 11
-117.83993329077531
 21
8.4940493703342081
 31
0.0
  0
LINE
  5
18BE
  8
247
 10
-119.42971838920811
 20
6.90426427190146
 30
0.0
 11
-119.07685233325481
 21
7.257130327854675
 31
0.0
  0
LINE
  5
18BF
  8
247
 10
-119.3822238768208
 20
7.2885183888287841
 30
0.0
 11
-118.2241874077027
 21
8.4465548579469552
 31
0.0
  0
LINE
  5
18C0
  8
247
 10
-112.66510314297319
 20
5.9234086137141366
 30
0.0
 11
-112.3809223087608
 21
6.2075894479265861
 31
0.0
  0
LINE
  5
18C1
  8
247
 10
-113.1547816862866
 20
5.7704896749408903
 30
0.0
 11
-112.245536267883
 21
6.6797350933444122
 31
0.0
  0
LINE
  5
18C2
  8
247
 10
-113.01176626373839
 20
6.2502647020291411
 30
0.0
 11
-112.11015022700531
 21
7.1518807387622507
 31
0.0
  0
LINE
  5
18C3
  8
247
 10
-113.4710252615745
 20
5.7910057041930401
 30
0.0
 11
-113.11514438374481
 21
6.1468865820227441
 31
0.0
  0
LINE
  5
18C4
  8
247
 10
-112.8590103244258
 20
6.7397802458818949
 30
0.0
 11
-112.2869379248133
 21
7.3118526454943256
 31
0.0
  0
LINE
  5
18C5
  8
247
 10
-113.7158075067199
 20
5.8829830635877514
 30
0.0
 11
-113.45112083184731
 21
6.1476697384603716
 31
0.0
  0
LINE
  5
18C6
  8
247
 10
-112.926828632869
 20
7.0087215419787148
 30
0.0
 11
-112.62369752935339
 21
7.3118526454943327
 31
0.0
  0
LINE
  5
18C7
  8
247
 10
-113.9130792064374
 20
6.022470968410409
 30
0.0
 11
-113.59204080510401
 21
6.343509369743777
 31
0.0
  0
LINE
  5
18C8
  8
247
 10
-112.1806424447413
 20
8.0916673346464805
 30
0.0
 11
-112.14908176915981
 21
8.1232280102280257
 31
0.0
  0
LINE
  5
18C9
  8
247
 10
-114.0688939117713
 20
6.2034158676165561
 30
0.0
 11
-113.51669984207339
 21
6.7556099373143681
 31
0.0
  0
LINE
  5
18CA
  8
247
 10
-112.6017752285953
 20
8.0072941553326018
 30
0.0
 11
-112.22981541601369
 21
8.3792539679142362
 31
0.0
  0
LINE
  5
18CB
  8
247
 10
-114.1807632885464
 20
6.428306095381557
 30
0.0
 11
-113.3813133409994
 21
7.2277560429285463
 31
0.0
  0
LINE
  5
18CC
  8
247
 10
-112.7951380267105
 20
8.1506909617575758
 30
0.0
 11
-112.5681555221757
 21
8.3776734662923147
 31
0.0
  0
LINE
  5
18CD
  8
247
 10
-114.23433671354159
 20
6.7114922749264059
 30
0.0
 11
-113.2459268399253
 21
7.6999021485427193
 31
0.0
  0
LINE
  5
18CE
  8
247
 10
-114.1866196213588
 20
7.095968971649298
 30
0.0
 11
-112.8132738915892
 21
8.4693147014189378
 31
0.0
  0
LINE
  5
18CF
  8
247
 10
-114.07481784999
 20
7.5445303475582364
 30
0.0
 11
-113.13013069790679
 21
8.489217499641434
 31
0.0
  0
TEXT
  5
18D0
  8
247
 10
-109.08604376944091
 20
5.7433917113166961
 30
0.0
 40
2.5
  1
ST20-BFM14/23-49
  7
YOKO
 11
-109.08604376944091
 21
5.7433917113166961
 31
0.0
 73
     1
  0
LINE
  5
18D1
  8
247
 10
-112.1437695281377
 20
8.1063816066759653
 30
0.0
 11
-112.2350590484014
 21
8.3958827968615104
 31
0.0
  0
ARC
  5
18D2
  8
247
 10
-111.6847698943487
 20
6.9026233669298804
 30
0.0
 40
1.288299322128293
 50
110.8721834020772
 51
132.54194893738571
  0
ARC
  5
18D3
  8
247
 10
-112.8739712493292
 20
7.8423206325548804
 30
0.0
 40
0.3182875066995621
 50
1.7101213820643839
 51
163.99839835444811
  0
LINE
  5
18D4
  8
247
 10
-113.5884602324835
 20
6.505353164293167
 30
0.0
 11
-113.1799290435186
 21
7.9300624843615282
 31
0.0
  0
ARC
  5
18D5
  8
247
 10
-113.282502438294
 20
6.4176227565783162
 30
0.0
 40
0.3182872831821442
 50
164.0002730571837
 51
344.00027305718362
  0
LINE
  5
18D6
  8
247
 10
-112.97654464410449
 20
6.3298923488634813
 30
0.0
 11
-112.7818920867315
 21
7.008721541978713
 31
0.0
  0
LINE
  5
18D7
  8
247
 10
-113.0341656463018
 20
7.008721541978713
 30
0.0
 11
-112.7818920867315
 21
7.008721541978713
 31
0.0
  0
LINE
  5
18D8
  8
247
 10
-113.0341656463018
 20
7.008721541978713
 30
0.0
 11
-112.94724776910449
 21
7.3118526454943389
 31
0.0
  0
LINE
  5
18D9
  8
247
 10
-112.94724776910449
 20
7.3118526454943389
 30
0.0
 11
-112.0642788665166
 21
7.3118526454943247
 31
0.0
  0
LINE
  5
18DA
  8
247
 10
-112.50757720636039
 20
5.7658928152102211
 30
0.0
 11
-112.0642788665166
 21
7.3118526454943247
 31
0.0
  0
LINE
  5
18DB
  8
247
 10
-112.6853955047002
 20
5.943699669458268
 30
0.0
 11
-112.50757720636039
 21
5.7658928152102211
 31
0.0
  0
ARC
  5
18DC
  8
247
 10
-113.24995544122361
 20
6.7510578151720662
 30
0.0
 40
0.9851760864257813
 50
163.99975070172709
 51
304.96387329163082
  0
ARC
  5
18DD
  8
247
 10
-111.63924529718069
 20
6.6992618556994099
 30
0.0
 40
2.5780792236328121
 50
155.20517736984181
 51
172.7948259620502
  0
ARC
  5
18DE
  8
247
 10
-113.0326550261846
 20
7.5088855739611287
 30
0.0
 40
0.9851660728454588
 50
53.4440121970555
 51
164.00018438768501
  0
ARC
  5
18DF
  8
247
 10
-111.6847698943487
 20
6.9026233669298804
 30
0.0
 40
1.591427564620969
 50
110.22964506332001
 51
118.57168892371681
  0
LINE
  5
18E0
  8
247
 10
-117.21228912042289
 20
8.4940502162951201
 30
0.0
 11
-117.2992069976202
 21
8.1909191127794951
 31
0.0
  0
LINE
  5
18E1
  8
247
 10
-117.8382923858037
 20
8.4940502162951201
 30
0.0
 11
-117.21228912042289
 21
8.4940502162951201
 31
0.0
  0
LINE
  5
18E2
  8
247
 10
-117.8382923858037
 20
8.1909191127794951
 30
0.0
 11
-117.2992069976202
 21
8.1909191127794951
 31
0.0
  0
ARC
  5
18E3
  8
247
 10
-117.8382923858037
 20
6.9026233669298804
 30
0.0
 40
1.288295745849608
 50
90.0
 51
270.0
  0
ARC
  5
18E4
  8
247
 10
-117.8382923858037
 20
6.9026233669298804
 30
0.0
 40
1.591426849365233
 50
90.0
 51
270.0
  0
LINE
  5
18E5
  8
247
 10
-117.8382923858037
 20
5.3111961677382018
 30
0.0
 11
-111.6847698943487
 21
5.3111961677381876
 31
0.0
  0
LINE
  5
18E6
  8
247
 10
-117.8382923858037
 20
5.6143272634524077
 30
0.0
 11
-111.6847698943487
 21
5.6143272634523917
 31
0.0
  0
ARC
  5
18E7
  8
247
 10
-111.6847698943487
 20
6.9026233669298804
 30
0.0
 40
1.591426849365233
 50
270.0
 51
104.7707939660941
  0
ARC
  5
18E8
  8
247
 10
-111.6847698943487
 20
6.9026233669298804
 30
0.0
 40
1.288295745849608
 50
270.0
 51
104.1274364964119
  0
LINE
  5
18E9
  8
247
 10
-111.9992192046514
 20
8.1519634243029166
 30
0.0
 11
-112.0905087249151
 21
8.4414646144884653
 31
0.0
  0
LINE
  5
18EA
  8
247
 10
-114.8253605620733
 20
5.7658928152102211
 30
0.0
 11
-114.0430767791143
 21
8.4940502162951201
 31
0.0
  0
LINE
  5
18EB
  8
247
 10
-117.679230953919
 20
5.7658928152102211
 30
0.0
 11
-116.9838650481576
 21
8.1909191127786141
 31
0.0
  0
LINE
  5
18EC
  8
247
 10
-116.3152706029416
 20
6.6511160127669893
 30
0.0
 11
-115.3212909270102
 21
7.6450956886984178
 31
0.0
  0
LINE
  5
18ED
  8
247
 10
-117.4655381678984
 20
6.5111272614304996
 30
0.0
 11
-116.4044489636385
 21
7.5722164656903441
 31
0.0
  0
ARC
  5
18EE
  8
247
 10
-116.4117977874151
 20
7.7665378566759724
 30
0.0
 40
0.4546839594841006
 50
261.6626016879294
 51
66.338155095189762
  0
LINE
  5
18EF
  8
247
 10
-116.4328234527601
 20
6.8703227674885854
 30
0.0
 11
-115.3480752451604
 21
7.9550709750883044
 31
0.0
  0
ARC
  5
18F0
  8
247
 10
-116.0736134307256
 20
7.7362339015978474
 30
0.0
 40
0.7578227519989014
 50
287.66957754739798
 51
90.236159842671626
  0
LINE
  5
18F1
  8
247
 10
-117.3301525462214
 20
6.9832724876475663
 30
0.0
 11
-116.2690678106686
 21
8.0443572232003202
 31
0.0
  0
LINE
  5
18F2
  8
247
 10
-116.229314661847
 20
8.1829960321210375
 30
0.0
 11
-116.477727193362
 21
7.3166591880956409
 31
0.0
  0
LINE
  5
18F3
  8
247
 10
-115.50335433648731
 20
5.7658928152102211
 30
0.0
 11
-114.8166744963994
 21
8.1606151577013701
 31
0.0
  0
LINE
  5
18F4
  8
247
 10
-114.8314373748174
 20
8.4940502162951201
 30
0.0
 11
-114.0430767791143
 21
8.4940502162951201
 31
0.0
  0
LINE
  5
18F5
  8
247
 10
-116.1650075244988
 20
8.1484175093701605
 30
0.0
 11
-115.8523800448645
 21
8.4610449890044901
 31
0.0
  0
LINE
  5
18F6
  8
247
 10
-116.00567423835049
 20
7.970991190978352
 30
0.0
 11
-115.62769215480751
 21
8.3489732745213825
 31
0.0
  0
LINE
  5
18F7
  8
247
 10
-117.05462386773711
 20
8.4940502162951201
 30
0.0
 11
-116.0767369905526
 21
8.4940502162950065
 31
0.0
  0
LINE
  5
18F8
  8
247
 10
-117.05938130286739
 20
7.927562940081728
 30
0.0
 11
-116.4928940266541
 21
8.4940502162950633
 31
0.0
  0
LINE
  5
18F9
  8
247
 10
-117.1415417449349
 20
8.1909191127794951
 30
0.0
 11
-116.9838650481576
 21
8.1909191127786141
 31
0.0
  0
LINE
  5
18FA
  8
247
 10
-117.05462386773711
 20
8.4940502162951201
 30
0.0
 11
-117.1415417449349
 21
8.1909191127794951
 31
0.0
  0
LINE
  5
18FB
  8
247
 10
-117.1327847347098
 20
8.1909191127794685
 30
0.0
 11
-116.8296536311942
 21
8.4940502162950935
 31
0.0
  0
LINE
  5
18FC
  8
247
 10
-115.966821437375
 20
7.6730843874137937
 30
0.0
 11
-115.459560799809
 21
8.1803450249797862
 31
0.0
  0
LINE
  5
18FD
  8
247
 10
-117.1947669245444
 20
7.455417713864632
 30
0.0
 11
-116.15613442211399
 21
8.4940502162950065
 31
0.0
  0
LINE
  5
18FE
  8
247
 10
-114.9270527617803
 20
8.1606151577013701
 30
0.0
 11
-114.8166744963994
 21
8.1606151577013701
 31
0.0
  0
LINE
  5
18FF
  8
247
 10
-114.9270527617803
 20
8.1606151577013701
 30
0.0
 11
-114.8314373748174
 21
8.4940502162951201
 31
0.0
  0
LINE
  5
1900
  8
247
 10
-116.8637341959583
 20
5.7658928152102211
 30
0.0
 11
-115.7514772561006
 21
6.8781497550679234
 31
0.0
  0
ARC
  5
1901
  8
247
 10
-116.4212963836065
 20
6.5237094875353474
 30
0.0
 40
0.7578163146972659
 50
270.0
 51
40.329840654168393
  0
LINE
  5
1902
  8
247
 10
-116.5269745914182
 20
5.7658928152101927
 30
0.0
 11
-115.6699958740592
 21
6.622871532569218
 31
0.0
  0
LINE
  5
1903
  8
247
 10
-117.6009237895753
 20
6.0389820352134356
 30
0.0
 11
-116.3183443181529
 21
7.321561506635887
 31
0.0
  0
ARC
  5
1904
  8
247
 10
-116.7594807402959
 20
6.5540248867052693
 30
0.0
 40
0.4546969681978227
 50
261.6628542111489
 51
66.338192159110065
  0
LINE
  5
1905
  8
247
 10
-116.5769939968027
 20
6.970495679603756
 30
0.0
 11
-116.8254106150177
 21
6.1041331391620988
 31
0.0
  0
LINE
  5
1906
  8
247
 10
-117.5372534050385
 20
5.7658928152102211
 30
0.0
 11
-116.6752209983548
 21
6.6279252218938733
 31
0.0
  0
LINE
  5
1907
  8
247
 10
-116.1333974293659
 20
5.822710372722395
 30
0.0
 11
-115.7202972687936
 21
6.2358105332947531
 31
0.0
  0
LINE
  5
1908
  8
247
 10
-117.679230953919
 20
5.7658928152102211
 30
0.0
 11
-116.4212963836065
 21
5.7658928152102211
 31
0.0
  0
LINE
  5
1909
  8
247
 10
-117.20049380049841
 20
5.7658928152102211
 30
0.0
 11
-116.8105996441267
 21
6.1557869715818887
 31
0.0
  0
LINE
  5
190A
  8
247
 10
-115.50335433648731
 20
5.7658928152102211
 30
0.0
 11
-114.8253605620733
 21
5.7658928152102211
 31
0.0
  0
ENDBLK
  5
190E
  8
0
  0
BLOCK
  8
0
  2
A$C1D415D9A
 70
     0
 10
0.0
 20
0.0
 30
0.0
  3
A$C1D415D9A
  1

  0
LINE
  5
1ADC
  8
243
 10
-125.0
 20
4.0
 30
0.0
 11
-56.000000000000277
 21
4.0
 31
0.0
  0
LINE
  5
1ADD
  8
243
 10
-125.0
 20
-3.9999999999999432
 30
0.0
 11
-55.999999999999552
 21
-3.9999999999999432
 31
0.0
  0
LINE
  5
1ADE
  8
245
 10
-128.0
 20
0.0
 30
0.0
 11
12.00000000000051
 21
0.0
 31
0.0
  0
LINE
  5
1ADF
  8
240
 10
-125.0
 20
-10.0
 30
0.0
 11
-56.414213562372908
 21
-9.9999999999999716
 31
0.0
  0
LINE
  5
1AE0
  8
240
 10
-125.0
 20
10.0
 30
0.0
 11
-56.414213562372652
 21
10.00000000000003
 31
0.0
  0
LINE
  5
1AE1
  8
240
 10
-126.0
 20
-9.0
 30
0.0
 11
-126.0
 21
0.0
 31
0.0
  0
ARC
  5
1AE2
  8
240
 10
-125.0
 20
-9.0
 30
0.0
 40
1.0
 50
180.0
 51
270.0
  0
ARC
  5
1AE3
  8
243
 10
-125.0
 20
-4.9999999999999432
 30
0.0
 40
1.0
 50
90.0
 51
180.0
  0
LINE
  5
1AE4
  8
240
 10
-126.0
 20
9.0
 30
0.0
 11
-126.0
 21
0.0
 31
0.0
  0
ARC
  5
1AE5
  8
243
 10
-125.0
 20
5.0
 30
0.0
 40
1.0
 50
180.0
 51
270.0
  0
ARC
  5
1AE6
  8
240
 10
-125.0
 20
9.0
 30
0.0
 40
1.0
 50
90.0
 51
180.0
  0
LINE
  5
1AE7
  8
243
 10
-54.556624327025531
 20
-1.500000000000028
 30
0.0
 11
2.7499999999999432
 21
-1.499999999999998
 31
0.0
  0
LINE
  5
1AE8
  8
243
 10
-54.556624327025759
 20
1.5
 30
0.0
 11
0.2500000000002274
 21
1.499999999999857
 31
0.0
  0
LINE
  5
1AE9
  8
241
 10
-49.999999999999709
 20
2.1393314283085649
 30
0.0
 11
-6.7844167108128772
 21
2.1393314283085649
 31
0.0
  0
LINE
  5
1AEA
  8
240
 10
9.6999999999996191
 20
-3.1999999999999882
 30
0.0
 11
-49.999999999999709
 21
-3.1999999999999882
 31
0.0
  0
LINE
  5
1AEB
  8
240
 10
-52.935786437625552
 20
7.3499999999999943
 30
0.0
 11
-0.2500000000002274
 21
7.3499999999999943
 31
0.0
  0
LINE
  5
1AEC
  8
241
 10
-61.000000000000341
 20
4.3588989435409067
 30
0.0
 11
-56.00000000000005
 21
4.3588989435409067
 31
0.0
  0
LINE
  5
1AED
  8
241
 10
-61.000000000000313
 20
-4.3588989435409067
 30
0.0
 11
-56.000000000000028
 21
-4.3588989435409067
 31
0.0
  0
LINE
  5
1AEE
  8
242
 10
-61.000000000000341
 20
4.3588989435409067
 30
0.0
 11
-56.000000000000028
 21
-4.3588989435409067
 31
0.0
  0
LINE
  5
1AEF
  8
242
 10
-56.00000000000005
 20
4.3588989435409351
 30
0.0
 11
-61.000000000000313
 21
-4.3588989435409067
 31
0.0
  0
LINE
  5
1AF0
  8
241
 10
-61.000000000000341
 20
-4.3588989435409067
 30
0.0
 11
-61.000000000000362
 21
4.3588989435409067
 31
0.0
  0
ARC
  5
1AF1
  8
241
 10
-49.999999999999709
 20
-0.8606685716914341
 30
0.0
 40
3.0
 50
90.0
 51
180.0
  0
LINE
  5
1AF2
  8
243
 10
-54.556624327025531
 20
-1.500000000000028
 30
0.0
 11
-54.556624327025759
 21
1.5
 31
0.0
  0
LINE
  5
1AF3
  8
243
 10
-55.999999999999488
 20
-3.9999999999999432
 30
0.0
 11
-56.000000000000199
 21
4.0
 31
0.0
  0
POLYLINE
  8
241
  5
1DC2
  66
     1
 10
0.000000
 20
0.000000
 30
0.000000
  70
     8
  0
VERTEX
  8
241
  5
1DC3
 10
-56.0000
 20
4.35890
 30
0.000000
  70
    32
  0
VERTEX
  8
241
  5
1DC4
 10
-55.9811
 20
4.30407
 30
0.000000
  70
    32
  0
VERTEX
  8
241
  5
1DC5
 10
-55.9623
 20
4.24924
 30
0.000000
  70
    32
  0
VERTEX
  8
241
  5
1DC6
 10
-55.9434
 20
4.19441
 30
0.000000
  70
    32
  0
VERTEX
  8
241
  5
1DC7
 10
-55.9246
 20
4.13958
 30
0.000000
  70
    32
  0
VERTEX
  8
241
  5
1DC8
 10
-55.9058
 20
4.08475
 30
0.000000
  70
    32
  0
VERTEX
  8
241
  5
1DC9
 10
-55.8870
 20
4.02993
 30
0.000000
  70
    32
  0
VERTEX
  8
241
  5
1DCA
 10
-55.8683
 20
3.97510
 30
0.000000
  70
    32
  0
VERTEX
  8
241
  5
1DCB
 10
-55.8496
 20
3.92027
 30
0.000000
  70
    32
  0
VERTEX
  8
241
  5
1DCC
 10
-55.8309
 20
3.86544
 30
0.000000
  70
    32
  0
VERTEX
  8
241
  5
1DCD
 10
-55.8123
 20
3.81061
 30
0.000000
  70
    32
  0
VERTEX
  8
241
  5
1DCE
 10
-55.7938
 20
3.75578
 30
0.000000
  70
    32
  0
VERTEX
  8
241
  5
1DCF
 10
-55.7753
 20
3.70095
 30
0.000000
  70
    32
  0
VERTEX
  8
241
  5
1DD0
 10
-55.7569
 20
3.64612
 30
0.000000
  70
    32
  0
VERTEX
  8
241
  5
1DD1
 10
-55.7386
 20
3.59129
 30
0.000000
  70
    32
  0
VERTEX
  8
241
  5
1DD2
 10
-55.7203
 20
3.53647
 30
0.000000
  70
    32
  0
VERTEX
  8
241
  5
1DD3
 10
-55.7022
 20
3.48164
 30
0.000000
  70
    32
  0
VERTEX
  8
241
  5
1DD4
 10
-55.6841
 20
3.42681
 30
0.000000
  70
    32
  0
VERTEX
  8
241
  5
1DD5
 10
-55.6662
 20
3.37198
 30
0.000000
  70
    32
  0
VERTEX
  8
241
  5
1DD6
 10
-55.6483
 20
3.31715
 30
0.000000
  70
    32
  0
VERTEX
  8
241
  5
1DD7
 10
-55.6306
 20
3.26232
 30
0.000000
  70
    32
  0
VERTEX
  8
241
  5
1DD8
 10
-55.6130
 20
3.20749
 30
0.000000
  70
    32
  0
VERTEX
  8
241
  5
1DD9
 10
-55.5955
 20
3.15266
 30
0.000000
  70
    32
  0
VERTEX
  8
241
  5
1DDA
 10
-55.5781
 20
3.09783
 30
0.000000
  70
    32
  0
VERTEX
  8
241
  5
1DDB
 10
-55.5609
 20
3.04300
 30
0.000000
  70
    32
  0
VERTEX
  8
241
  5
1DDC
 10
-55.5439
 20
2.98818
 30
0.000000
  70
    32
  0
VERTEX
  8
241
  5
1DDD
 10
-55.5269
 20
2.93335
 30
0.000000
  70
    32
  0
VERTEX
  8
241
  5
1DDE
 10
-55.5102
 20
2.87852
 30
0.000000
  70
    32
  0
VERTEX
  8
241
  5
1DDF
 10
-55.4935
 20
2.82369
 30
0.000000
  70
    32
  0
VERTEX
  8
241
  5
1DE0
 10
-55.4771
 20
2.76886
 30
0.000000
  70
    32
  0
VERTEX
  8
241
  5
1DE1
 10
-55.4608
 20
2.71403
 30
0.000000
  70
    32
  0
VERTEX
  8
241
  5
1DE2
 10
-55.4447
 20
2.65920
 30
0.000000
  70
    32
  0
VERTEX
  8
241
  5
1DE3
 10
-55.4288
 20
2.60437
 30
0.000000
  70
    32
  0
VERTEX
  8
241
  5
1DE4
 10
-55.4131
 20
2.54954
 30
0.000000
  70
    32
  0
VERTEX
  8
241
  5
1DE5
 10
-55.3976
 20
2.49472
 30
0.000000
  70
    32
  0
VERTEX
  8
241
  5
1DE6
 10
-55.3823
 20
2.43989
 30
0.000000
  70
    32
  0
VERTEX
  8
241
  5
1DE7
 10
-55.3672
 20
2.38506
 30
0.000000
  70
    32
  0
VERTEX
  8
241
  5
1DE8
 10
-55.3523
 20
2.33023
 30
0.000000
  70
    32
  0
VERTEX
  8
241
  5
1DE9
 10
-55.3376
 20
2.27540
 30
0.000000
  70
    32
  0
VERTEX
  8
241
  5
1DEA
 10
-55.3232
 20
2.22057
 30
0.000000
  70
    32
  0
VERTEX
  8
241
  5
1DEB
 10
-55.3090
 20
2.16574
 30
0.000000
  70
    32
  0
VERTEX
  8
241
  5
1DEC
 10
-55.2950
 20
2.11091
 30
0.000000
  70
    32
  0
VERTEX
  8
241
  5
1DED
 10
-55.2813
 20
2.05608
 30
0.000000
  70
    32
  0
VERTEX
  8
241
  5
1DEE
 10
-55.2678
 20
2.00126
 30
0.000000
  70
    32
  0
VERTEX
  8
241
  5
1DEF
 10
-55.2546
 20
1.94643
 30
0.000000
  70
    32
  0
VERTEX
  8
241
  5
1DF0
 10
-55.2416
 20
1.89160
 30
0.000000
  70
    32
  0
VERTEX
  8
241
  5
1DF1
 10
-55.2289
 20
1.83677
 30
0.000000
  70
    32
  0
VERTEX
  8
241
  5
1DF2
 10
-55.2165
 20
1.78194
 30
0.000000
  70
    32
  0
VERTEX
  8
241
  5
1DF3
 10
-55.2044
 20
1.72711
 30
0.000000
  70
    32
  0
VERTEX
  8
241
  5
1DF4
 10
-55.1925
 20
1.67228
 30
0.000000
  70
    32
  0
VERTEX
  8
241
  5
1DF5
 10
-55.1810
 20
1.61745
 30
0.000000
  70
    32
  0
VERTEX
  8
241
  5
1DF6
 10
-55.1697
 20
1.56262
 30
0.000000
  70
    32
  0
VERTEX
  8
241
  5
1DF7
 10
-55.1588
 20
1.50780
 30
0.000000
  70
    32
  0
VERTEX
  8
241
  5
1DF8
 10
-55.1481
 20
1.45297
 30
0.000000
  70
    32
  0
VERTEX
  8
241
  5
1DF9
 10
-55.1378
 20
1.39814
 30
0.000000
  70
    32
  0
VERTEX
  8
241
  5
1DFA
 10
-55.1278
 20
1.34331
 30
0.000000
  70
    32
  0
VERTEX
  8
241
  5
1DFB
 10
-55.1182
 20
1.28848
 30
0.000000
  70
    32
  0
VERTEX
  8
241
  5
1DFC
 10
-55.1088
 20
1.23365
 30
0.000000
  70
    32
  0
VERTEX
  8
241
  5
1DFD
 10
-55.0998
 20
1.17882
 30
0.000000
  70
    32
  0
VERTEX
  8
241
  5
1DFE
 10
-55.0912
 20
1.12399
 30
0.000000
  70
    32
  0
VERTEX
  8
241
  5
1DFF
 10
-55.0829
 20
1.06916
 30
0.000000
  70
    32
  0
VERTEX
  8
241
  5
1E00
 10
-55.0749
 20
1.01433
 30
0.000000
  70
    32
  0
VERTEX
  8
241
  5
1E01
 10
-55.0673
 20
0.959506
 30
0.000000
  70
    32
  0
VERTEX
  8
241
  5
1E02
 10
-55.0601
 20
0.904677
 30
0.000000
  70
    32
  0
VERTEX
  8
241
  5
1E03
 10
-55.0533
 20
0.849848
 30
0.000000
  70
    32
  0
VERTEX
  8
241
  5
1E04
 10
-55.0469
 20
0.795019
 30
0.000000
  70
    32
  0
VERTEX
  8
241
  5
1E05
 10
-55.0408
 20
0.740190
 30
0.000000
  70
    32
  0
VERTEX
  8
241
  5
1E06
 10
-55.0351
 20
0.685361
 30
0.000000
  70
    32
  0
VERTEX
  8
241
  5
1E07
 10
-55.0299
 20
0.630533
 30
0.000000
  70
    32
  0
VERTEX
  8
241
  5
1E08
 10
-55.0250
 20
0.575704
 30
0.000000
  70
    32
  0
VERTEX
  8
241
  5
1E09
 10
-55.0206
 20
0.520875
 30
0.000000
  70
    32
  0
VERTEX
  8
241
  5
1E0A
 10
-55.0165
 20
0.466046
 30
0.000000
  70
    32
  0
VERTEX
  8
241
  5
1E0B
 10
-55.0129
 20
0.411217
 30
0.000000
  70
    32
  0
VERTEX
  8
241
  5
1E0C
 10
-55.0098
 20
0.356388
 30
0.000000
  70
    32
  0
VERTEX
  8
241
  5
1E0D
 10
-55.0070
 20
0.301559
 30
0.000000
  70
    32
  0
VERTEX
  8
241
  5
1E0E
 10
-55.0047
 20
0.246730
 30
0.000000
  70
    32
  0
VERTEX
  8
241
  5
1E0F
 10
-55.0029
 20
0.191901
 30
0.000000
  70
    32
  0
VERTEX
  8
241
  5
1E10
 10
-55.0015
 20
0.137072
 30
0.000000
  70
    32
  0
VERTEX
  8
241
  5
1E11
 10
-55.0005
 20
0.0822434
 30
0.000000
  70
    32
  0
VERTEX
  8
241
  5
1E12
 10
-55.0001
 20
0.0274145
 30
0.000000
  70
    32
  0
VERTEX
  8
241
  5
1E13
 10
-55.0001
 20
-0.0274145
 30
0.000000
  70
    32
  0
VERTEX
  8
241
  5
1E14
 10
-55.0005
 20
-0.0822434
 30
0.000000
  70
    32
  0
VERTEX
  8
241
  5
1E15
 10
-55.0015
 20
-0.137072
 30
0.000000
  70
    32
  0
VERTEX
  8
241
  5
1E16
 10
-55.0029
 20
-0.191901
 30
0.000000
  70
    32
  0
VERTEX
  8
241
  5
1E17
 10
-55.0047
 20
-0.246730
 30
0.000000
  70
    32
  0
VERTEX
  8
241
  5
1E18
 10
-55.0070
 20
-0.301559
 30
0.000000
  70
    32
  0
VERTEX
  8
241
  5
1E19
 10
-55.0098
 20
-0.356388
 30
0.000000
  70
    32
  0
VERTEX
  8
241
  5
1E1A
 10
-55.0129
 20
-0.411217
 30
0.000000
  70
    32
  0
VERTEX
  8
241
  5
1E1B
 10
-55.0165
 20
-0.466046
 30
0.000000
  70
    32
  0
VERTEX
  8
241
  5
1E1C
 10
-55.0206
 20
-0.520875
 30
0.000000
  70
    32
  0
VERTEX
  8
241
  5
1E1D
 10
-55.0250
 20
-0.575704
 30
0.000000
  70
    32
  0
VERTEX
  8
241
  5
1E1E
 10
-55.0299
 20
-0.630533
 30
0.000000
  70
    32
  0
VERTEX
  8
241
  5
1E1F
 10
-55.0351
 20
-0.685361
 30
0.000000
  70
    32
  0
VERTEX
  8
241
  5
1E20
 10
-55.0408
 20
-0.740190
 30
0.000000
  70
    32
  0
VERTEX
  8
241
  5
1E21
 10
-55.0469
 20
-0.795019
 30
0.000000
  70
    32
  0
VERTEX
  8
241
  5
1E22
 10
-55.0533
 20
-0.849848
 30
0.000000
  70
    32
  0
VERTEX
  8
241
  5
1E23
 10
-55.0601
 20
-0.904677
 30
0.000000
  70
    32
  0
VERTEX
  8
241
  5
1E24
 10
-55.0673
 20
-0.959506
 30
0.000000
  70
    32
  0
VERTEX
  8
241
  5
1E25
 10
-55.0749
 20
-1.01433
 30
0.000000
  70
    32
  0
VERTEX
  8
241
  5
1E26
 10
-55.0829
 20
-1.06916
 30
0.000000
  70
    32
  0
VERTEX
  8
241
  5
1E27
 10
-55.0912
 20
-1.12399
 30
0.000000
  70
    32
  0
VERTEX
  8
241
  5
1E28
 10
-55.0998
 20
-1.17882
 30
0.000000
  70
    32
  0
VERTEX
  8
241
  5
1E29
 10
-55.1088
 20
-1.23365
 30
0.000000
  70
    32
  0
VERTEX
  8
241
  5
1E2A
 10
-55.1182
 20
-1.28848
 30
0.000000
  70
    32
  0
VERTEX
  8
241
  5
1E2B
 10
-55.1278
 20
-1.34331
 30
0.000000
  70
    32
  0
VERTEX
  8
241
  5
1E2C
 10
-55.1378
 20
-1.39814
 30
0.000000
  70
    32
  0
VERTEX
  8
241
  5
1E2D
 10
-55.1481
 20
-1.45297
 30
0.000000
  70
    32
  0
VERTEX
  8
241
  5
1E2E
 10
-55.1588
 20
-1.50780
 30
0.000000
  70
    32
  0
VERTEX
  8
241
  5
1E2F
 10
-55.1697
 20
-1.56262
 30
0.000000
  70
    32
  0
VERTEX
  8
241
  5
1E30
 10
-55.1810
 20
-1.61745
 30
0.000000
  70
    32
  0
VERTEX
  8
241
  5
1E31
 10
-55.1925
 20
-1.67228
 30
0.000000
  70
    32
  0
VERTEX
  8
241
  5
1E32
 10
-55.2044
 20
-1.72711
 30
0.000000
  70
    32
  0
VERTEX
  8
241
  5
1E33
 10
-55.2165
 20
-1.78194
 30
0.000000
  70
    32
  0
VERTEX
  8
241
  5
1E34
 10
-55.2289
 20
-1.83677
 30
0.000000
  70
    32
  0
VERTEX
  8
241
  5
1E35
 10
-55.2416
 20
-1.89160
 30
0.000000
  70
    32
  0
VERTEX
  8
241
  5
1E36
 10
-55.2546
 20
-1.94643
 30
0.000000
  70
    32
  0
VERTEX
  8
241
  5
1E37
 10
-55.2678
 20
-2.00126
 30
0.000000
  70
    32
  0
VERTEX
  8
241
  5
1E38
 10
-55.2813
 20
-2.05608
 30
0.000000
  70
    32
  0
VERTEX
  8
241
  5
1E39
 10
-55.2950
 20
-2.11091
 30
0.000000
  70
    32
  0
VERTEX
  8
241
  5
1E3A
 10
-55.3090
 20
-2.16574
 30
0.000000
  70
    32
  0
VERTEX
  8
241
  5
1E3B
 10
-55.3232
 20
-2.22057
 30
0.000000
  70
    32
  0
VERTEX
  8
241
  5
1E3C
 10
-55.3376
 20
-2.27540
 30
0.000000
  70
    32
  0
VERTEX
  8
241
  5
1E3D
 10
-55.3523
 20
-2.33023
 30
0.000000
  70
    32
  0
VERTEX
  8
241
  5
1E3E
 10
-55.3672
 20
-2.38506
 30
0.000000
  70
    32
  0
VERTEX
  8
241
  5
1E3F
 10
-55.3823
 20
-2.43989
 30
0.000000
  70
    32
  0
VERTEX
  8
241
  5
1E40
 10
-55.3976
 20
-2.49472
 30
0.000000
  70
    32
  0
VERTEX
  8
241
  5
1E41
 10
-55.4131
 20
-2.54954
 30
0.000000
  70
    32
  0
VERTEX
  8
241
  5
1E42
 10
-55.4288
 20
-2.60437
 30
0.000000
  70
    32
  0
VERTEX
  8
241
  5
1E43
 10
-55.4447
 20
-2.65920
 30
0.000000
  70
    32
  0
VERTEX
  8
241
  5
1E44
 10
-55.4608
 20
-2.71403
 30
0.000000
  70
    32
  0
VERTEX
  8
241
  5
1E45
 10
-55.4771
 20
-2.76886
 30
0.000000
  70
    32
  0
VERTEX
  8
241
  5
1E46
 10
-55.4935
 20
-2.82369
 30
0.000000
  70
    32
  0
VERTEX
  8
241
  5
1E47
 10
-55.5102
 20
-2.87852
 30
0.000000
  70
    32
  0
VERTEX
  8
241
  5
1E48
 10
-55.5269
 20
-2.93335
 30
0.000000
  70
    32
  0
VERTEX
  8
241
  5
1E49
 10
-55.5439
 20
-2.98818
 30
0.000000
  70
    32
  0
VERTEX
  8
241
  5
1E4A
 10
-55.5609
 20
-3.04300
 30
0.000000
  70
    32
  0
VERTEX
  8
241
  5
1E4B
 10
-55.5781
 20
-3.09783
 30
0.000000
  70
    32
  0
VERTEX
  8
241
  5
1E4C
 10
-55.5955
 20
-3.15266
 30
0.000000
  70
    32
  0
VERTEX
  8
241
  5
1E4D
 10
-55.6130
 20
-3.20749
 30
0.000000
  70
    32
  0
VERTEX
  8
241
  5
1E4E
 10
-55.6306
 20
-3.26232
 30
0.000000
  70
    32
  0
VERTEX
  8
241
  5
1E4F
 10
-55.6483
 20
-3.31715
 30
0.000000
  70
    32
  0
VERTEX
  8
241
  5
1E50
 10
-55.6662
 20
-3.37198
 30
0.000000
  70
    32
  0
VERTEX
  8
241
  5
1E51
 10
-55.6841
 20
-3.42681
 30
0.000000
  70
    32
  0
VERTEX
  8
241
  5
1E52
 10
-55.7022
 20
-3.48164
 30
0.000000
  70
    32
  0
VERTEX
  8
241
  5
1E53
 10
-55.7203
 20
-3.53647
 30
0.000000
  70
    32
  0
VERTEX
  8
241
  5
1E54
 10
-55.7386
 20
-3.59129
 30
0.000000
  70
    32
  0
VERTEX
  8
241
  5
1E55
 10
-55.7569
 20
-3.64612
 30
0.000000
  70
    32
  0
VERTEX
  8
241
  5
1E56
 10
-55.7753
 20
-3.70095
 30
0.000000
  70
    32
  0
VERTEX
  8
241
  5
1E57
 10
-55.7938
 20
-3.75578
 30
0.000000
  70
    32
  0
VERTEX
  8
241
  5
1E58
 10
-55.8123
 20
-3.81061
 30
0.000000
  70
    32
  0
VERTEX
  8
241
  5
1E59
 10
-55.8309
 20
-3.86544
 30
0.000000
  70
    32
  0
VERTEX
  8
241
  5
1E5A
 10
-55.8496
 20
-3.92027
 30
0.000000
  70
    32
  0
VERTEX
  8
241
  5
1E5B
 10
-55.8683
 20
-3.97510
 30
0.000000
  70
    32
  0
VERTEX
  8
241
  5
1E5C
 10
-55.8870
 20
-4.02993
 30
0.000000
  70
    32
  0
VERTEX
  8
241
  5
1E5D
 10
-55.9058
 20
-4.08475
 30
0.000000
  70
    32
  0
VERTEX
  8
241
  5
1E5E
 10
-55.9246
 20
-4.13958
 30
0.000000
  70
    32
  0
VERTEX
  8
241
  5
1E5F
 10
-55.9434
 20
-4.19441
 30
0.000000
  70
    32
  0
VERTEX
  8
241
  5
1E60
 10
-55.9623
 20
-4.24924
 30
0.000000
  70
    32
  0
VERTEX
  8
241
  5
1E61
 10
-55.9811
 20
-4.30407
 30
0.000000
  70
    32
  0
VERTEX
  8
241
  5
1E62
 10
-56.0000
 20
-4.35890
 30
0.000000
  70
    32
  0
SEQEND
  8
241
  5
1E63
  0
LINE
  5
1AF5
  8
241
 10
-53.349999999998509
 20
7.4398202788754872
 30
0.0
 11
-53.349999999998552
 21
-7.4398202788754872
 31
0.0
  0
ARC
  5
1AF6
  8
240
 10
-49.999999999999709
 20
-6.1999999999999877
 30
0.0
 40
3.0
 50
90.0
 51
180.0
  0
LINE
  5
1AF7
  8
240
 10
-52.999999999999659
 20
-7.3520638204738873
 30
0.0
 11
-52.999999999999723
 21
-6.1999999999999877
 31
0.0
  0
LINE
  5
1AF8
  8
241
 10
-56.000000000000171
 20
-4.3588989435409067
 30
0.0
 11
-56.00000000000005
 21
-9.9101797211243934
 31
0.0
  0
LINE
  5
1AF9
  8
240
 10
-55.707106781186098
 20
-9.7071067811862406
 30
0.0
 11
-53.642893218813782
 21
-7.6428932188123886
 31
0.0
  0
ARC
  5
1AFA
  8
240
 10
-52.935786437625552
 20
-8.3499999999999943
 30
0.0
 40
1.0
 50
93.681699248952029
 51
134.9999999999884
  0
LINE
  5
1AFB
  8
243
 10
-55.999999999999552
 20
-4.0000000000001421
 30
0.0
 11
-54.556624327025588
 21
-1.4999999999999141
 31
0.0
  0
LINE
  5
1AFC
  8
241
 10
-52.999999999999723
 20
-0.8606685716914341
 30
0.0
 11
-52.999999999999723
 21
-6.1999999999999877
 31
0.0
  0
LINE
  5
1AFD
  8
241
 10
-55.999999999999943
 20
4.3588989435409067
 30
0.0
 11
-55.999999999999943
 21
9.9101797211247344
 31
0.0
  0
LINE
  5
1AFE
  8
243
 10
-55.999999999999552
 20
4.0000000000001421
 30
0.0
 11
-54.55662432702556
 21
1.500000000000852
 31
0.0
  0
LINE
  5
1AFF
  8
240
 10
-53.642893218811963
 20
7.6428932188133274
 30
0.0
 11
-55.707106781186241
 21
9.7071067811867238
 31
0.0
  0
ARC
  5
1B00
  8
240
 10
-52.935786437625552
 20
8.3499999999999943
 30
0.0
 40
1.0
 50
225.00000000001151
 51
270.0
  0
LINE
  5
1B01
  8
240
 10
10.000000000000171
 20
11.09999999999107
 30
0.0
 11
9.9999999999996305
 21
-2.9000000000000048
 31
0.0
  0
LINE
  5
1B02
  8
241
 10
-0.4999999999997727
 20
-1.2050896048301349
 30
0.0
 11
9.9999999999997442
 21
-1.2050896048301349
 31
0.0
  0
POLYLINE
  8
241
  5
1E64
  66
     1
 10
0.000000
 20
0.000000
 30
0.000000
  70
     8
  0
VERTEX
  8
241
  5
1E65
 10
-0.500000
 20
7.35000
 30
0.000000
  70
    32
  0
VERTEX
  8
241
  5
1E66
 10
-0.616410
 20
7.28433
 30
0.000000
  70
    32
  0
VERTEX
  8
241
  5
1E67
 10
-0.732785
 20
7.21866
 30
0.000000
  70
    32
  0
VERTEX
  8
241
  5
1E68
 10
-0.849089
 20
7.15299
 30
0.000000
  70
    32
  0
VERTEX
  8
241
  5
1E69
 10
-0.965288
 20
7.08734
 30
0.000000
  70
    32
  0
VERTEX
  8
241
  5
1E6A
 10
-1.08134
 20
7.02170
 30
0.000000
  70
    32
  0
VERTEX
  8
241
  5
1E6B
 10
-1.19723
 20
6.95608
 30
0.000000
  70
    32
  0
VERTEX
  8
241
  5
1E6C
 10
-1.31289
 20
6.89048
 30
0.000000
  70
    32
  0
VERTEX
  8
241
  5
1E6D
 10
-1.42832
 20
6.82491
 30
0.000000
  70
    32
  0
VERTEX
  8
241
  5
1E6E
 10
-1.54346
 20
6.75937
 30
0.000000
  70
    32
  0
VERTEX
  8
241
  5
1E6F
 10
-1.65828
 20
6.69385
 30
0.000000
  70
    32
  0
VERTEX
  8
241
  5
1E70
 10
-1.77275
 20
6.62838
 30
0.000000
  70
    32
  0
VERTEX
  8
241
  5
1E71
 10
-1.88683
 20
6.56294
 30
0.000000
  70
    32
  0
VERTEX
  8
241
  5
1E72
 10
-2.00049
 20
6.49755
 30
0.000000
  70
    32
  0
VERTEX
  8
241
  5
1E73
 10
-2.11369
 20
6.43220
 30
0.000000
  70
    32
  0
VERTEX
  8
241
  5
1E74
 10
-2.22639
 20
6.36691
 30
0.000000
  70
    32
  0
VERTEX
  8
241
  5
1E75
 10
-2.33857
 20
6.30166
 30
0.000000
  70
    32
  0
VERTEX
  8
241
  5
1E76
 10
-2.45018
 20
6.23648
 30
0.000000
  70
    32
  0
VERTEX
  8
241
  5
1E77
 10
-2.56119
 20
6.17136
 30
0.000000
  70
    32
  0
VERTEX
  8
241
  5
1E78
 10
-2.67157
 20
6.10630
 30
0.000000
  70
    32
  0
VERTEX
  8
241
  5
1E79
 10
-2.78127
 20
6.04131
 30
0.000000
  70
    32
  0
VERTEX
  8
241
  5
1E7A
 10
-2.89027
 20
5.97639
 30
0.000000
  70
    32
  0
VERTEX
  8
241
  5
1E7B
 10
-2.99853
 20
5.91155
 30
0.000000
  70
    32
  0
VERTEX
  8
241
  5
1E7C
 10
-3.10601
 20
5.84678
 30
0.000000
  70
    32
  0
VERTEX
  8
241
  5
1E7D
 10
-3.21269
 20
5.78210
 30
0.000000
  70
    32
  0
VERTEX
  8
241
  5
1E7E
 10
-3.31851
 20
5.71751
 30
0.000000
  70
    32
  0
VERTEX
  8
241
  5
1E7F
 10
-3.42345
 20
5.65300
 30
0.000000
  70
    32
  0
VERTEX
  8
241
  5
1E80
 10
-3.52748
 20
5.58859
 30
0.000000
  70
    32
  0
VERTEX
  8
241
  5
1E81
 10
-3.63055
 20
5.52428
 30
0.000000
  70
    32
  0
VERTEX
  8
241
  5
1E82
 10
-3.73263
 20
5.46006
 30
0.000000
  70
    32
  0
VERTEX
  8
241
  5
1E83
 10
-3.83369
 20
5.39595
 30
0.000000
  70
    32
  0
VERTEX
  8
241
  5
1E84
 10
-3.93370
 20
5.33195
 30
0.000000
  70
    32
  0
VERTEX
  8
241
  5
1E85
 10
-4.03260
 20
5.26806
 30
0.000000
  70
    32
  0
VERTEX
  8
241
  5
1E86
 10
-4.13038
 20
5.20429
 30
0.000000
  70
    32
  0
VERTEX
  8
241
  5
1E87
 10
-4.22700
 20
5.14063
 30
0.000000
  70
    32
  0
VERTEX
  8
241
  5
1E88
 10
-4.32241
 20
5.07710
 30
0.000000
  70
    32
  0
VERTEX
  8
241
  5
1E89
 10
-4.41659
 20
5.01369
 30
0.000000
  70
    32
  0
VERTEX
  8
241
  5
1E8A
 10
-4.50950
 20
4.95041
 30
0.000000
  70
    32
  0
VERTEX
  8
241
  5
1E8B
 10
-4.60111
 20
4.88727
 30
0.000000
  70
    32
  0
VERTEX
  8
241
  5
1E8C
 10
-4.69137
 20
4.82426
 30
0.000000
  70
    32
  0
VERTEX
  8
241
  5
1E8D
 10
-4.78026
 20
4.76139
 30
0.000000
  70
    32
  0
VERTEX
  8
241
  5
1E8E
 10
-4.86773
 20
4.69867
 30
0.000000
  70
    32
  0
VERTEX
  8
241
  5
1E8F
 10
-4.95376
 20
4.63609
 30
0.000000
  70
    32
  0
VERTEX
  8
241
  5
1E90
 10
-5.03831
 20
4.57367
 30
0.000000
  70
    32
  0
VERTEX
  8
241
  5
1E91
 10
-5.12134
 20
4.51140
 30
0.000000
  70
    32
  0
VERTEX
  8
241
  5
1E92
 10
-5.20282
 20
4.44929
 30
0.000000
  70
    32
  0
VERTEX
  8
241
  5
1E93
 10
-5.28271
 20
4.38733
 30
0.000000
  70
    32
  0
VERTEX
  8
241
  5
1E94
 10
-5.36097
 20
4.32555
 30
0.000000
  70
    32
  0
VERTEX
  8
241
  5
1E95
 10
-5.43758
 20
4.26393
 30
0.000000
  70
    32
  0
VERTEX
  8
241
  5
1E96
 10
-5.51249
 20
4.20249
 30
0.000000
  70
    32
  0
VERTEX
  8
241
  5
1E97
 10
-5.58568
 20
4.14122
 30
0.000000
  70
    32
  0
VERTEX
  8
241
  5
1E98
 10
-5.65710
 20
4.08014
 30
0.000000
  70
    32
  0
VERTEX
  8
241
  5
1E99
 10
-5.72672
 20
4.01923
 30
0.000000
  70
    32
  0
VERTEX
  8
241
  5
1E9A
 10
-5.79451
 20
3.95852
 30
0.000000
  70
    32
  0
VERTEX
  8
241
  5
1E9B
 10
-5.86042
 20
3.89799
 30
0.000000
  70
    32
  0
VERTEX
  8
241
  5
1E9C
 10
-5.92443
 20
3.83766
 30
0.000000
  70
    32
  0
VERTEX
  8
241
  5
1E9D
 10
-5.98650
 20
3.77752
 30
0.000000
  70
    32
  0
VERTEX
  8
241
  5
1E9E
 10
-6.04660
 20
3.71759
 30
0.000000
  70
    32
  0
VERTEX
  8
241
  5
1E9F
 10
-6.10468
 20
3.65787
 30
0.000000
  70
    32
  0
VERTEX
  8
241
  5
1EA0
 10
-6.16071
 20
3.59835
 30
0.000000
  70
    32
  0
VERTEX
  8
241
  5
1EA1
 10
-6.21467
 20
3.53904
 30
0.000000
  70
    32
  0
VERTEX
  8
241
  5
1EA2
 10
-6.26650
 20
3.47995
 30
0.000000
  70
    32
  0
VERTEX
  8
241
  5
1EA3
 10
-6.31619
 20
3.42108
 30
0.000000
  70
    32
  0
VERTEX
  8
241
  5
1EA4
 10
-6.36369
 20
3.36243
 30
0.000000
  70
    32
  0
VERTEX
  8
241
  5
1EA5
 10
-6.40896
 20
3.30401
 30
0.000000
  70
    32
  0
VERTEX
  8
241
  5
1EA6
 10
-6.45198
 20
3.24582
 30
0.000000
  70
    32
  0
VERTEX
  8
241
  5
1EA7
 10
-6.49270
 20
3.18786
 30
0.000000
  70
    32
  0
VERTEX
  8
241
  5
1EA8
 10
-6.53109
 20
3.13014
 30
0.000000
  70
    32
  0
VERTEX
  8
241
  5
1EA9
 10
-6.56712
 20
3.07266
 30
0.000000
  70
    32
  0
VERTEX
  8
241
  5
1EAA
 10
-6.60075
 20
3.01543
 30
0.000000
  70
    32
  0
VERTEX
  8
241
  5
1EAB
 10
-6.63194
 20
2.95844
 30
0.000000
  70
    32
  0
VERTEX
  8
241
  5
1EAC
 10
-6.66067
 20
2.90171
 30
0.000000
  70
    32
  0
VERTEX
  8
241
  5
1EAD
 10
-6.68689
 20
2.84523
 30
0.000000
  70
    32
  0
VERTEX
  8
241
  5
1EAE
 10
-6.71057
 20
2.78901
 30
0.000000
  70
    32
  0
VERTEX
  8
241
  5
1EAF
 10
-6.73167
 20
2.73305
 30
0.000000
  70
    32
  0
VERTEX
  8
241
  5
1EB0
 10
-6.75016
 20
2.67736
 30
0.000000
  70
    32
  0
VERTEX
  8
241
  5
1EB1
 10
-6.76601
 20
2.62194
 30
0.000000
  70
    32
  0
VERTEX
  8
241
  5
1EB2
 10
-6.77917
 20
2.56679
 30
0.000000
  70
    32
  0
VERTEX
  8
241
  5
1EB3
 10
-6.78962
 20
2.51192
 30
0.000000
  70
    32
  0
VERTEX
  8
241
  5
1EB4
 10
-6.79731
 20
2.45733
 30
0.000000
  70
    32
  0
VERTEX
  8
241
  5
1EB5
 10
-6.80222
 20
2.40303
 30
0.000000
  70
    32
  0
VERTEX
  8
241
  5
1EB6
 10
-6.80430
 20
2.34901
 30
0.000000
  70
    32
  0
VERTEX
  8
241
  5
1EB7
 10
-6.80353
 20
2.29528
 30
0.000000
  70
    32
  0
VERTEX
  8
241
  5
1EB8
 10
-6.79986
 20
2.24185
 30
0.000000
  70
    32
  0
VERTEX
  8
241
  5
1EB9
 10
-6.79326
 20
2.18872
 30
0.000000
  70
    32
  0
VERTEX
  8
241
  5
1EBA
 10
-6.78370
 20
2.13589
 30
0.000000
  70
    32
  0
VERTEX
  8
241
  5
1EBB
 10
-6.77116
 20
2.08336
 30
0.000000
  70
    32
  0
VERTEX
  8
241
  5
1EBC
 10
-6.75566
 20
2.03113
 30
0.000000
  70
    32
  0
VERTEX
  8
241
  5
1EBD
 10
-6.73725
 20
1.97921
 30
0.000000
  70
    32
  0
VERTEX
  8
241
  5
1EBE
 10
-6.71596
 20
1.92757
 30
0.000000
  70
    32
  0
VERTEX
  8
241
  5
1EBF
 10
-6.69184
 20
1.87622
 30
0.000000
  70
    32
  0
VERTEX
  8
241
  5
1EC0
 10
-6.66493
 20
1.82516
 30
0.000000
  70
    32
  0
VERTEX
  8
241
  5
1EC1
 10
-6.63527
 20
1.77438
 30
0.000000
  70
    32
  0
VERTEX
  8
241
  5
1EC2
 10
-6.60290
 20
1.72387
 30
0.000000
  70
    32
  0
VERTEX
  8
241
  5
1EC3
 10
-6.56786
 20
1.67364
 30
0.000000
  70
    32
  0
VERTEX
  8
241
  5
1EC4
 10
-6.53018
 20
1.62368
 30
0.000000
  70
    32
  0
VERTEX
  8
241
  5
1EC5
 10
-6.48992
 20
1.57398
 30
0.000000
  70
    32
  0
VERTEX
  8
241
  5
1EC6
 10
-6.44711
 20
1.52454
 30
0.000000
  70
    32
  0
VERTEX
  8
241
  5
1EC7
 10
-6.40179
 20
1.47535
 30
0.000000
  70
    32
  0
VERTEX
  8
241
  5
1EC8
 10
-6.35400
 20
1.42642
 30
0.000000
  70
    32
  0
VERTEX
  8
241
  5
1EC9
 10
-6.30378
 20
1.37773
 30
0.000000
  70
    32
  0
VERTEX
  8
241
  5
1ECA
 10
-6.25118
 20
1.32929
 30
0.000000
  70
    32
  0
VERTEX
  8
241
  5
1ECB
 10
-6.19623
 20
1.28109
 30
0.000000
  70
    32
  0
VERTEX
  8
241
  5
1ECC
 10
-6.13897
 20
1.23312
 30
0.000000
  70
    32
  0
VERTEX
  8
241
  5
1ECD
 10
-6.07945
 20
1.18538
 30
0.000000
  70
    32
  0
VERTEX
  8
241
  5
1ECE
 10
-6.01770
 20
1.13787
 30
0.000000
  70
    32
  0
VERTEX
  8
241
  5
1ECF
 10
-5.95376
 20
1.09058
 30
0.000000
  70
    32
  0
VERTEX
  8
241
  5
1ED0
 10
-5.88769
 20
1.04351
 30
0.000000
  70
    32
  0
VERTEX
  8
241
  5
1ED1
 10
-5.81950
 20
0.996660
 30
0.000000
  70
    32
  0
VERTEX
  8
241
  5
1ED2
 10
-5.74926
 20
0.950016
 30
0.000000
  70
    32
  0
VERTEX
  8
241
  5
1ED3
 10
-5.67699
 20
0.903579
 30
0.000000
  70
    32
  0
VERTEX
  8
241
  5
1ED4
 10
-5.60273
 20
0.857343
 30
0.000000
  70
    32
  0
VERTEX
  8
241
  5
1ED5
 10
-5.52654
 20
0.811306
 30
0.000000
  70
    32
  0
VERTEX
  8
241
  5
1ED6
 10
-5.44844
 20
0.765463
 30
0.000000
  70
    32
  0
VERTEX
  8
241
  5
1ED7
 10
-5.36848
 20
0.719809
 30
0.000000
  70
    32
  0
VERTEX
  8
241
  5
1ED8
 10
-5.28670
 20
0.674341
 30
0.000000
  70
    32
  0
VERTEX
  8
241
  5
1ED9
 10
-5.20315
 20
0.629054
 30
0.000000
  70
    32
  0
VERTEX
  8
241
  5
1EDA
 10
-5.11785
 20
0.583945
 30
0.000000
  70
    32
  0
VERTEX
  8
241
  5
1EDB
 10
-5.03085
 20
0.539009
 30
0.000000
  70
    32
  0
VERTEX
  8
241
  5
1EDC
 10
-4.94219
 20
0.494243
 30
0.000000
  70
    32
  0
VERTEX
  8
241
  5
1EDD
 10
-4.85191
 20
0.449641
 30
0.000000
  70
    32
  0
VERTEX
  8
241
  5
1EDE
 10
-4.76006
 20
0.405200
 30
0.000000
  70
    32
  0
VERTEX
  8
241
  5
1EDF
 10
-4.66667
 20
0.360916
 30
0.000000
  70
    32
  0
VERTEX
  8
241
  5
1EE0
 10
-4.57178
 20
0.316785
 30
0.000000
  70
    32
  0
VERTEX
  8
241
  5
1EE1
 10
-4.47543
 20
0.272802
 30
0.000000
  70
    32
  0
VERTEX
  8
241
  5
1EE2
 10
-4.37767
 20
0.228963
 30
0.000000
  70
    32
  0
VERTEX
  8
241
  5
1EE3
 10
-4.27853
 20
0.185265
 30
0.000000
  70
    32
  0
VERTEX
  8
241
  5
1EE4
 10
-4.17806
 20
0.141703
 30
0.000000
  70
    32
  0
VERTEX
  8
241
  5
1EE5
 10
-4.07629
 20
0.0982727
 30
0.000000
  70
    32
  0
VERTEX
  8
241
  5
1EE6
 10
-3.97327
 20
0.0549705
 30
0.000000
  70
    32
  0
VERTEX
  8
241
  5
1EE7
 10
-3.86903
 20
0.0117921
 30
0.000000
  70
    32
  0
VERTEX
  8
241
  5
1EE8
 10
-3.76362
 20
-0.0312667
 30
0.000000
  70
    32
  0
VERTEX
  8
241
  5
1EE9
 10
-3.65708
 20
-0.0742100
 30
0.000000
  70
    32
  0
VERTEX
  8
241
  5
1EEA
 10
-3.54944
 20
-0.117042
 30
0.000000
  70
    32
  0
VERTEX
  8
241
  5
1EEB
 10
-3.44075
 20
-0.159767
 30
0.000000
  70
    32
  0
VERTEX
  8
241
  5
1EEC
 10
-3.33106
 20
-0.202388
 30
0.000000
  70
    32
  0
VERTEX
  8
241
  5
1EED
 10
-3.22038
 20
-0.244911
 30
0.000000
  70
    32
  0
VERTEX
  8
241
  5
1EEE
 10
-3.10878
 20
-0.287338
 30
0.000000
  70
    32
  0
VERTEX
  8
241
  5
1EEF
 10
-2.99629
 20
-0.329675
 30
0.000000
  70
    32
  0
VERTEX
  8
241
  5
1EF0
 10
-2.88295
 20
-0.371925
 30
0.000000
  70
    32
  0
VERTEX
  8
241
  5
1EF1
 10
-2.76880
 20
-0.414093
 30
0.000000
  70
    32
  0
VERTEX
  8
241
  5
1EF2
 10
-2.65388
 20
-0.456182
 30
0.000000
  70
    32
  0
VERTEX
  8
241
  5
1EF3
 10
-2.53823
 20
-0.498197
 30
0.000000
  70
    32
  0
VERTEX
  8
241
  5
1EF4
 10
-2.42190
 20
-0.540142
 30
0.000000
  70
    32
  0
VERTEX
  8
241
  5
1EF5
 10
-2.30492
 20
-0.582021
 30
0.000000
  70
    32
  0
VERTEX
  8
241
  5
1EF6
 10
-2.18733
 20
-0.623838
 30
0.000000
  70
    32
  0
VERTEX
  8
241
  5
1EF7
 10
-2.06917
 20
-0.665598
 30
0.000000
  70
    32
  0
VERTEX
  8
241
  5
1EF8
 10
-1.95049
 20
-0.707303
 30
0.000000
  70
    32
  0
VERTEX
  8
241
  5
1EF9
 10
-1.83132
 20
-0.748959
 30
0.000000
  70
    32
  0
VERTEX
  8
241
  5
1EFA
 10
-1.71171
 20
-0.790570
 30
0.000000
  70
    32
  0
VERTEX
  8
241
  5
1EFB
 10
-1.59169
 20
-0.832140
 30
0.000000
  70
    32
  0
VERTEX
  8
241
  5
1EFC
 10
-1.47131
 20
-0.873672
 30
0.000000
  70
    32
  0
VERTEX
  8
241
  5
1EFD
 10
-1.35060
 20
-0.915171
 30
0.000000
  70
    32
  0
VERTEX
  8
241
  5
1EFE
 10
-1.22961
 20
-0.956642
 30
0.000000
  70
    32
  0
VERTEX
  8
241
  5
1EFF
 10
-1.10838
 20
-0.998088
 30
0.000000
  70
    32
  0
VERTEX
  8
241
  5
1F00
 10
-0.986949
 20
-1.03951
 30
0.000000
  70
    32
  0
VERTEX
  8
241
  5
1F01
 10
-0.865353
 20
-1.08092
 30
0.000000
  70
    32
  0
VERTEX
  8
241
  5
1F02
 10
-0.743636
 20
-1.12232
 30
0.000000
  70
    32
  0
VERTEX
  8
241
  5
1F03
 10
-0.621838
 20
-1.16371
 30
0.000000
  70
    32
  0
VERTEX
  8
241
  5
1F04
 10
-0.500000
 20
-1.20509
 30
0.000000
  70
    32
  0
SEQEND
  8
241
  5
1F05
  0
LINE
  5
1B04
  8
243
 10
0.2500000000002274
 20
6.2523755933164287
 30
0.0
 11
0.2500000000002274
 21
1.499999999999857
 31
0.0
  0
LINE
  5
1B05
  8
243
 10
2.7499999999999432
 20
6.1891252930766711
 30
0.0
 11
2.7499999999999432
 21
-1.499999999999998
 31
0.0
  0
POLYLINE
  5
1B06
  8
241
 10
0.2878100539871555
 20
6.2391058360142226
 30
0.0
 66
     1
 70
     8
  0
VERTEX
  8
241
  5
1F06
 10
0.287810
 20
6.23911
 30
0.000000
  70
    32
  0
VERTEX
  8
241
  5
1F07
 10
0.294343
 20
6.17077
 30
0.000000
  70
    32
  0
VERTEX
  8
241
  5
1F08
 10
0.301387
 20
6.10282
 30
0.000000
  70
    32
  0
VERTEX
  8
241
  5
1F09
 10
0.308938
 20
6.03528
 30
0.000000
  70
    32
  0
VERTEX
  8
241
  5
1F0A
 10
0.316993
 20
5.96818
 30
0.000000
  70
    32
  0
VERTEX
  8
241
  5
1F0B
 10
0.325549
 20
5.90155
 30
0.000000
  70
    32
  0
VERTEX
  8
241
  5
1F0C
 10
0.334602
 20
5.83541
 30
0.000000
  70
    32
  0
VERTEX
  8
241
  5
1F0D
 10
0.344148
 20
5.76981
 30
0.000000
  70
    32
  0
VERTEX
  8
241
  5
1F0E
 10
0.354183
 20
5.70476
 30
0.000000
  70
    32
  0
VERTEX
  8
241
  5
1F0F
 10
0.364703
 20
5.64028
 30
0.000000
  70
    32
  0
VERTEX
  8
241
  5
1F10
 10
0.375704
 20
5.57642
 30
0.000000
  70
    32
  0
VERTEX
  8
241
  5
1F11
 10
0.387181
 20
5.51319
 30
0.000000
  70
    32
  0
VERTEX
  8
241
  5
1F12
 10
0.399128
 20
5.45062
 30
0.000000
  70
    32
  0
VERTEX
  8
241
  5
1F13
 10
0.411542
 20
5.38875
 30
0.000000
  70
    32
  0
VERTEX
  8
241
  5
1F14
 10
0.424416
 20
5.32758
 30
0.000000
  70
    32
  0
VERTEX
  8
241
  5
1F15
 10
0.437746
 20
5.26716
 30
0.000000
  70
    32
  0
VERTEX
  8
241
  5
1F16
 10
0.451525
 20
5.20750
 30
0.000000
  70
    32
  0
VERTEX
  8
241
  5
1F17
 10
0.465748
 20
5.14864
 30
0.000000
  70
    32
  0
VERTEX
  8
241
  5
1F18
 10
0.480408
 20
5.09059
 30
0.000000
  70
    32
  0
VERTEX
  8
241
  5
1F19
 10
0.495500
 20
5.03338
 30
0.000000
  70
    32
  0
VERTEX
  8
241
  5
1F1A
 10
0.511018
 20
4.97704
 30
0.000000
  70
    32
  0
VERTEX
  8
241
  5
1F1B
 10
0.526954
 20
4.92159
 30
0.000000
  70
    32
  0
VERTEX
  8
241
  5
1F1C
 10
0.543301
 20
4.86705
 30
0.000000
  70
    32
  0
VERTEX
  8
241
  5
1F1D
 10
0.560054
 20
4.81344
 30
0.000000
  70
    32
  0
VERTEX
  8
241
  5
1F1E
 10
0.577204
 20
4.76079
 30
0.000000
  70
    32
  0
VERTEX
  8
241
  5
1F1F
 10
0.594746
 20
4.70913
 30
0.000000
  70
    32
  0
VERTEX
  8
241
  5
1F20
 10
0.612670
 20
4.65846
 30
0.000000
  70
    32
  0
VERTEX
  8
241
  5
1F21
 10
0.630969
 20
4.60882
 30
0.000000
  70
    32
  0
VERTEX
  8
241
  5
1F22
 10
0.649637
 20
4.56022
 30
0.000000
  70
    32
  0
VERTEX
  8
241
  5
1F23
 10
0.668665
 20
4.51269
 30
0.000000
  70
    32
  0
VERTEX
  8
241
  5
1F24
 10
0.688044
 20
4.46625
 30
0.000000
  70
    32
  0
VERTEX
  8
241
  5
1F25
 10
0.707767
 20
4.42091
 30
0.000000
  70
    32
  0
VERTEX
  8
241
  5
1F26
 10
0.727825
 20
4.37669
 30
0.000000
  70
    32
  0
VERTEX
  8
241
  5
1F27
 10
0.748210
 20
4.33362
 30
0.000000
  70
    32
  0
VERTEX
  8
241
  5
1F28
 10
0.768914
 20
4.29171
 30
0.000000
  70
    32
  0
VERTEX
  8
241
  5
1F29
 10
0.789926
 20
4.25098
 30
0.000000
  70
    32
  0
VERTEX
  8
241
  5
1F2A
 10
0.811240
 20
4.21144
 30
0.000000
  70
    32
  0
VERTEX
  8
241
  5
1F2B
 10
0.832845
 20
4.17312
 30
0.000000
  70
    32
  0
VERTEX
  8
241
  5
1F2C
 10
0.854732
 20
4.13603
 30
0.000000
  70
    32
  0
VERTEX
  8
241
  5
1F2D
 10
0.876892
 20
4.10018
 30
0.000000
  70
    32
  0
VERTEX
  8
241
  5
1F2E
 10
0.899316
 20
4.06559
 30
0.000000
  70
    32
  0
VERTEX
  8
241
  5
1F2F
 10
0.921994
 20
4.03227
 30
0.000000
  70
    32
  0
VERTEX
  8
241
  5
1F30
 10
0.944917
 20
4.00025
 30
0.000000
  70
    32
  0
VERTEX
  8
241
  5
1F31
 10
0.968075
 20
3.96953
 30
0.000000
  70
    32
  0
VERTEX
  8
241
  5
1F32
 10
0.991458
 20
3.94012
 30
0.000000
  70
    32
  0
VERTEX
  8
241
  5
1F33
 10
1.01506
 20
3.91204
 30
0.000000
  70
    32
  0
VERTEX
  8
241
  5
1F34
 10
1.03886
 20
3.88530
 30
0.000000
  70
    32
  0
VERTEX
  8
241
  5
1F35
 10
1.06286
 20
3.85991
 30
0.000000
  70
    32
  0
VERTEX
  8
241
  5
1F36
 10
1.08704
 20
3.83589
 30
0.000000
  70
    32
  0
VERTEX
  8
241
  5
1F37
 10
1.11140
 20
3.81323
 30
0.000000
  70
    32
  0
VERTEX
  8
241
  5
1F38
 10
1.13592
 20
3.79196
 30
0.000000
  70
    32
  0
VERTEX
  8
241
  5
1F39
 10
1.16060
 20
3.77208
 30
0.000000
  70
    32
  0
VERTEX
  8
241
  5
1F3A
 10
1.18542
 20
3.75359
 30
0.000000
  70
    32
  0
VERTEX
  8
241
  5
1F3B
 10
1.21037
 20
3.73652
 30
0.000000
  70
    32
  0
VERTEX
  8
241
  5
1F3C
 10
1.23545
 20
3.72085
 30
0.000000
  70
    32
  0
VERTEX
  8
241
  5
1F3D
 10
1.26064
 20
3.70661
 30
0.000000
  70
    32
  0
VERTEX
  8
241
  5
1F3E
 10
1.28593
 20
3.69379
 30
0.000000
  70
    32
  0
VERTEX
  8
241
  5
1F3F
 10
1.31131
 20
3.68241
 30
0.000000
  70
    32
  0
VERTEX
  8
241
  5
1F40
 10
1.33677
 20
3.67246
 30
0.000000
  70
    32
  0
VERTEX
  8
241
  5
1F41
 10
1.36230
 20
3.66396
 30
0.000000
  70
    32
  0
VERTEX
  8
241
  5
1F42
 10
1.38789
 20
3.65690
 30
0.000000
  70
    32
  0
VERTEX
  8
241
  5
1F43
 10
1.41352
 20
3.65129
 30
0.000000
  70
    32
  0
VERTEX
  8
241
  5
1F44
 10
1.43919
 20
3.64712
 30
0.000000
  70
    32
  0
VERTEX
  8
241
  5
1F45
 10
1.46489
 20
3.64441
 30
0.000000
  70
    32
  0
VERTEX
  8
241
  5
1F46
 10
1.49060
 20
3.64315
 30
0.000000
  70
    32
  0
VERTEX
  8
241
  5
1F47
 10
1.51632
 20
3.64335
 30
0.000000
  70
    32
  0
VERTEX
  8
241
  5
1F48
 10
1.54203
 20
3.64500
 30
0.000000
  70
    32
  0
VERTEX
  8
241
  5
1F49
 10
1.56772
 20
3.64810
 30
0.000000
  70
    32
  0
VERTEX
  8
241
  5
1F4A
 10
1.59338
 20
3.65265
 30
0.000000
  70
    32
  0
VERTEX
  8
241
  5
1F4B
 10
1.61901
 20
3.65866
 30
0.000000
  70
    32
  0
VERTEX
  8
241
  5
1F4C
 10
1.64458
 20
3.66611
 30
0.000000
  70
    32
  0
VERTEX
  8
241
  5
1F4D
 10
1.67009
 20
3.67500
 30
0.000000
  70
    32
  0
VERTEX
  8
241
  5
1F4E
 10
1.69553
 20
3.68533
 30
0.000000
  70
    32
  0
VERTEX
  8
241
  5
1F4F
 10
1.72089
 20
3.69710
 30
0.000000
  70
    32
  0
VERTEX
  8
241
  5
1F50
 10
1.74615
 20
3.71030
 30
0.000000
  70
    32
  0
VERTEX
  8
241
  5
1F51
 10
1.77131
 20
3.72493
 30
0.000000
  70
    32
  0
VERTEX
  8
241
  5
1F52
 10
1.79635
 20
3.74097
 30
0.000000
  70
    32
  0
VERTEX
  8
241
  5
1F53
 10
1.82127
 20
3.75843
 30
0.000000
  70
    32
  0
VERTEX
  8
241
  5
1F54
 10
1.84606
 20
3.77729
 30
0.000000
  70
    32
  0
VERTEX
  8
241
  5
1F55
 10
1.87069
 20
3.79755
 30
0.000000
  70
    32
  0
VERTEX
  8
241
  5
1F56
 10
1.89517
 20
3.81919
 30
0.000000
  70
    32
  0
VERTEX
  8
241
  5
1F57
 10
1.91948
 20
3.84222
 30
0.000000
  70
    32
  0
VERTEX
  8
241
  5
1F58
 10
1.94362
 20
3.86661
 30
0.000000
  70
    32
  0
VERTEX
  8
241
  5
1F59
 10
1.96757
 20
3.89237
 30
0.000000
  70
    32
  0
VERTEX
  8
241
  5
1F5A
 10
1.99132
 20
3.91947
 30
0.000000
  70
    32
  0
VERTEX
  8
241
  5
1F5B
 10
2.01486
 20
3.94791
 30
0.000000
  70
    32
  0
VERTEX
  8
241
  5
1F5C
 10
2.03818
 20
3.97767
 30
0.000000
  70
    32
  0
VERTEX
  8
241
  5
1F5D
 10
2.06128
 20
4.00874
 30
0.000000
  70
    32
  0
VERTEX
  8
241
  5
1F5E
 10
2.08413
 20
4.04112
 30
0.000000
  70
    32
  0
VERTEX
  8
241
  5
1F5F
 10
2.10674
 20
4.07477
 30
0.000000
  70
    32
  0
VERTEX
  8
241
  5
1F60
 10
2.12910
 20
4.10970
 30
0.000000
  70
    32
  0
VERTEX
  8
241
  5
1F61
 10
2.15119
 20
4.14589
 30
0.000000
  70
    32
  0
VERTEX
  8
241
  5
1F62
 10
2.17300
 20
4.18331
 30
0.000000
  70
    32
  0
VERTEX
  8
241
  5
1F63
 10
2.19453
 20
4.22196
 30
0.000000
  70
    32
  0
VERTEX
  8
241
  5
1F64
 10
2.21576
 20
4.26182
 30
0.000000
  70
    32
  0
VERTEX
  8
241
  5
1F65
 10
2.23669
 20
4.30288
 30
0.000000
  70
    32
  0
VERTEX
  8
241
  5
1F66
 10
2.25731
 20
4.34510
 30
0.000000
  70
    32
  0
VERTEX
  8
241
  5
1F67
 10
2.27761
 20
4.38848
 30
0.000000
  70
    32
  0
VERTEX
  8
241
  5
1F68
 10
2.29757
 20
4.43300
 30
0.000000
  70
    32
  0
VERTEX
  8
241
  5
1F69
 10
2.31721
 20
4.47864
 30
0.000000
  70
    32
  0
VERTEX
  8
241
  5
1F6A
 10
2.33649
 20
4.52538
 30
0.000000
  70
    32
  0
VERTEX
  8
241
  5
1F6B
 10
2.35542
 20
4.57320
 30
0.000000
  70
    32
  0
VERTEX
  8
241
  5
1F6C
 10
2.37399
 20
4.62208
 30
0.000000
  70
    32
  0
VERTEX
  8
241
  5
1F6D
 10
2.39219
 20
4.67200
 30
0.000000
  70
    32
  0
VERTEX
  8
241
  5
1F6E
 10
2.41001
 20
4.72293
 30
0.000000
  70
    32
  0
VERTEX
  8
241
  5
1F6F
 10
2.42745
 20
4.77487
 30
0.000000
  70
    32
  0
VERTEX
  8
241
  5
1F70
 10
2.44449
 20
4.82777
 30
0.000000
  70
    32
  0
VERTEX
  8
241
  5
1F71
 10
2.46114
 20
4.88163
 30
0.000000
  70
    32
  0
VERTEX
  8
241
  5
1F72
 10
2.47738
 20
4.93642
 30
0.000000
  70
    32
  0
VERTEX
  8
241
  5
1F73
 10
2.49320
 20
4.99212
 30
0.000000
  70
    32
  0
VERTEX
  8
241
  5
1F74
 10
2.50860
 20
5.04870
 30
0.000000
  70
    32
  0
VERTEX
  8
241
  5
1F75
 10
2.52358
 20
5.10613
 30
0.000000
  70
    32
  0
VERTEX
  8
241
  5
1F76
 10
2.53812
 20
5.16440
 30
0.000000
  70
    32
  0
VERTEX
  8
241
  5
1F77
 10
2.55223
 20
5.22348
 30
0.000000
  70
    32
  0
VERTEX
  8
241
  5
1F78
 10
2.56589
 20
5.28335
 30
0.000000
  70
    32
  0
VERTEX
  8
241
  5
1F79
 10
2.57909
 20
5.34397
 30
0.000000
  70
    32
  0
VERTEX
  8
241
  5
1F7A
 10
2.59184
 20
5.40533
 30
0.000000
  70
    32
  0
VERTEX
  8
241
  5
1F7B
 10
2.60413
 20
5.46740
 30
0.000000
  70
    32
  0
VERTEX
  8
241
  5
1F7C
 10
2.61595
 20
5.53014
 30
0.000000
  70
    32
  0
VERTEX
  8
241
  5
1F7D
 10
2.62730
 20
5.59355
 30
0.000000
  70
    32
  0
VERTEX
  8
241
  5
1F7E
 10
2.63818
 20
5.65758
 30
0.000000
  70
    32
  0
VERTEX
  8
241
  5
1F7F
 10
2.64857
 20
5.72221
 30
0.000000
  70
    32
  0
VERTEX
  8
241
  5
1F80
 10
2.65847
 20
5.78741
 30
0.000000
  70
    32
  0
VERTEX
  8
241
  5
1F81
 10
2.66788
 20
5.85316
 30
0.000000
  70
    32
  0
VERTEX
  8
241
  5
1F82
 10
2.67680
 20
5.91943
 30
0.000000
  70
    32
  0
VERTEX
  8
241
  5
1F83
 10
2.68522
 20
5.98619
 30
0.000000
  70
    32
  0
VERTEX
  8
241
  5
1F84
 10
2.69314
 20
6.05341
 30
0.000000
  70
    32
  0
VERTEX
  8
241
  5
1F85
 10
2.70056
 20
6.12107
 30
0.000000
  70
    32
  0
VERTEX
  8
241
  5
1F86
 10
2.70747
 20
6.18913
 30
0.000000
  70
    32
  0
SEQEND
  8
241
  5
1F87
  0
LINE
  5
1B07
  8
245
 10
1.5000000000001701
 20
0.9380278245619138
 30
0.0
 11
1.5000000000001701
 21
6.9042662789620399
 31
0.0
  0
LINE
  5
1B08
  8
240
 10
9.9999999999996305
 20
-2.9000000000000048
 30
0.0
 11
9.6999999999996191
 21
-3.1999999999999882
 31
0.0
  0
LINE
  5
1B09
  8
240
 10
9.6999999999998732
 20
11.4
 30
0.0
 11
4.9732050807569141
 21
11.4
 31
0.0
  0
LINE
  5
1B0A
  8
240
 10
9.6999999999998732
 20
11.4
 30
0.0
 11
9.9999999999999432
 21
11.099999999999991
 31
0.0
  0
LINE
  5
1B0B
  8
245
 10
-0.2000000000001307
 20
9.0000000000002451
 30
0.0
 11
5.1999999999998741
 21
9.0000000000002451
 31
0.0
  0
LINE
  5
1B0C
  8
241
 10
3.2999999999998968
 20
6.1891252930766711
 30
0.0
 11
1.7000000000001021
 21
6.1891252930766711
 31
0.0
  0
LINE
  5
1B0D
  8
241
 10
4.7999999999998977
 20
6.5000000000000906
 30
0.0
 11
0.1999999999998749
 21
6.5000000000000906
 31
0.0
  0
CIRCLE
  5
1B0E
  8
242
 10
2.4999999999998721
 20
9.0000000000002451
 30
0.0
 40
1.0
  0
LINE
  5
1B0F
  8
240
 10
4.7999999999998968
 20
11.499999999999959
 30
0.0
 11
0.1999999999998749
 21
11.50000000000021
 31
0.0
  0
LINE
  5
1B10
  8
241
 10
-0.0000000000001705
 20
6.7000000000000908
 30
0.0
 11
-0.0000000000001523
 21
7.43775010008014
 31
0.0
  0
LINE
  5
1B11
  8
240
 10
-0.0000000000001523
 20
7.43775010008014
 30
0.0
 11
-0.0000000000000568
 21
11.300000000000219
 31
0.0
  0
LINE
  5
1B12
  8
245
 10
2.5
 20
11.70000000000023
 30
0.0
 11
2.5
 21
6.3000000000002556
 31
0.0
  0
ARC
  5
1B13
  8
241
 10
0.5999999999998522
 20
7.1891252930763008
 30
0.0
 40
1.0
 50
170.74232902698569
 51
296.86479600378152
  0
ARC
  5
1B14
  8
241
 10
1.7000000000001021
 20
8.1891252930766711
 30
0.0
 40
2.0
 50
251.09158479933629
 51
270.0
  0
ARC
  5
1B15
  8
241
 10
0.1999999999998749
 20
6.7000000000000908
 30
0.0
 40
0.2
 50
180.0
 51
270.0
  0
ARC
  5
1B16
  8
240
 10
0.1999999999998749
 20
11.300000000000219
 30
0.0
 40
0.2
 50
89.999999999996746
 51
180.0
  0
LINE
  5
1B17
  8
241
 10
4.9999999999991473
 20
6.7000000000000908
 30
0.0
 11
4.9999999999994031
 21
11.4
 31
0.0
  0
LINE
  5
1B18
  8
241
 10
5.2999999999998968
 20
8.1891252930767848
 30
0.0
 11
5.2999999999991303
 21
11.401633115356979
 31
0.0
  0
ARC
  5
1B19
  8
241
 10
3.2999999999998968
 20
8.1891252930766711
 30
0.0
 40
2.0
 50
270.0
 51
302.37489268918341
  0
ARC
  5
1B1A
  8
241
 10
3.2999999999998968
 20
8.1891252930766711
 30
0.0
 40
2.0
 50
328.21166938290759
 51
0.0000000000032569
  0
ARC
  5
1B1B
  8
241
 10
4.7999999999998968
 20
6.7000000000000908
 30
0.0
 40
0.2
 50
270.00000000000023
 51
0.0
  0
ARC
  5
1B1C
  8
241
 10
4.7999999999998968
 20
11.300000000000219
 30
0.0
 40
0.2
 50
0.0
 51
29.999999999929699
  0
ARC
  5
1B1D
  8
240
 10
4.7999999999998968
 20
11.300000000000219
 30
0.0
 40
0.2
 50
29.999999999929699
 51
90.0
  0
ARC
  5
1B1E
  8
240
 10
-0.2500000000002274
 20
7.75
 30
0.0
 40
0.4
 50
270.0
 51
308.6821874535031
  0
ARC
  5
1B1F
  8
240
 10
-56.414213562372652
 20
9.0000000000000284
 30
0.0
 40
1.0
 50
45.000000000011511
 51
90.0
  0
ARC
  5
1B20
  8
240
 10
-56.414213562372908
 20
-8.9999999999999716
 30
0.0
 40
1.0
 50
270.0
 51
315.00000000002188
  0
LINE
  5
1B21
  8
247
 10
-111.9992192046514
 20
8.1519634243029273
 30
0.0
 11
-111.9992192046514
 21
8.1519634243029273
 31
0.0
1001
HATCH_DISTANCE
1040
1.0
1001
HATCH_DISPLAY
1070
     0
1001
HATCH_TYPE
1070
     7
  0
LINE
  5
1B22
  8
247
 10
-112.0905087249151
 20
8.4414646144884724
 30
0.0
 11
-111.9992192046514
 21
8.1519634243029273
 31
0.0
1001
HATCH_DISTANCE
1040
1.0
1001
HATCH_DISPLAY
1070
     0
1001
HATCH_TYPE
1070
     7
  0
LINE
  5
1B23
  8
247
 10
-112.0905087249151
 20
8.4414646144884724
 30
0.0
 11
-112.0905087249151
 21
8.4414646144884724
 31
0.0
1001
HATCH_DISTANCE
1040
1.0
1001
HATCH_DISPLAY
1070
     0
1001
HATCH_TYPE
1070
     7
  0
LINE
  5
1B24
  8
247
 10
-111.9992192046514
 20
8.1519634243029273
 30
0.0
 11
-112.0905087249151
 21
8.4414646144884724
 31
0.0
1001
HATCH_DISTANCE
1040
1.0
1001
HATCH_DISPLAY
1070
     0
1001
HATCH_TYPE
1070
     7
  0
LINE
  5
1B25
  8
247
 10
-111.9992192046514
 20
8.1519634243029273
 30
0.0
 11
-111.9992192046514
 21
8.1519634243029273
 31
0.0
  0
LINE
  5
1B26
  8
247
 10
-112.0905087249151
 20
8.4414646144884724
 30
0.0
 11
-111.9992192046514
 21
8.1519634243029273
 31
0.0
  0
LINE
  5
1B27
  8
247
 10
-112.0905087249151
 20
8.4414646144884724
 30
0.0
 11
-112.0905087249151
 21
8.4414646144884724
 31
0.0
  0
LINE
  5
1B28
  8
247
 10
-111.9992192046514
 20
8.1519634243029273
 30
0.0
 11
-112.0905087249151
 21
8.4414646144884724
 31
0.0
  0
LINE
  5
1B29
  8
247
 10
-111.9992192046514
 20
8.1519634243029273
 30
0.0
 11
-111.9992192046514
 21
8.1519634243029273
 31
0.0
1001
HATCH_DISTANCE
1040
1.0
1001
HATCH_DISPLAY
1070
     0
1001
HATCH_TYPE
1070
     7
  0
LINE
  5
1B2A
  8
247
 10
-112.0905087249151
 20
8.4414646144884724
 30
0.0
 11
-111.9992192046514
 21
8.1519634243029273
 31
0.0
1001
HATCH_DISTANCE
1040
1.0
1001
HATCH_DISPLAY
1070
     0
1001
HATCH_TYPE
1070
     7
  0
LINE
  5
1B2B
  8
247
 10
-112.0905087249151
 20
8.4414646144884724
 30
0.0
 11
-112.0905087249151
 21
8.4414646144884724
 31
0.0
1001
HATCH_DISTANCE
1040
1.0
1001
HATCH_DISPLAY
1070
     0
1001
HATCH_TYPE
1070
     7
  0
LINE
  5
1B2C
  8
247
 10
-111.9992192046514
 20
8.1519634243029273
 30
0.0
 11
-112.0905087249151
 21
8.4414646144884724
 31
0.0
1001
HATCH_DISTANCE
1040
1.0
1001
HATCH_DISPLAY
1070
     0
1001
HATCH_TYPE
1070
     7
  0
LINE
  5
1B2D
  8
247
 10
-111.9992192046514
 20
8.1519634243029273
 30
0.0
 11
-111.9992192046514
 21
8.1519634243029273
 31
0.0
  0
LINE
  5
1B2E
  8
247
 10
-112.0905087249151
 20
8.4414646144884724
 30
0.0
 11
-111.9992192046514
 21
8.1519634243029273
 31
0.0
  0
LINE
  5
1B2F
  8
247
 10
-112.0905087249151
 20
8.4414646144884724
 30
0.0
 11
-112.0905087249151
 21
8.4414646144884724
 31
0.0
  0
LINE
  5
1B30
  8
247
 10
-111.9992192046514
 20
8.1519634243029273
 30
0.0
 11
-112.0905087249151
 21
8.4414646144884724
 31
0.0
  0
LINE
  5
1B31
  8
247
 10
-114.0430767791143
 20
8.494050216295113
 30
0.0
 11
-114.8314373748174
 21
8.494050216295113
 31
0.0
1001
HATCH_DISTANCE
1040
1.0
1001
HATCH_DISPLAY
1070
     0
1001
HATCH_TYPE
1070
     7
  0
LINE
  5
1B32
  8
247
 10
-114.8253605620733
 20
5.765892815210214
 30
0.0
 11
-114.0430767791143
 21
8.494050216295113
 31
0.0
1001
HATCH_DISTANCE
1040
1.0
1001
HATCH_DISPLAY
1070
     0
1001
HATCH_TYPE
1070
     7
  0
LINE
  5
1B33
  8
247
 10
-115.50335433648731
 20
5.765892815210214
 30
0.0
 11
-114.8253605620733
 21
5.765892815210214
 31
0.0
1001
HATCH_DISTANCE
1040
1.0
1001
HATCH_DISPLAY
1070
     0
1001
HATCH_TYPE
1070
     7
  0
LINE
  5
1B34
  8
247
 10
-114.8166744963994
 20
8.160615157701363
 30
0.0
 11
-115.50335433648731
 21
5.765892815210214
 31
0.0
1001
HATCH_DISTANCE
1040
1.0
1001
HATCH_DISPLAY
1070
     0
1001
HATCH_TYPE
1070
     7
  0
LINE
  5
1B35
  8
247
 10
-114.9270527617803
 20
8.160615157701363
 30
0.0
 11
-114.8166744963994
 21
8.160615157701363
 31
0.0
1001
HATCH_DISTANCE
1040
1.0
1001
HATCH_DISPLAY
1070
     0
1001
HATCH_TYPE
1070
     7
  0
LINE
  5
1B36
  8
247
 10
-114.8314373748174
 20
8.494050216295113
 30
0.0
 11
-114.9270527617803
 21
8.160615157701363
 31
0.0
1001
HATCH_DISTANCE
1040
1.0
1001
HATCH_DISPLAY
1070
     0
1001
HATCH_TYPE
1070
     7
  0
LINE
  5
1B37
  8
247
 10
-114.0430767791143
 20
8.494050216295113
 30
0.0
 11
-114.8314373748174
 21
8.494050216295113
 31
0.0
  0
LINE
  5
1B38
  8
247
 10
-114.8253605620733
 20
5.765892815210214
 30
0.0
 11
-114.0430767791143
 21
8.494050216295113
 31
0.0
  0
LINE
  5
1B39
  8
247
 10
-115.50335433648731
 20
5.765892815210214
 30
0.0
 11
-114.8253605620733
 21
5.765892815210214
 31
0.0
  0
LINE
  5
1B3A
  8
247
 10
-114.8166744963994
 20
8.160615157701363
 30
0.0
 11
-115.50335433648731
 21
5.765892815210214
 31
0.0
  0
LINE
  5
1B3B
  8
247
 10
-114.9270527617803
 20
8.160615157701363
 30
0.0
 11
-114.8166744963994
 21
8.160615157701363
 31
0.0
  0
LINE
  5
1B3C
  8
247
 10
-114.8314373748174
 20
8.494050216295113
 30
0.0
 11
-114.9270527617803
 21
8.160615157701363
 31
0.0
  0
LINE
  5
1B3D
  8
247
 10
-114.84317656871769
 20
5.7658928152102069
 30
0.0
 11
-114.8181981374712
 21
5.7908712464567378
 31
0.0
  0
LINE
  5
1B3E
  8
247
 10
-115.1799361732578
 20
5.765892815210214
 30
0.0
 11
-114.68281340593811
 21
6.26301558252998
 31
0.0
  0
LINE
  5
1B3F
  8
247
 10
-115.4979907118862
 20
5.784597881121889
 30
0.0
 11
-114.5474286744049
 21
6.735159918603201
 31
0.0
  0
LINE
  5
1B40
  8
247
 10
-115.3626041327652
 20
6.2567440647829846
 30
0.0
 11
-114.4120439428718
 21
7.2073042546764441
 31
0.0
  0
LINE
  5
1B41
  8
247
 10
-115.22721755364419
 20
6.728890248444066
 30
0.0
 11
-114.2766592113386
 21
7.6794485907496721
 31
0.0
  0
LINE
  5
1B42
  8
247
 10
-115.09183097452321
 20
7.2010364321051616
 30
0.0
 11
-114.1412744798055
 21
8.1515929268229002
 31
0.0
  0
LINE
  5
1B43
  8
247
 10
-114.9564443954022
 20
7.6731826157662359
 30
0.0
 11
-114.1355767948734
 21
8.4940502162951006
 31
0.0
  0
LINE
  5
1B44
  8
247
 10
-114.8210578162812
 20
8.1453287994273396
 30
0.0
 11
-114.47233639941339
 21
8.4940502162951148
 31
0.0
  0
LINE
  5
1B45
  8
247
 10
-114.8404197218444
 20
8.4627264984042938
 30
0.0
 11
-114.8090960039536
 21
8.4940502162951077
 31
0.0
  0
LINE
  5
1B46
  8
247
 10
-111.1718260390376
 20
5.3961280904091424
 30
0.0
 11
-110.1782746178279
 21
6.3896795116188789
 31
0.0
  0
LINE
  5
1B47
  8
247
 10
-110.494144622135
 20
6.4105691118519337
 30
0.0
 11
-110.0961235600448
 21
6.8085901739421137
 31
0.0
  0
LINE
  5
1B48
  8
247
 10
-111.5907367013609
 20
5.3139770326260196
 30
0.0
 11
-111.1927156392707
 21
5.7119980947161997
 31
0.0
  0
LINE
  5
1B49
  8
247
 10
-110.3978247093948
 20
6.843648629132189
 30
0.0
 11
-110.109898297154
 21
7.1315750413729404
 31
0.0
  0
LINE
  5
1B4A
  8
247
 10
-111.9302771707888
 20
5.3111961677381814
 30
0.0
 11
-111.62579515655101
 21
5.6156781819760146
 31
0.0
  0
LINE
  5
1B4B
  8
247
 10
-110.4217361589286
 20
7.1564967841384606
 30
0.0
 11
-110.17434751527151
 21
7.403885427795621
 31
0.0
  0
LINE
  5
1B4C
  8
247
 10
-112.2670367753289
 20
5.3111961677381876
 30
0.0
 11
-111.9639056796147
 21
5.6143272634523873
 31
0.0
  0
LINE
  5
1B4D
  8
247
 10
-110.5019159575579
 20
7.4130765900492293
 30
0.0
 11
-110.2746565854988
 21
7.6403359621083951
 31
0.0
  0
LINE
  5
1B4E
  8
247
 10
-112.603796379869
 20
5.3111961677381814
 30
0.0
 11
-112.3006652841548
 21
5.6143272634523811
 31
0.0
  0
LINE
  5
1B4F
  8
247
 10
-110.62157834078189
 20
7.630173811365438
 30
0.0
 11
-110.4042247692331
 21
7.847527382914194
 31
0.0
  0
LINE
  5
1B50
  8
247
 10
-112.9405559844091
 20
5.3111961677381876
 30
0.0
 11
-112.63742488869489
 21
5.6143272634523873
 31
0.0
  0
LINE
  5
1B51
  8
247
 10
-110.7743666556525
 20
7.8141451010348737
 30
0.0
 11
-110.56002056407
 21
8.0284911926173663
 31
0.0
  0
LINE
  5
1B52
  8
247
 10
-113.27731558894919
 20
5.3111961677381876
 30
0.0
 11
-112.974184493235
 21
5.6143272634523953
 31
0.0
  0
LINE
  5
1B53
  8
247
 10
-110.9585483096989
 20
7.9667230515285601
 30
0.0
 11
-110.741153639705
 21
8.1841177215224974
 31
0.0
  0
LINE
  5
1B54
  8
247
 10
-113.6140751934893
 20
5.3111961677381814
 30
0.0
 11
-113.31094409777511
 21
5.6143272634523953
 31
0.0
  0
LINE
  5
1B55
  8
247
 10
-111.1758801692864
 20
8.0861507964811636
 30
0.0
 11
-110.9485265917271
 21
8.3135043740404821
 31
0.0
  0
LINE
  5
1B56
  8
247
 10
-113.9508347980294
 20
5.3111961677381947
 30
0.0
 11
-113.6477037023152
 21
5.6143272634524024
 31
0.0
  0
LINE
  5
1B57
  8
247
 10
-111.43276027042801
 20
8.166030299879651
 30
0.0
 11
-111.18518820027261
 21
8.4136023700350364
 31
0.0
  0
LINE
  5
1B58
  8
247
 10
-114.2875944025695
 20
5.3111961677381876
 30
0.0
 11
-113.9844633068552
 21
5.6143272634523953
 31
0.0
  0
LINE
  5
1B59
  8
247
 10
-111.7460913042656
 20
8.1894588705821505
 30
0.0
 11
-111.45777235958801
 21
8.4777778152596781
 31
0.0
  0
LINE
  5
1B5A
  8
247
 10
-114.6243540071096
 20
5.3111961677381876
 30
0.0
 11
-114.3212229113954
 21
5.6143272634523811
 31
0.0
  0
LINE
  5
1B5B
  8
247
 10
-112.02825783177791
 20
8.2440519476098828
 30
0.0
 11
-111.7811827190021
 21
8.4911270603857272
 31
0.0
  0
LINE
  5
1B5C
  8
247
 10
-114.96111361164959
 20
5.3111961677381876
 30
0.0
 11
-114.6579825159354
 21
5.6143272634524024
 31
0.0
  0
LINE
  5
1B5D
  8
247
 10
-115.2978732161898
 20
5.3111961677381876
 30
0.0
 11
-114.99474212047549
 21
5.6143272634523953
 31
0.0
  0
LINE
  5
1B5E
  8
247
 10
-115.63463282072981
 20
5.3111961677381947
 30
0.0
 11
-115.3315017250156
 21
5.6143272634524157
 31
0.0
  0
LINE
  5
1B5F
  8
247
 10
-115.9713924252699
 20
5.3111961677381814
 30
0.0
 11
-115.6682613295557
 21
5.6143272634524024
 31
0.0
  0
LINE
  5
1B60
  8
247
 10
-116.30815202981
 20
5.3111961677382018
 30
0.0
 11
-116.0050209340958
 21
5.6143272634524086
 31
0.0
  0
LINE
  5
1B61
  8
247
 10
-116.64491163435009
 20
5.3111961677381876
 30
0.0
 11
-116.3417805386359
 21
5.6143272634523953
 31
0.0
  0
LINE
  5
1B62
  8
247
 10
-116.9816712388902
 20
5.3111961677382018
 30
0.0
 11
-116.67854014317599
 21
5.6143272634524086
 31
0.0
  0
LINE
  5
1B63
  8
247
 10
-117.31843084343031
 20
5.3111961677381947
 30
0.0
 11
-117.0152997477161
 21
5.6143272634523953
 31
0.0
  0
LINE
  5
1B64
  8
247
 10
-117.6551904479704
 20
5.3111961677382089
 30
0.0
 11
-117.35205935225621
 21
5.6143272634524024
 31
0.0
  0
LINE
  5
1B65
  8
247
 10
-117.9851583927661
 20
5.3179878274825683
 30
0.0
 11
-117.6888189567963
 21
5.6143272634524024
 31
0.0
  0
LINE
  5
1B66
  8
247
 10
-118.269247555042
 20
5.3706582697467411
 30
0.0
 11
-118.0135954191893
 21
5.6263104055994679
 31
0.0
  0
LINE
  5
1B67
  8
247
 10
-118.51460950842019
 20
5.462055920908611
 30
0.0
 11
-118.28310937756861
 21
5.6935560517602752
 31
0.0
  0
LINE
  5
1B68
  8
247
 10
-118.7293694690116
 20
5.5840555648573647
 30
0.0
 11
-118.5100784406692
 21
5.8033465931997554
 31
0.0
  0
LINE
  5
1B69
  8
247
 10
-118.91732074300759
 20
5.7328638954014428
 30
0.0
 11
-118.7027591926572
 21
5.9474254457518683
 31
0.0
  0
LINE
  5
1B6A
  8
247
 10
-119.0798714273989
 20
5.907072815550257
 30
0.0
 11
-118.86392529894781
 21
6.1230189440013092
 31
0.0
  0
LINE
  5
1B6B
  8
247
 10
-119.21661293372929
 20
6.1070909137598983
 30
0.0
 11
-118.99278693343619
 21
6.330916914053013
 31
0.0
  0
LINE
  5
1B6C
  8
247
 10
-117.46954433924979
 20
8.1909191127794827
 30
0.0
 11
-117.2307312600625
 21
8.4297321919668562
 31
0.0
  0
LINE
  5
1B6D
  8
247
 10
-119.3251629765721
 20
6.3353004754572657
 30
0.0
 11
-119.0844891315877
 21
6.575974320441623
 31
0.0
  0
LINE
  5
1B6E
  8
247
 10
-117.8063039437899
 20
8.1909191127794898
 30
0.0
 11
-117.5031728402743
 21
8.4940502162951148
 31
0.0
  0
LINE
  5
1B6F
  8
247
 10
-119.4001176598793
 20
6.5971053966901394
 30
0.0
 11
-119.1262005026321
 21
6.8710225539373013
 31
0.0
  0
LINE
  5
1B70
  8
247
 10
-118.19279934672851
 20
8.1411833143809957
 30
0.0
 11
-117.83993329077531
 21
8.4940493703342081
 31
0.0
  0
LINE
  5
1B71
  8
247
 10
-119.42971838920811
 20
6.90426427190146
 30
0.0
 11
-119.07685233325481
 21
7.257130327854675
 31
0.0
  0
LINE
  5
1B72
  8
247
 10
-119.3822238768208
 20
7.2885183888287841
 30
0.0
 11
-118.2241874077027
 21
8.4465548579469552
 31
0.0
  0
LINE
  5
1B73
  8
247
 10
-112.66510314297319
 20
5.9234086137141366
 30
0.0
 11
-112.3809223087608
 21
6.2075894479265861
 31
0.0
  0
LINE
  5
1B74
  8
247
 10
-113.1547816862866
 20
5.7704896749408903
 30
0.0
 11
-112.245536267883
 21
6.6797350933444122
 31
0.0
  0
LINE
  5
1B75
  8
247
 10
-113.01176626373839
 20
6.2502647020291411
 30
0.0
 11
-112.11015022700531
 21
7.1518807387622507
 31
0.0
  0
LINE
  5
1B76
  8
247
 10
-113.4710252615745
 20
5.7910057041930401
 30
0.0
 11
-113.11514438374481
 21
6.1468865820227441
 31
0.0
  0
LINE
  5
1B77
  8
247
 10
-112.8590103244258
 20
6.7397802458818949
 30
0.0
 11
-112.2869379248133
 21
7.3118526454943256
 31
0.0
  0
LINE
  5
1B78
  8
247
 10
-113.7158075067199
 20
5.8829830635877514
 30
0.0
 11
-113.45112083184731
 21
6.1476697384603716
 31
0.0
  0
LINE
  5
1B79
  8
247
 10
-112.926828632869
 20
7.0087215419787148
 30
0.0
 11
-112.62369752935339
 21
7.3118526454943327
 31
0.0
  0
LINE
  5
1B7A
  8
247
 10
-113.9130792064374
 20
6.022470968410409
 30
0.0
 11
-113.59204080510401
 21
6.343509369743777
 31
0.0
  0
LINE
  5
1B7B
  8
247
 10
-112.1806424447413
 20
8.0916673346464805
 30
0.0
 11
-112.14908176915981
 21
8.1232280102280257
 31
0.0
  0
LINE
  5
1B7C
  8
247
 10
-114.0688939117713
 20
6.2034158676165561
 30
0.0
 11
-113.51669984207339
 21
6.7556099373143681
 31
0.0
  0
LINE
  5
1B7D
  8
247
 10
-112.6017752285953
 20
8.0072941553326018
 30
0.0
 11
-112.22981541601369
 21
8.3792539679142362
 31
0.0
  0
LINE
  5
1B7E
  8
247
 10
-114.1807632885464
 20
6.428306095381557
 30
0.0
 11
-113.3813133409994
 21
7.2277560429285463
 31
0.0
  0
LINE
  5
1B7F
  8
247
 10
-112.7951380267105
 20
8.1506909617575758
 30
0.0
 11
-112.5681555221757
 21
8.3776734662923147
 31
0.0
  0
LINE
  5
1B80
  8
247
 10
-114.23433671354159
 20
6.7114922749264059
 30
0.0
 11
-113.2459268399253
 21
7.6999021485427193
 31
0.0
  0
LINE
  5
1B81
  8
247
 10
-114.1866196213588
 20
7.095968971649298
 30
0.0
 11
-112.8132738915892
 21
8.4693147014189378
 31
0.0
  0
LINE
  5
1B82
  8
247
 10
-114.07481784999
 20
7.5445303475582364
 30
0.0
 11
-113.13013069790679
 21
8.489217499641434
 31
0.0
  0
TEXT
  5
1B83
  8
247
 10
-109.08604376944091
 20
5.7433917113166961
 30
0.0
 40
2.5
  1
ST20-BFM14/23-49
  7
YOKO
 11
-109.08604376944091
 21
5.7433917113166961
 31
0.0
 73
     1
  0
LINE
  5
1B84
  8
247
 10
-112.1437695281377
 20
8.1063816066759653
 30
0.0
 11
-112.2350590484014
 21
8.3958827968615104
 31
0.0
  0
ARC
  5
1B85
  8
247
 10
-111.6847698943487
 20
6.9026233669298804
 30
0.0
 40
1.288299322128293
 50
110.8721834020771
 51
132.54194893738571
  0
ARC
  5
1B86
  8
247
 10
-112.8739712493292
 20
7.8423206325548804
 30
0.0
 40
0.3182875066995621
 50
1.7101213820643839
 51
163.99839835444811
  0
LINE
  5
1B87
  8
247
 10
-113.5884602324835
 20
6.505353164293167
 30
0.0
 11
-113.1799290435186
 21
7.9300624843615282
 31
0.0
  0
ARC
  5
1B88
  8
247
 10
-113.282502438294
 20
6.4176227565783162
 30
0.0
 40
0.3182872831821442
 50
164.0002730571837
 51
344.00027305718362
  0
LINE
  5
1B89
  8
247
 10
-112.97654464410449
 20
6.3298923488634813
 30
0.0
 11
-112.7818920867315
 21
7.008721541978713
 31
0.0
  0
LINE
  5
1B8A
  8
247
 10
-113.0341656463018
 20
7.008721541978713
 30
0.0
 11
-112.7818920867315
 21
7.008721541978713
 31
0.0
  0
LINE
  5
1B8B
  8
247
 10
-113.0341656463018
 20
7.008721541978713
 30
0.0
 11
-112.94724776910449
 21
7.3118526454943389
 31
0.0
  0
LINE
  5
1B8C
  8
247
 10
-112.94724776910449
 20
7.3118526454943389
 30
0.0
 11
-112.0642788665166
 21
7.3118526454943247
 31
0.0
  0
LINE
  5
1B8D
  8
247
 10
-112.50757720636039
 20
5.7658928152102211
 30
0.0
 11
-112.0642788665166
 21
7.3118526454943247
 31
0.0
  0
LINE
  5
1B8E
  8
247
 10
-112.6853955047002
 20
5.943699669458268
 30
0.0
 11
-112.50757720636039
 21
5.7658928152102211
 31
0.0
  0
ARC
  5
1B8F
  8
247
 10
-113.24995544122361
 20
6.7510578151720662
 30
0.0
 40
0.9851760864257813
 50
163.99975070172709
 51
304.96387329163082
  0
ARC
  5
1B90
  8
247
 10
-111.63924529718069
 20
6.6992618556994099
 30
0.0
 40
2.5780792236328121
 50
155.20517736984181
 51
172.7948259620502
  0
ARC
  5
1B91
  8
247
 10
-113.0326550261846
 20
7.5088855739611287
 30
0.0
 40
0.9851660728454588
 50
53.4440121970555
 51
164.00018438768501
  0
ARC
  5
1B92
  8
247
 10
-111.6847698943487
 20
6.9026233669298804
 30
0.0
 40
1.591427564620969
 50
110.22964506332001
 51
118.57168892371681
  0
LINE
  5
1B93
  8
247
 10
-117.21228912042289
 20
8.4940502162951201
 30
0.0
 11
-117.2992069976202
 21
8.1909191127794951
 31
0.0
  0
LINE
  5
1B94
  8
247
 10
-117.8382923858037
 20
8.4940502162951201
 30
0.0
 11
-117.21228912042289
 21
8.4940502162951201
 31
0.0
  0
LINE
  5
1B95
  8
247
 10
-117.8382923858037
 20
8.1909191127794951
 30
0.0
 11
-117.2992069976202
 21
8.1909191127794951
 31
0.0
  0
ARC
  5
1B96
  8
247
 10
-117.8382923858037
 20
6.9026233669298804
 30
0.0
 40
1.288295745849608
 50
90.0
 51
270.0
  0
ARC
  5
1B97
  8
247
 10
-117.8382923858037
 20
6.9026233669298804
 30
0.0
 40
1.591426849365233
 50
90.0
 51
270.0
  0
LINE
  5
1B98
  8
247
 10
-117.8382923858037
 20
5.3111961677382018
 30
0.0
 11
-111.6847698943487
 21
5.3111961677381876
 31
0.0
  0
LINE
  5
1B99
  8
247
 10
-117.8382923858037
 20
5.6143272634524077
 30
0.0
 11
-111.6847698943487
 21
5.6143272634523917
 31
0.0
  0
ARC
  5
1B9A
  8
247
 10
-111.6847698943487
 20
6.9026233669298804
 30
0.0
 40
1.591426849365233
 50
270.0
 51
104.7707939660941
  0
ARC
  5
1B9B
  8
247
 10
-111.6847698943487
 20
6.9026233669298804
 30
0.0
 40
1.288295745849608
 50
270.0
 51
104.1274364964119
  0
LINE
  5
1B9C
  8
247
 10
-111.9992192046514
 20
8.1519634243029166
 30
0.0
 11
-112.0905087249151
 21
8.4414646144884653
 31
0.0
  0
LINE
  5
1B9D
  8
247
 10
-114.8253605620733
 20
5.7658928152102211
 30
0.0
 11
-114.0430767791143
 21
8.4940502162951201
 31
0.0
  0
LINE
  5
1B9E
  8
247
 10
-117.679230953919
 20
5.7658928152102211
 30
0.0
 11
-116.9838650481576
 21
8.1909191127786141
 31
0.0
  0
LINE
  5
1B9F
  8
247
 10
-116.3152706029416
 20
6.6511160127669893
 30
0.0
 11
-115.3212909270102
 21
7.6450956886984178
 31
0.0
  0
LINE
  5
1BA0
  8
247
 10
-117.4655381678984
 20
6.5111272614304996
 30
0.0
 11
-116.4044489636385
 21
7.5722164656903441
 31
0.0
  0
ARC
  5
1BA1
  8
247
 10
-116.4117977874151
 20
7.7665378566759724
 30
0.0
 40
0.4546839594841006
 50
261.6626016879294
 51
66.338155095189762
  0
LINE
  5
1BA2
  8
247
 10
-116.4328234527601
 20
6.8703227674885854
 30
0.0
 11
-115.3480752451604
 21
7.9550709750883044
 31
0.0
  0
ARC
  5
1BA3
  8
247
 10
-116.0736134307256
 20
7.7362339015978474
 30
0.0
 40
0.7578227519989014
 50
287.66957754739798
 51
90.236159842671583
  0
LINE
  5
1BA4
  8
247
 10
-117.3301525462214
 20
6.9832724876475663
 30
0.0
 11
-116.2690678106686
 21
8.0443572232003202
 31
0.0
  0
LINE
  5
1BA5
  8
247
 10
-116.229314661847
 20
8.1829960321210375
 30
0.0
 11
-116.477727193362
 21
7.3166591880956409
 31
0.0
  0
LINE
  5
1BA6
  8
247
 10
-115.50335433648731
 20
5.7658928152102211
 30
0.0
 11
-114.8166744963994
 21
8.1606151577013701
 31
0.0
  0
LINE
  5
1BA7
  8
247
 10
-114.8314373748174
 20
8.4940502162951201
 30
0.0
 11
-114.0430767791143
 21
8.4940502162951201
 31
0.0
  0
LINE
  5
1BA8
  8
247
 10
-116.1650075244988
 20
8.1484175093701605
 30
0.0
 11
-115.8523800448645
 21
8.4610449890044901
 31
0.0
  0
LINE
  5
1BA9
  8
247
 10
-116.00567423835049
 20
7.970991190978352
 30
0.0
 11
-115.62769215480751
 21
8.3489732745213825
 31
0.0
  0
LINE
  5
1BAA
  8
247
 10
-117.05462386773711
 20
8.4940502162951201
 30
0.0
 11
-116.0767369905526
 21
8.4940502162950065
 31
0.0
  0
LINE
  5
1BAB
  8
247
 10
-117.05938130286739
 20
7.927562940081728
 30
0.0
 11
-116.4928940266541
 21
8.4940502162950633
 31
0.0
  0
LINE
  5
1BAC
  8
247
 10
-117.1415417449349
 20
8.1909191127794951
 30
0.0
 11
-116.9838650481576
 21
8.1909191127786141
 31
0.0
  0
LINE
  5
1BAD
  8
247
 10
-117.05462386773711
 20
8.4940502162951201
 30
0.0
 11
-117.1415417449349
 21
8.1909191127794951
 31
0.0
  0
LINE
  5
1BAE
  8
247
 10
-117.1327847347098
 20
8.1909191127794685
 30
0.0
 11
-116.8296536311942
 21
8.4940502162950935
 31
0.0
  0
LINE
  5
1BAF
  8
247
 10
-115.966821437375
 20
7.6730843874137937
 30
0.0
 11
-115.459560799809
 21
8.1803450249797862
 31
0.0
  0
LINE
  5
1BB0
  8
247
 10
-117.1947669245444
 20
7.455417713864632
 30
0.0
 11
-116.15613442211399
 21
8.4940502162950065
 31
0.0
  0
LINE
  5
1BB1
  8
247
 10
-114.9270527617803
 20
8.1606151577013701
 30
0.0
 11
-114.8166744963994
 21
8.1606151577013701
 31
0.0
  0
LINE
  5
1BB2
  8
247
 10
-114.9270527617803
 20
8.1606151577013701
 30
0.0
 11
-114.8314373748174
 21
8.4940502162951201
 31
0.0
  0
LINE
  5
1BB3
  8
247
 10
-116.8637341959583
 20
5.7658928152102211
 30
0.0
 11
-115.7514772561006
 21
6.8781497550679234
 31
0.0
  0
ARC
  5
1BB4
  8
247
 10
-116.4212963836065
 20
6.5237094875353474
 30
0.0
 40
0.7578163146972659
 50
270.0
 51
40.329840654168393
  0
LINE
  5
1BB5
  8
247
 10
-116.5269745914182
 20
5.7658928152101927
 30
0.0
 11
-115.6699958740592
 21
6.622871532569218
 31
0.0
  0
LINE
  5
1BB6
  8
247
 10
-117.6009237895753
 20
6.0389820352134356
 30
0.0
 11
-116.3183443181529
 21
7.321561506635887
 31
0.0
  0
ARC
  5
1BB7
  8
247
 10
-116.7594807402959
 20
6.5540248867052693
 30
0.0
 40
0.4546969681978227
 50
261.6628542111489
 51
66.338192159110065
  0
LINE
  5
1BB8
  8
247
 10
-116.5769939968027
 20
6.970495679603756
 30
0.0
 11
-116.8254106150177
 21
6.1041331391620988
 31
0.0
  0
LINE
  5
1BB9
  8
247
 10
-117.5372534050385
 20
5.7658928152102211
 30
0.0
 11
-116.6752209983548
 21
6.6279252218938733
 31
0.0
  0
LINE
  5
1BBA
  8
247
 10
-116.1333974293659
 20
5.822710372722395
 30
0.0
 11
-115.7202972687936
 21
6.2358105332947531
 31
0.0
  0
LINE
  5
1BBB
  8
247
 10
-117.679230953919
 20
5.7658928152102211
 30
0.0
 11
-116.4212963836065
 21
5.7658928152102211
 31
0.0
  0
LINE
  5
1BBC
  8
247
 10
-117.20049380049841
 20
5.7658928152102211
 30
0.0
 11
-116.8105996441267
 21
6.1557869715818887
 31
0.0
  0
LINE
  5
1BBD
  8
247
 10
-115.50335433648731
 20
5.7658928152102211
 30
0.0
 11
-114.8253605620733
 21
5.7658928152102211
 31
0.0
  0
ENDBLK
  5
1BC1
  8
0
  0
BLOCK
  8
0
  2
*U17
 70
     1
 10
0.0
 20
0.0
 30
0.0
  3
*U17
  1

  0
TEXT
  5
1BD1
  8
250
 62
    40
 10
243.84337376664891
 20
160.25354530163321
 30
0.0
 40
3.0
  1
\U+2205
 50
90.0
  0
TEXT
  5
1BD2
  8
250
 62
    40
 10
243.84337376664891
 20
162.9678310159189
 30
0.0
 40
3.0
  1
4.2
 50
90.0
  0
ENDBLK
  5
1BD4
  8
0
  0
BLOCK
  8
0
  2
*U18
 70
     1
 10
0.0
 20
0.0
 30
0.0
  3
*U18
  1

  0
TEXT
  5
1BD6
  8
250
 62
    40
 10
181.0061063586657
 20
170.31115281247051
 30
0.0
 40
3.0
  1
\U+2205
 50
90.0
  0
TEXT
  5
1BD7
  8
250
 62
    40
 10
181.0061063586657
 20
173.0254385267562
 30
0.0
 40
3.0
  1
3
 50
90.0
  0
ENDBLK
  5
1BD9
  8
0
  0
BLOCK
  8
0
  2
*U19
 70
     1
 10
0.0
 20
0.0
 30
0.0
  3
*U19
  1

  0
TEXT
  5
1BDB
  8
250
 62
    40
 10
33.843373766648881
 20
-0.522645174557245
 30
0.0
 40
3.0
  1
\U+2205
 50
90.0
  0
TEXT
  5
1BDC
  8
250
 62
    40
 10
33.74337376664888
 20
2.1916405397284691
 30
0.0
 40
2.7999999999999989
  1
4.2
 50
90.0
  0
ENDBLK
  5
1BDE
  8
0
  0
BLOCK
  8
0
  2
*U20
 70
     1
 10
0.0
 20
0.0
 30
0.0
  3
*U20
  1

  0
TEXT
  5
1BE0
  8
250
 62
    40
 10
-28.993893641334299
 20
9.3921051934228572
 30
0.0
 40
3.0
  1
\U+2205
 50
90.0
  0
TEXT
  5
1BE1
  8
250
 62
    40
 10
-29.093893641334301
 20
12.106390907708571
 30
0.0
 40
2.7999999999999989
  1
3
 50
90.0
  0
ENDBLK
  5
1BE3
  8
0
  0
BLOCK
  8
0
  2
*U21
 70
     1
 10
0.0
 20
0.0
 30
0.0
  3
*U21
  1

  0
TEXT
  5
1BE5
  8
AM_5
 62
    40
 10
-62.199999999999939
 20
29.0
 30
0.0
 40
2.7999999999999989
  1
136
  0
ENDBLK
  5
1BE7
  8
0
  0
BLOCK
  8
0
  2
*U22
 70
     1
 10
0.0
 20
0.0
 30
0.0
  3
*U22
  1

  0
TEXT
  5
1BE9
  8
AM_5
 62
    40
 10
2.1333519497372571
 20
22.0
 30
0.0
 40
2.7999999999999989
  1
10
  0
ENDBLK
  5
1BEB
  8
0
  0
BLOCK
  8
0
  2
*U23
 70
     1
 10
0.0
 20
0.0
 30
0.0
  3
*U23
  1

  0
TEXT
  5
1BED
  8
AM_5
 62
    40
 10
-27.10000000000009
 20
22.0
 30
0.0
 40
2.7999999999999989
  1
49
  0
ENDBLK
  5
1BEF
  8
0
  0
BLOCK
  8
0
  2
*U24
 70
     1
 10
0.0
 20
0.0
 30
0.0
  3
*U24
  1

  0
TEXT
  5
1BF1
  8
AM_5
 62
    40
 10
-138.0
 20
-3.8000000000000171
 30
0.0
 40
2.7999999999999989
  1
\U+220520
 50
90.0
  0
ENDBLK
  5
1BF3
  8
0
  0
BLOCK
  8
0
  2
*U25
 70
     1
 10
0.0
 20
0.0
 30
0.0
  3
*U25
  1

  0
TEXT
  5
1BF5
  8
AM_5
 62
    40
 10
15.799999999999891
 20
-8.3945626465379242
 30
0.0
 40
2.7999999999999989
  1
\U+220522.989
 50
90.0
  0
ENDBLK
  5
1BF7
  8
0
  0
BLOCK
  8
0
  2
*U26
 70
     1
 10
0.0
 20
0.0
 30
0.0
  3
*U26
  1

  0
TEXT
  5
1BF9
  8
AM_5
 62
    40
 10
19.999999999999989
 20
-3.7999999999999989
 30
0.0
 40
2.7999999999999989
  1
\U+220523
 50
90.0
  0
ENDBLK
  5
1BFB
  8
0
  0
ENDSEC
  0
SECTION
  2
ENTITIES
  0
TEXT
  5
1719
  8
241
 10
-126.832885759462
 20
41.674132073250092
 30
0.0
 40
4.0
  1
ST20-BFM14/23-49
  7
YOKO
  0
LINE
  5
17E5
  8
250
 10
-0.000000000000125
 20
11.789125293076349
 30
0.0
 11
-0.0000000000001244
 21
22.0
 31
0.0
  0
LINE
  5
17E6
  8
250
 10
-49.00000000000005
 20
7.8499999999999943
 30
0.0
 11
-49.00000000000005
 21
22.0
 31
0.0
  0
LINE
  5
17E7
  8
250
 10
-2.2300000000001239
 20
21.0
 30
0.0
 11
-46.770000000000053
 21
21.0
 31
0.0
  0
LINE
  5
17EB
  8
250
 10
10.000000000000171
 20
11.59999999999977
 30
0.0
 11
10.000000000000171
 21
22.0
 31
0.0
  0
LINE
  5
17EC
  8
250
 10
0.000037232807677
 20
11.792984274397741
 30
0.0
 11
0.0000372328076776
 21
22.0
 31
0.0
  0
LINE
  5
17ED
  8
250
 10
7.7700000000001701
 20
21.0
 30
0.0
 11
2.230037232807677
 21
21.0
 31
0.0
  0
LINE
  5
17F1
  8
250
 10
-126.0
 20
9.5
 30
0.0
 11
-126.0
 21
29.0
 31
0.0
  0
LINE
  5
17F2
  8
250
 10
10.000000000000171
 20
11.59999999999107
 30
0.0
 11
10.000000000000171
 21
29.0
 31
0.0
  0
LINE
  5
17F3
  8
250
 10
-123.77
 20
28.0
 30
0.0
 11
7.770000000000171
 21
28.0
 31
0.0
  0
LINE
  5
17F7
  8
250
 10
-125.5
 20
10.0
 30
0.0
 11
-138.0
 21
10.0
 31
0.0
  0
LINE
  5
17F8
  8
250
 10
-125.5
 20
-9.9999999999999982
 30
0.0
 11
-138.0
 21
-9.9999999999999964
 31
0.0
  0
LINE
  5
17F9
  8
250
 10
-137.0
 20
7.7700000000000014
 30
0.0
 11
-137.0
 21
-7.769999999999996
 31
0.0
  0
LINE
  5
17FD
  8
250
 10
5.2999999999998968
 20
11.499999999999959
 30
0.0
 11
22.0
 21
11.49999999999995
 31
0.0
  0
LINE
  5
17FE
  8
250
 10
21.0
 20
9.2699999999999552
 30
0.0
 11
21.0
 21
-4.5333333333333359
 31
0.0
  0
TEXT
  5
1801
  8
250
 10
-27.10000000000009
 20
22.0
 30
0.0
 40
2.7999999999999989
  1
49
  0
LINE
  5
1802
  8
250
 10
-46.770000000000053
 20
20.62833333333333
 30
0.0
 11
-49.00000000000005
 21
21.0
 31
0.0
  0
LINE
  5
1803
  8
250
 10
-46.770000000000053
 20
21.37166666666667
 30
0.0
 11
-49.00000000000005
 21
21.0
 31
0.0
  0
LINE
  5
1804
  8
250
 10
-49.00000000000005
 20
21.0
 30
0.0
 11
-46.770000000000053
 21
21.0
 31
0.0
  0
LINE
  5
1805
  8
250
 10
-2.2300000000001239
 20
21.37166666666667
 30
0.0
 11
-0.0000000000001245
 21
21.0
 31
0.0
  0
LINE
  5
1806
  8
250
 10
-2.2300000000001239
 20
20.62833333333333
 30
0.0
 11
-0.0000000000001245
 21
21.0
 31
0.0
  0
LINE
  5
1807
  8
250
 10
-0.0000000000001245
 20
21.0
 30
0.0
 11
-2.2300000000001239
 21
21.0
 31
0.0
  0
TEXT
  5
1808
  8
250
 10
2.1333519497372571
 20
22.0
 30
0.0
 40
2.7999999999999989
  1
10
  0
LINE
  5
1809
  8
250
 10
2.230037232807677
 20
20.62833333333333
 30
0.0
 11
0.0000372328076776
 21
21.0
 31
0.0
  0
LINE
  5
180A
  8
250
 10
2.230037232807677
 20
21.37166666666667
 30
0.0
 11
0.0000372328076776
 21
21.0
 31
0.0
  0
LINE
  5
180B
  8
250
 10
0.0000372328076776
 20
21.0
 30
0.0
 11
2.230037232807677
 21
21.0
 31
0.0
  0
LINE
  5
180C
  8
250
 10
7.7700000000001701
 20
21.37166666666667
 30
0.0
 11
10.000000000000171
 21
21.0
 31
0.0
  0
LINE
  5
180D
  8
250
 10
7.7700000000001701
 20
20.62833333333333
 30
0.0
 11
10.000000000000171
 21
21.0
 31
0.0
  0
LINE
  5
180E
  8
250
 10
10.000000000000171
 20
21.0
 30
0.0
 11
7.7700000000001701
 21
21.0
 31
0.0
  0
TEXT
  5
180F
  8
250
 10
-62.199999999999939
 20
29.0
 30
0.0
 40
2.7999999999999989
  1
136
  0
LINE
  5
1810
  8
250
 10
7.770000000000171
 20
28.371666666666659
 30
0.0
 11
10.000000000000171
 21
28.0
 31
0.0
  0
LINE
  5
1811
  8
250
 10
7.770000000000171
 20
27.62833333333333
 30
0.0
 11
10.000000000000171
 21
28.0
 31
0.0
  0
LINE
  5
1812
  8
250
 10
10.000000000000171
 20
28.0
 30
0.0
 11
7.770000000000171
 21
28.0
 31
0.0
  0
LINE
  5
1813
  8
250
 10
-123.77
 20
27.62833333333333
 30
0.0
 11
-126.0
 21
28.0
 31
0.0
  0
LINE
  5
1814
  8
250
 10
-123.77
 20
28.371666666666659
 30
0.0
 11
-126.0
 21
28.0
 31
0.0
  0
LINE
  5
1815
  8
250
 10
-126.0
 20
28.0
 30
0.0
 11
-123.77
 21
28.0
 31
0.0
  0
TEXT
  5
1816
  8
250
 10
19.999999999999989
 20
-3.7999999999999989
 30
0.0
 40
2.7999999999999989
  1
\U+220523
 50
90.0
  0
LINE
  5
1817
  8
250
 10
20.62833333333333
 20
9.2699999999999552
 30
0.0
 11
21.0
 21
11.49999999999995
 31
0.0
  0
LINE
  5
1818
  8
250
 10
21.37166666666667
 20
9.2699999999999552
 30
0.0
 11
21.0
 21
11.49999999999995
 31
0.0
  0
LINE
  5
1819
  8
250
 10
21.0
 20
11.49999999999995
 30
0.0
 11
21.0
 21
9.2699999999999552
 31
0.0
  0
TEXT
  5
181A
  8
250
 10
-138.0
 20
-3.8000000000000171
 30
0.0
 40
2.7999999999999989
  1
\U+220520
 50
90.0
  0
LINE
  5
181B
  8
250
 10
-136.62833333333339
 20
-7.769999999999996
 30
0.0
 11
-137.0
 21
-9.9999999999999964
 31
0.0
  0
LINE
  5
181C
  8
250
 10
-137.3716666666667
 20
-7.769999999999996
 30
0.0
 11
-137.0
 21
-9.9999999999999964
 31
0.0
  0
LINE
  5
181D
  8
250
 10
-137.0
 20
-9.9999999999999964
 30
0.0
 11
-137.0
 21
-7.769999999999996
 31
0.0
  0
LINE
  5
181E
  8
250
 10
-137.3716666666667
 20
7.7700000000000014
 30
0.0
 11
-137.0
 21
10.0
 31
0.0
  0
LINE
  5
181F
  8
250
 10
-136.62833333333339
 20
7.7700000000000014
 30
0.0
 11
-137.0
 21
10.0
 31
0.0
  0
LINE
  5
1820
  8
250
 10
-137.0
 20
10.0
 30
0.0
 11
-137.0
 21
7.7700000000000014
 31
0.0
  0
INSERT
  5
1BC3
  8
240
  2
A$C1D415D9A
 10
0.0
 20
0.0
 30
0.0
  0
VIEWPORT
  5
22
 67
     1
  8
0
 10
261.51769911504419
 20
148.5
 30
0.0
 40
523.0353982300885
 41
297.0
 68
     1
 69
     1
1001
ACAD
1000
MVIEW
1002
{
1070
    16
1010
0.0
1020
0.0
1030
0.0
1010
0.0
1020
0.0
1030
1.0
1040
0.0
1040
297.0
1040
261.51769911504419
1040
148.5
1040
50.0
1040
0.0
1040
0.0
1070
     0
1070
   100
1070
     1
1070
     1
1070
     0
1070
     0
1070
     0
1070
     0
1040
0.0
1040
0.0
1040
0.0
1040
1.0
1040
1.0
1040
10.0
1040
10.0
1070
     0
1002
{
1002
}
1002
}
1001
GENIUS_GENODEF_13
1002
{
1000
HIER
1070
     0
1002
}
1002
{
1000
MANEDIT
1070
     0
1002
}
1002
{
1000
NOSEL
1070
     0
1002
}
1002
{
1000
BEHIND
1070
     0
1002
}
1002
{
1000
OTHER
1070
     0
1002
}
1002
{
1000
REACTOR
1002
}
1001
GENIUS_GENOBJ-N-SDF_13
1002
{
1000
OWNER
1000
GEN
1002
}
1001
GENIUS_GENSCREG_15
1000
PF
1040
1.0
1000
DF
1040
1.0
1000
MIN
1011
0.0
1021
0.0
1031
-1.#QNAN00000000000E+000
1021
0.0
1031
0.0
1000
MAX
1011
523.0353982300885
1021
0.0
1031
-1.#QNAN00000000000E+000
1021
297.0
1031
0.0
1000
FLAGS
1070
     2
  0
ENDSEC
  0
EOF
