ISO-10303-21;
HEADER;
FILE_DESCRIPTION((''),'1');
FILE_NAME('U:/Translate/00_BIG-HP\X2\FF71FF6FFF8CFF9F\X0\2013/ST19-FCR20082-165.stp','2013-12-02T02:05:02',(''),(''),'Spatial Interop R18','Kubotek KeyCreator V8.5.1 (14335)',' ');
FILE_SCHEMA(('CONFIG_CONTROL_DESIGN'));
ENDSEC;
DATA;
#1=DESIGN_CONTEXT('',#27,'design');
#2=APPLICATION_PROTOCOL_DEFINITION('INTERNATIONAL STANDARD','config_control_design',1994,#27);
#3=PRODUCT_CATEGORY_RELATIONSHIP('NONE','NONE',#28,#29);
#4=DATE_AND_TIME(#30,#31);
#5=DATE_TIME_ROLE('creation_date');
#6=DATE_TIME_ROLE('classification_date');
#7=PERSON_AND_ORGANIZATION_ROLE('creator');
#8=PERSON_AND_ORGANIZATION_ROLE('design_supplier');
#9=PERSON_AND_ORGANIZATION_ROLE('classification_officer');
#10=PERSON_AND_ORGANIZATION_ROLE('design_owner');
#11=APPROVAL_PERSON_ORGANIZATION(#32,#33,#34);
#12=APPROVAL_DATE_TIME(#4,#33);
#13=CC_DESIGN_APPROVAL(#33,(#35,#36,#37));
#14=CC_DESIGN_DATE_AND_TIME_ASSIGNMENT(#4,#5,(#37));
#15=CC_DESIGN_DATE_AND_TIME_ASSIGNMENT(#4,#6,(#35));
#16=CC_DESIGN_PERSON_AND_ORGANIZATION_ASSIGNMENT(#32,#10,(#38));
#17=CC_DESIGN_PERSON_AND_ORGANIZATION_ASSIGNMENT(#32,#7,(#37));
#18=CC_DESIGN_PERSON_AND_ORGANIZATION_ASSIGNMENT(#32,#7,(#36));
#19=CC_DESIGN_PERSON_AND_ORGANIZATION_ASSIGNMENT(#32,#8,(#36));
#20=CC_DESIGN_SECURITY_CLASSIFICATION(#35,(#36));
#21=CC_DESIGN_PERSON_AND_ORGANIZATION_ASSIGNMENT(#32,#9,(#35));
#22=SHAPE_DEFINITION_REPRESENTATION(#39,#40);
#23= (GEOMETRIC_REPRESENTATION_CONTEXT(3)GLOBAL_UNCERTAINTY_ASSIGNED_CONTEXT((#43))GLOBAL_UNIT_ASSIGNED_CONTEXT((#45,#46,#47))REPRESENTATION_CONTEXT('NONE','WORKSPACE'));
#27=APPLICATION_CONTEXT('CONFIGURATION CONTROLLED 3D DESIGNS OF MECHANICAL PARTS AND ASSEMBLIES');
#28=PRODUCT_CATEGORY('part','NONE');
#29=PRODUCT_RELATED_PRODUCT_CATEGORY('detail',' ',(#38));
#30=CALENDAR_DATE(2013,2,11);
#31=LOCAL_TIME(11,5,2.0,#49);
#32=PERSON_AND_ORGANIZATION(#50,#51);
#33=APPROVAL(#52,'SOLID MODEL');
#34=APPROVAL_ROLE('APPROVED');
#35=SECURITY_CLASSIFICATION('','',#53);
#36=PRODUCT_DEFINITION_FORMATION_WITH_SPECIFIED_SOURCE(' ','NONE',#38,.NOT_KNOWN.);
#37=PRODUCT_DEFINITION('NONE','NONE',#36,#1);
#38=PRODUCT('1','1','PART-1-DESC',(#54));
#39=PRODUCT_DEFINITION_SHAPE('NONE','NONE',#37);
#40=ADVANCED_BREP_SHAPE_REPRESENTATION('1',(#55,#56),#23);
#43=UNCERTAINTY_MEASURE_WITH_UNIT(LENGTH_MEASURE(1.0E-006),#45,'','');
#45= (CONVERSION_BASED_UNIT('MILLIMETRE',#59)LENGTH_UNIT()NAMED_UNIT(#62));
#46= (NAMED_UNIT(#64)PLANE_ANGLE_UNIT()SI_UNIT($,.RADIAN.));
#47= (NAMED_UNIT(#64)SOLID_ANGLE_UNIT()SI_UNIT($,.STERADIAN.));
#49=COORDINATED_UNIVERSAL_TIME_OFFSET(9,0,.AHEAD.);
#50=PERSON('','UNSPECIFIED',$,$,$,$);
#51=ORGANIZATION('UNSPECIFIED','UNSPECIFIED','UNSPECIFIED');
#52=APPROVAL_STATUS('approved');
#53=SECURITY_CLASSIFICATION_LEVEL('unclassified');
#54=MECHANICAL_CONTEXT('',#27,'mechanical');
#55=MANIFOLD_SOLID_BREP('1',#70);
#56=AXIS2_PLACEMENT_3D('',#71,#72,#73);
#59=LENGTH_MEASURE_WITH_UNIT(LENGTH_MEASURE(1.0),#74);
#62=DIMENSIONAL_EXPONENTS(1.0,0.0,0.0,0.0,0.0,0.0,0.0);
#64=DIMENSIONAL_EXPONENTS(0.0,0.0,0.0,0.0,0.0,0.0,0.0);
#70=CLOSED_SHELL('',(#75,#76,#77,#78,#79,#80,#81));
#71=CARTESIAN_POINT('',(0.0,0.0,0.0));
#72=DIRECTION('',(0.0,0.0,1.0));
#73=DIRECTION('',(1.0,0.0,0.0));
#74= (NAMED_UNIT(#62)LENGTH_UNIT()SI_UNIT(.MILLI.,.METRE.));
#75=ADVANCED_FACE('',(#83),#84,.T.);
#76=ADVANCED_FACE('',(#85,#86),#87,.T.);
#77=ADVANCED_FACE('',(#88,#89),#90,.T.);
#78=ADVANCED_FACE('',(#91,#92),#93,.T.);
#79=ADVANCED_FACE('',(#94,#95),#96,.T.);
#80=ADVANCED_FACE('',(#97,#98),#99,.T.);
#81=ADVANCED_FACE('',(#100),#101,.T.);
#83=FACE_OUTER_BOUND('',#102,.T.);
#84=PLANE('',#103);
#85=FACE_BOUND('',#104,.T.);
#86=FACE_BOUND('',#105,.T.);
#87=CYLINDRICAL_SURFACE('',#106,10.0);
#88=FACE_BOUND('',#107,.T.);
#89=FACE_BOUND('',#108,.T.);
#90=CONICAL_SURFACE('',#109,9.62500000000113,1.12034516422895);
#91=FACE_BOUND('',#110,.T.);
#92=FACE_BOUND('',#111,.T.);
#93=CYLINDRICAL_SURFACE('',#112,9.25000000000078);
#94=FACE_OUTER_BOUND('',#113,.T.);
#95=FACE_BOUND('',#114,.T.);
#96=PLANE('',#115);
#97=FACE_BOUND('',#116,.T.);
#98=FACE_BOUND('',#117,.T.);
#99=CYLINDRICAL_SURFACE('',#118,9.50000000000091);
#100=FACE_OUTER_BOUND('',#119,.T.);
#101=PLANE('',#120);
#102=EDGE_LOOP('',(#121));
#103=AXIS2_PLACEMENT_3D('',#122,#123,#124);
#104=EDGE_LOOP('',(#125));
#105=EDGE_LOOP('',(#126));
#106=AXIS2_PLACEMENT_3D('',#127,#128,#129);
#107=EDGE_LOOP('',(#130));
#108=EDGE_LOOP('',(#131));
#109=AXIS2_PLACEMENT_3D('',#132,#133,#134);
#110=EDGE_LOOP('',(#135));
#111=EDGE_LOOP('',(#136));
#112=AXIS2_PLACEMENT_3D('',#137,#138,#139);
#113=EDGE_LOOP('',(#140));
#114=EDGE_LOOP('',(#141));
#115=AXIS2_PLACEMENT_3D('',#142,#143,#144);
#116=EDGE_LOOP('',(#145));
#117=EDGE_LOOP('',(#146));
#118=AXIS2_PLACEMENT_3D('',#147,#148,#149);
#119=EDGE_LOOP('',(#150));
#120=AXIS2_PLACEMENT_3D('',#151,#152,#153);
#121=ORIENTED_EDGE('',*,*,#154,.F.);
#122=CARTESIAN_POINT('',(-8.83524213847533E-029,5.00000000000004,1.4495071809506E-012));
#123=DIRECTION('',(6.12323399573677E-017,-2.89778971510204E-013,-1.0));
#124=DIRECTION('',(-1.77390173432784E-029,-1.0,2.89778971510204E-013));
#125=ORIENTED_EDGE('',*,*,#155,.F.);
#126=ORIENTED_EDGE('',*,*,#154,.T.);
#127=CARTESIAN_POINT('',(-3.3706285819351E-016,-3.47757080987126E-015,5.50465421423038));
#128=DIRECTION('',(6.12323399573677E-017,6.31751000976799E-016,-1.0));
#129=DIRECTION('',(-4.35107447909871E-032,1.0,6.31751000976799E-016));
#130=ORIENTED_EDGE('',*,*,#156,.F.);
#131=ORIENTED_EDGE('',*,*,#155,.T.);
#132=CARTESIAN_POINT('',(-6.85230468167912E-016,-7.06971241775645E-015,11.1906627877523));
#133=DIRECTION('',(6.12323399573677E-017,6.31751000976805E-016,-1.0));
#134=DIRECTION('',(-4.35107447909835E-032,1.0,6.31751000976805E-016));
#135=ORIENTED_EDGE('',*,*,#157,.F.);
#136=ORIENTED_EDGE('',*,*,#156,.T.);
#137=CARTESIAN_POINT('',(-1.26665270933515E-015,-1.30684066225398E-014,20.6860085735258));
#138=DIRECTION('',(6.12323399573676E-017,6.31751000976822E-016,-1.0));
#139=DIRECTION('',(-4.35107447909912E-032,1.0,6.31751000976822E-016));
#140=ORIENTED_EDGE('',*,*,#158,.F.);
#141=ORIENTED_EDGE('',*,*,#157,.T.);
#142=CARTESIAN_POINT('',(-1.83697019872136E-015,9.37500000000063,30.0000000000055));
#143=DIRECTION('',(6.12323399573677E-017,-1.79623978951412E-011,-1.0));
#144=DIRECTION('',(-1.09987482721206E-027,-1.0,1.79623978951412E-011));
#145=ORIENTED_EDGE('',*,*,#159,.F.);
#146=ORIENTED_EDGE('',*,*,#158,.T.);
#147=CARTESIAN_POINT('',(-5.97015314584353E-015,-6.15957225952408E-014,97.5000000000029));
#148=DIRECTION('',(6.12323399573676E-017,6.31751000976817E-016,-1.0));
#149=DIRECTION('',(-4.3510744790988E-032,1.0,6.31751000976817E-016));
#150=ORIENTED_EDGE('',*,*,#159,.T.);
#151=CARTESIAN_POINT('',(-1.01033360929658E-014,4.74999999999981,165.000000000003));
#152=DIRECTION('',(-6.12323399573677E-017,1.48363297571403E-014,1.0));
#153=DIRECTION('',(9.03636034678055E-031,1.0,-1.48363297571403E-014));
#154=EDGE_CURVE('',#160,#160,#161,.T.);
#155=EDGE_CURVE('',#162,#162,#163,.T.);
#156=EDGE_CURVE('',#164,#164,#165,.T.);
#157=EDGE_CURVE('',#166,#166,#167,.T.);
#158=EDGE_CURVE('',#168,#168,#169,.T.);
#159=EDGE_CURVE('',#170,#170,#171,.T.);
#160=VERTEX_POINT('',#172);
#161=CIRCLE('',#173,10.0000000000001);
#162=VERTEX_POINT('',#174);
#163=CIRCLE('',#175,9.99999999999999);
#164=VERTEX_POINT('',#176);
#165=CIRCLE('',#177,9.25000000000226);
#166=VERTEX_POINT('',#178);
#167=CIRCLE('',#179,9.2499999999993);
#168=VERTEX_POINT('',#180);
#169=CIRCLE('',#181,9.50000000000201);
#170=VERTEX_POINT('',#182);
#171=CIRCLE('',#183,9.49999999999982);
#172=CARTESIAN_POINT('',(0.0,10.0000000000001,0.0));
#173=AXIS2_PLACEMENT_3D('',#184,#185,#186);
#174=CARTESIAN_POINT('',(-6.74125716387022E-016,9.99999999999999,11.0093084284608));
#175=AXIS2_PLACEMENT_3D('',#187,#188,#189);
#176=CARTESIAN_POINT('',(-6.963352199488E-016,9.25000000000225,11.3720171470438));
#177=AXIS2_PLACEMENT_3D('',#190,#191,#192);
#178=CARTESIAN_POINT('',(-1.8369701987215E-015,9.24999999999928,30.0000000000077));
#179=AXIS2_PLACEMENT_3D('',#193,#194,#195);
#180=CARTESIAN_POINT('',(-1.83697019872123E-015,9.50000000000199,30.0000000000032));
#181=AXIS2_PLACEMENT_3D('',#196,#197,#198);
#182=CARTESIAN_POINT('',(-1.01033360929658E-014,9.49999999999972,165.000000000003));
#183=AXIS2_PLACEMENT_3D('',#199,#200,#201);
#184=CARTESIAN_POINT('',(0.0,0.0,0.0));
#185=DIRECTION('',(-6.12323399573677E-017,-6.31751000976796E-016,1.0));
#186=DIRECTION('',(-4.35107447909869E-032,1.0,6.31751000976796E-016));
#187=CARTESIAN_POINT('',(-6.74125716387022E-016,-6.95514161974251E-015,11.0093084284608));
#188=DIRECTION('',(-6.12323399573676E-017,-6.31751000976802E-016,1.0));
#189=DIRECTION('',(-4.35107447909873E-032,1.0,6.31751000976802E-016));
#190=CARTESIAN_POINT('',(-6.963352199488E-016,-7.18428321577036E-015,11.3720171470438));
#191=DIRECTION('',(-6.12323399573676E-017,-6.31751000976809E-016,1.0));
#192=DIRECTION('',(-4.35107447909891E-032,1.0,6.31751000976809E-016));
#193=CARTESIAN_POINT('',(-1.8369701987215E-015,-1.89525300293091E-014,30.0000000000077));
#194=DIRECTION('',(-6.12323399573677E-017,-6.31751000976836E-016,1.0));
#195=DIRECTION('',(-4.35107447909885E-032,1.0,6.31751000976836E-016));
#196=CARTESIAN_POINT('',(-1.83697019872123E-015,-1.89525300293063E-014,30.0000000000032));
#197=DIRECTION('',(-6.12323399573677E-017,-6.3175100097683E-016,1.0));
#198=DIRECTION('',(-4.35107447909924E-032,1.0,6.3175100097683E-016));
#199=CARTESIAN_POINT('',(-1.01033360929658E-014,-1.04238915161175E-013,165.000000000003));
#200=DIRECTION('',(-6.12323399573677E-017,-6.31751000976805E-016,1.0));
#201=DIRECTION('',(-4.35107447909883E-032,1.0,6.31751000976805E-016));
ENDSEC;
END-ISO-10303-21;
